  0
SECTION
  2
HEADER
  9
$EXTMIN
 10
0
 20
0
  9
$EXTMAX
 10
1189
 20
841
  9
$LTSCALE
 40
1
  9
$LIMMIN
 10
0
 20
0
  9
$LIMMAX
 10
1189
 20
841
  9
$DIMSCALE
 40
1
  0
ENDSEC
  0
SECTION
  2
TABLES
  0
TABLE
  2
LTYPE
 70
9
  0
LTYPE
  2
CONTINUOUS
 70
64
  3
----------
 72
65
 73
0
 40
0
  0
LTYPE
  2
DASHED1
 70
64
  3
--  --  --  --  --  --  --  --  
 72
65
 73
2
 40
2.5
 49
1.25
 49
-1.25
  0
LTYPE
  2
DASHED2
 70
64
  3
----    ----    ----    ----    
 72
65
 73
2
 40
5
 49
2.5
 49
-2.5
  0
LTYPE
  2
DASHED3
 70
64
  3
------  ------  ------  ------  
 72
65
 73
2
 40
5
 49
3.75
 49
-1.25
  0
LTYPE
  2
CENTER1
 70
64
  3
----- - ----- - ----- - ----- - 
 72
65
 73
4
 40
7.5
 49
3.75
 49
-1.25
 49
1.25
 49
-1.25
  0
LTYPE
  2
CENTER2
 70
64
  3
----------  --  ----------  --  
 72
65
 73
4
 40
13.75
 49
6.25
 49
-2.5
 49
2.5
 49
-2.5
  0
LTYPE
  2
PHANTOM1
 70
64
  3
--- - - --- - - --- - - --- - - 
 72
65
 73
6
 40
9.5
 49
3.25
 49
-1.25
 49
1.25
 49
-1.25
 49
1.25
 49
-1.25
  0
LTYPE
  2
PHANTOM2
 70
64
  3
--------  -  -  --------  -  -  
 72
65
 73
6
 40
18
 49
8
 49
-2.5
 49
1.25
 49
-2.5
 49
1.25
 49
-2.5
  0
LTYPE
  2
DOT
 70
64
  3
-   -   -   -   -   -   -   -   
 72
65
 73
2
 40
2.5
 49
0.625
 49
-1.875
  0
LTYPE
  2
HOJO
 70
64
  3
-   -   -   -   -   -   -   -   
 72
65
 73
2
 40
2.5
 49
0.625
 49
-1.875
  0
ENDTAB
  0
TABLE
  2
STYLE
 70
2
  0
STYLE
  2
STANDARD
 70
64
 40
0
 41
1
 42
0
 50
0
 71
0
  3
TXT
  4
BIGFONT
  0
STYLE
  2
TATEGAKI
 70
68
 40
0
 41
1
 42
0
 50
0
 71
0
  3
TXT
  4
EXTFONT
  0
ENDTAB
  0
TABLE
  2
LAYER
 70
1
  0
LAYER
  2
Layer2
 70
64
 62
7
  6
CONTINUOUS
  0
ENDTAB
  0
ENDSEC
  0
SECTION
  2
ENTITIES
  0
LINE
  8
Layer2
  6
CONTINUOUS
 62
7
 10
479.352
 20
399.985
 11
496.589
 21
399.985
  0
LINE
  8
Layer2
  6
CONTINUOUS
 62
7
 10
467.97
 20
377.486
 11
507.97
 21
377.486
  0
LINE
  8
Layer2
  6
DASHED1
 62
7
 10
469.142
 20
371.986
 11
478.72
 21
371.986
  0
LINE
  8
Layer2
  6
DASHED1
 62
7
 10
497.384
 20
377.782
 11
497.384
 21
358.058
  0
LINE
  8
Layer2
  6
DASHED1
 62
7
 10
478.315
 20
374.28
 11
497.384
 21
374.28
  0
LINE
  8
Layer2
  6
DASHED1
 62
7
 10
492.315
 20
399.469
 11
492.315
 21
377.78
  0
LINE
  8
Layer2
  6
DASHED1
 62
7
 10
483.625
 20
399.469
 11
483.625
 21
377.78
  0
LINE
  8
Layer2
  6
DASHED1
 62
7
 10
469.22
 20
371.985
 11
469.22
 21
377.486
  0
LINE
  8
Layer2
  6
CONTINUOUS
 62
7
 10
478.315
 20
371.986
 11
478.315
 21
377.78
  0
LINE
  8
Layer2
  6
CENTER1
 62
7
 10
501.97
 20
380.315
 11
501.97
 21
326.606
  0
LINE
  8
Layer2
  6
CENTER1
 62
7
 10
473.97
 20
378.987
 11
473.97
 21
328.054
  0
LINE
  8
Layer2
  6
CENTER1
 62
7
 10
479.252
 20
354.986
 11
502.87
 21
354.986
  0
LINE
  8
Layer2
  6
DASHED1
 62
7
 10
470.97
 20
330.504
 11
470.97
 21
371.986
  0
LINE
  8
Layer2
  6
DASHED1
 62
7
 10
476.97
 20
330.504
 11
476.97
 21
371.986
  0
LINE
  8
Layer2
  6
CONTINUOUS
 62
7
 10
467.97
 20
329.986
 11
507.97
 21
329.986
  0
LINE
  8
Layer2
  6
CONTINUOUS
 62
7
 10
507.97
 20
329.986
 11
507.97
 21
377.486
  0
LINE
  8
Layer2
  6
CONTINUOUS
 62
7
 10
467.97
 20
377.486
 11
467.97
 21
329.986
  0
LINE
  8
Layer2
  6
DASHED1
 62
7
 10
483.348
 20
356.985
 11
479.352
 21
356.985
  0
LINE
  8
Layer2
  6
DASHED1
 62
7
 10
492.074
 20
357.539
 11
492.074
 21
363.418
  0
LINE
  8
Layer2
  6
DASHED1
 62
7
 10
483.867
 20
357.539
 11
483.867
 21
363.659
  0
LINE
  8
Layer2
  6
DASHED1
 62
7
 10
478.315
 20
358.058
 11
478.315
 21
374.28
  0
LINE
  8
Layer2
  6
DASHED1
 62
7
 10
492.628
 20
356.985
 11
496.021
 21
356.985
  0
LINE
  8
Layer2
  6
CENTER1
 62
7
 10
487.97
 20
372.349
 11
487.97
 21
326.787
  0
LINE
  8
Layer2
  6
CONTINUOUS
 62
7
 10
497.626
 20
398.951
 11
497.626
 21
377.78
  0
LINE
  8
Layer2
  6
CONTINUOUS
 62
7
 10
478.315
 20
398.951
 11
478.315
 21
377.78
  0
LINE
  8
Layer2
  6
CENTER1
 62
7
 10
487.97
 20
401.919
 11
487.97
 21
368.849
  0
LINE
  8
Layer2
  6
DASHED1
 62
7
 10
492.315
 20
377.78
 11
492.315
 21
372.47
  0
LINE
  8
Layer2
  6
DASHED1
 62
7
 10
483.625
 20
377.78
 11
483.625
 21
372.711
  0
LINE
  8
Layer2
  6
DASHED1
 62
7
 10
483.625
 20
372.711
 11
487.97
 21
370.056
  0
LINE
  8
Layer2
  6
DASHED1
 62
7
 10
487.97
 20
370.056
 11
492.315
 21
372.47
  0
LINE
  8
Layer2
  6
CONTINUOUS
 62
7
 10
484.168
 20
384.358
 11
492.013
 21
384.358
  0
LINE
  8
Layer2
  6
CONTINUOUS
 62
7
 10
483.841
 20
383.754
 11
492.315
 21
383.754
  0
LINE
  8
Layer2
  6
CONTINUOUS
 62
7
 10
483.746
 20
380.375
 11
492.194
 21
380.375
  0
LINE
  8
Layer2
  6
CONTINUOUS
 62
7
 10
492.919
 20
379.651
 11
483.022
 21
379.651
  0
LINE
  8
Layer2
  6
CONTINUOUS
 62
7
 10
492.919
 20
379.651
 11
492.919
 21
377.78
  0
LINE
  8
Layer2
  6
CONTINUOUS
 62
7
 10
483.022
 20
379.651
 11
483.022
 21
377.78
  0
POLYLINE
  8
Layer2
  6
CONTINUOUS
 62
7
 66
1
 10
0
 20
0
 30
0
  0
VERTEX
  8
Layer2
 10
487.963
 20
381.571
  0
VERTEX
  8
Layer2
 10
487.898
 20
381.628
  0
VERTEX
  8
Layer2
 10
487.831
 20
381.684
  0
VERTEX
  8
Layer2
 10
487.763
 20
381.737
  0
VERTEX
  8
Layer2
 10
487.694
 20
381.789
  0
VERTEX
  8
Layer2
 10
487.623
 20
381.839
  0
VERTEX
  8
Layer2
 10
487.551
 20
381.887
  0
VERTEX
  8
Layer2
 10
487.477
 20
381.933
  0
VERTEX
  8
Layer2
 10
487.403
 20
381.978
  0
VERTEX
  8
Layer2
 10
487.327
 20
382.02
  0
VERTEX
  8
Layer2
 10
487.25
 20
382.06
  0
VERTEX
  8
Layer2
 10
487.173
 20
382.099
  0
VERTEX
  8
Layer2
 10
487.094
 20
382.135
  0
VERTEX
  8
Layer2
 10
487.014
 20
382.17
  0
VERTEX
  8
Layer2
 10
486.934
 20
382.202
  0
VERTEX
  8
Layer2
 10
486.853
 20
382.232
  0
VERTEX
  8
Layer2
 10
486.77
 20
382.26
  0
VERTEX
  8
Layer2
 10
486.688
 20
382.286
  0
VERTEX
  8
Layer2
 10
486.604
 20
382.31
  0
VERTEX
  8
Layer2
 10
486.52
 20
382.331
  0
VERTEX
  8
Layer2
 10
486.436
 20
382.351
  0
VERTEX
  8
Layer2
 10
486.351
 20
382.368
  0
VERTEX
  8
Layer2
 10
486.265
 20
382.383
  0
VERTEX
  8
Layer2
 10
486.18
 20
382.396
  0
VERTEX
  8
Layer2
 10
486.094
 20
382.407
  0
VERTEX
  8
Layer2
 10
486.007
 20
382.415
  0
VERTEX
  8
Layer2
 10
485.921
 20
382.421
  0
VERTEX
  8
Layer2
 10
485.834
 20
382.425
  0
VERTEX
  8
Layer2
 10
485.748
 20
382.427
  0
VERTEX
  8
Layer2
 10
485.661
 20
382.426
  0
VERTEX
  8
Layer2
 10
485.574
 20
382.423
  0
VERTEX
  8
Layer2
 10
485.488
 20
382.418
  0
VERTEX
  8
Layer2
 10
485.401
 20
382.411
  0
VERTEX
  8
Layer2
 10
485.315
 20
382.401
  0
VERTEX
  8
Layer2
 10
485.229
 20
382.39
  0
VERTEX
  8
Layer2
 10
485.144
 20
382.376
  0
VERTEX
  8
Layer2
 10
485.058
 20
382.36
  0
VERTEX
  8
Layer2
 10
484.974
 20
382.341
  0
VERTEX
  8
Layer2
 10
484.889
 20
382.321
  0
VERTEX
  8
Layer2
 10
484.806
 20
382.298
  0
VERTEX
  8
Layer2
 10
484.723
 20
382.273
  0
VERTEX
  8
Layer2
 10
484.64
 20
382.246
  0
VERTEX
  8
Layer2
 10
484.559
 20
382.217
  0
VERTEX
  8
Layer2
 10
484.478
 20
382.186
  0
VERTEX
  8
Layer2
 10
484.398
 20
382.152
  0
VERTEX
  8
Layer2
 10
484.318
 20
382.117
  0
VERTEX
  8
Layer2
 10
484.24
 20
382.079
  0
VERTEX
  8
Layer2
 10
484.163
 20
382.04
  0
VERTEX
  8
Layer2
 10
484.087
 20
381.998
  0
SEQEND
  0
POLYLINE
  8
Layer2
  6
CONTINUOUS
 62
7
 66
1
 10
0
 20
0
 30
0
  0
VERTEX
  8
Layer2
 10
492.316
 20
381.944
  0
VERTEX
  8
Layer2
 10
492.228
 20
381.979
  0
VERTEX
  8
Layer2
 10
492.14
 20
382.013
  0
VERTEX
  8
Layer2
 10
492.051
 20
382.045
  0
VERTEX
  8
Layer2
 10
491.962
 20
382.075
  0
VERTEX
  8
Layer2
 10
491.872
 20
382.104
  0
VERTEX
  8
Layer2
 10
491.781
 20
382.131
  0
VERTEX
  8
Layer2
 10
491.69
 20
382.155
  0
VERTEX
  8
Layer2
 10
491.599
 20
382.178
  0
VERTEX
  8
Layer2
 10
491.507
 20
382.2
  0
VERTEX
  8
Layer2
 10
491.414
 20
382.219
  0
VERTEX
  8
Layer2
 10
491.321
 20
382.236
  0
VERTEX
  8
Layer2
 10
491.228
 20
382.252
  0
VERTEX
  8
Layer2
 10
491.135
 20
382.266
  0
VERTEX
  8
Layer2
 10
491.041
 20
382.278
  0
VERTEX
  8
Layer2
 10
490.947
 20
382.288
  0
VERTEX
  8
Layer2
 10
490.853
 20
382.296
  0
VERTEX
  8
Layer2
 10
490.759
 20
382.302
  0
VERTEX
  8
Layer2
 10
490.664
 20
382.306
  0
VERTEX
  8
Layer2
 10
490.57
 20
382.309
  0
VERTEX
  8
Layer2
 10
490.476
 20
382.309
  0
VERTEX
  8
Layer2
 10
490.381
 20
382.308
  0
VERTEX
  8
Layer2
 10
490.287
 20
382.305
  0
VERTEX
  8
Layer2
 10
490.193
 20
382.3
  0
VERTEX
  8
Layer2
 10
490.098
 20
382.293
  0
VERTEX
  8
Layer2
 10
490.004
 20
382.284
  0
VERTEX
  8
Layer2
 10
489.911
 20
382.273
  0
VERTEX
  8
Layer2
 10
489.817
 20
382.261
  0
VERTEX
  8
Layer2
 10
489.724
 20
382.246
  0
VERTEX
  8
Layer2
 10
489.631
 20
382.23
  0
VERTEX
  8
Layer2
 10
489.538
 20
382.212
  0
VERTEX
  8
Layer2
 10
489.446
 20
382.192
  0
VERTEX
  8
Layer2
 10
489.354
 20
382.17
  0
VERTEX
  8
Layer2
 10
489.262
 20
382.146
  0
VERTEX
  8
Layer2
 10
489.171
 20
382.121
  0
VERTEX
  8
Layer2
 10
489.081
 20
382.093
  0
VERTEX
  8
Layer2
 10
488.991
 20
382.064
  0
VERTEX
  8
Layer2
 10
488.902
 20
382.033
  0
VERTEX
  8
Layer2
 10
488.813
 20
382
  0
VERTEX
  8
Layer2
 10
488.726
 20
381.966
  0
VERTEX
  8
Layer2
 10
488.638
 20
381.93
  0
VERTEX
  8
Layer2
 10
488.552
 20
381.892
  0
VERTEX
  8
Layer2
 10
488.466
 20
381.852
  0
VERTEX
  8
Layer2
 10
488.381
 20
381.811
  0
VERTEX
  8
Layer2
 10
488.297
 20
381.768
  0
VERTEX
  8
Layer2
 10
488.214
 20
381.723
  0
VERTEX
  8
Layer2
 10
488.132
 20
381.676
  0
VERTEX
  8
Layer2
 10
488.051
 20
381.628
  0
VERTEX
  8
Layer2
 10
487.97
 20
381.579
  0
SEQEND
  0
LINE
  8
Layer2
  6
CONTINUOUS
 62
7
 10
484.433
 20
382.167
 11
484.099
 21
381.977
  0
LINE
  8
Layer2
  6
CONTINUOUS
 62
7
 10
484.168
 20
384.358
 11
483.309
 21
382.774
  0
LINE
  8
Layer2
  6
CONTINUOUS
 62
7
 10
492.013
 20
384.358
 11
492.901
 21
382.542
  0
LINE
  8
Layer2
  6
CONTINUOUS
 62
7
 10
491.831
 20
382.088
 11
492.316
 21
381.944
  0
POLYLINE
  8
Layer2
  6
CONTINUOUS
 62
7
 66
1
 10
0
 20
0
 30
0
  0
VERTEX
  8
Layer2
 10
483.309
 20
382.774
  0
VERTEX
  8
Layer2
 10
483.294
 20
382.746
  0
VERTEX
  8
Layer2
 10
483.28
 20
382.718
  0
VERTEX
  8
Layer2
 10
483.268
 20
382.689
  0
VERTEX
  8
Layer2
 10
483.258
 20
382.659
  0
VERTEX
  8
Layer2
 10
483.249
 20
382.628
  0
VERTEX
  8
Layer2
 10
483.242
 20
382.598
  0
VERTEX
  8
Layer2
 10
483.237
 20
382.566
  0
VERTEX
  8
Layer2
 10
483.233
 20
382.535
  0
VERTEX
  8
Layer2
 10
483.231
 20
382.503
  0
VERTEX
  8
Layer2
 10
483.231
 20
382.472
  0
VERTEX
  8
Layer2
 10
483.232
 20
382.44
  0
VERTEX
  8
Layer2
 10
483.235
 20
382.409
  0
VERTEX
  8
Layer2
 10
483.24
 20
382.377
  0
VERTEX
  8
Layer2
 10
483.247
 20
382.346
  0
VERTEX
  8
Layer2
 10
483.255
 20
382.316
  0
VERTEX
  8
Layer2
 10
483.265
 20
382.286
  0
VERTEX
  8
Layer2
 10
483.276
 20
382.256
  0
VERTEX
  8
Layer2
 10
483.289
 20
382.228
  0
VERTEX
  8
Layer2
 10
483.304
 20
382.2
  0
VERTEX
  8
Layer2
 10
483.32
 20
382.172
  0
VERTEX
  8
Layer2
 10
483.338
 20
382.146
  0
VERTEX
  8
Layer2
 10
483.357
 20
382.121
  0
VERTEX
  8
Layer2
 10
483.377
 20
382.097
  0
VERTEX
  8
Layer2
 10
483.399
 20
382.074
  0
VERTEX
  8
Layer2
 10
483.422
 20
382.052
  0
VERTEX
  8
Layer2
 10
483.446
 20
382.031
  0
VERTEX
  8
Layer2
 10
483.471
 20
382.012
  0
VERTEX
  8
Layer2
 10
483.497
 20
381.994
  0
VERTEX
  8
Layer2
 10
483.524
 20
381.978
  0
VERTEX
  8
Layer2
 10
483.552
 20
381.963
  0
VERTEX
  8
Layer2
 10
483.581
 20
381.949
  0
VERTEX
  8
Layer2
 10
483.61
 20
381.938
  0
VERTEX
  8
Layer2
 10
483.64
 20
381.927
  0
VERTEX
  8
Layer2
 10
483.67
 20
381.919
  0
VERTEX
  8
Layer2
 10
483.701
 20
381.912
  0
VERTEX
  8
Layer2
 10
483.732
 20
381.907
  0
VERTEX
  8
Layer2
 10
483.764
 20
381.903
  0
VERTEX
  8
Layer2
 10
483.796
 20
381.902
  0
VERTEX
  8
Layer2
 10
483.827
 20
381.902
  0
VERTEX
  8
Layer2
 10
483.859
 20
381.903
  0
VERTEX
  8
Layer2
 10
483.89
 20
381.907
  0
VERTEX
  8
Layer2
 10
483.921
 20
381.912
  0
VERTEX
  8
Layer2
 10
483.952
 20
381.919
  0
VERTEX
  8
Layer2
 10
483.983
 20
381.927
  0
VERTEX
  8
Layer2
 10
484.013
 20
381.937
  0
VERTEX
  8
Layer2
 10
484.042
 20
381.949
  0
VERTEX
  8
Layer2
 10
484.071
 20
381.962
  0
VERTEX
  8
Layer2
 10
484.099
 20
381.977
  0
SEQEND
  0
POLYLINE
  8
Layer2
  6
CONTINUOUS
 62
7
 66
1
 10
0
 20
0
 30
0
  0
VERTEX
  8
Layer2
 10
492.316
 20
381.944
  0
VERTEX
  8
Layer2
 10
492.336
 20
381.938
  0
VERTEX
  8
Layer2
 10
492.357
 20
381.933
  0
VERTEX
  8
Layer2
 10
492.378
 20
381.93
  0
VERTEX
  8
Layer2
 10
492.4
 20
381.927
  0
VERTEX
  8
Layer2
 10
492.421
 20
381.925
  0
VERTEX
  8
Layer2
 10
492.442
 20
381.924
  0
VERTEX
  8
Layer2
 10
492.464
 20
381.924
  0
VERTEX
  8
Layer2
 10
492.485
 20
381.925
  0
VERTEX
  8
Layer2
 10
492.506
 20
381.927
  0
VERTEX
  8
Layer2
 10
492.528
 20
381.93
  0
VERTEX
  8
Layer2
 10
492.549
 20
381.934
  0
VERTEX
  8
Layer2
 10
492.569
 20
381.939
  0
VERTEX
  8
Layer2
 10
492.59
 20
381.945
  0
VERTEX
  8
Layer2
 10
492.61
 20
381.952
  0
VERTEX
  8
Layer2
 10
492.63
 20
381.96
  0
VERTEX
  8
Layer2
 10
492.65
 20
381.968
  0
VERTEX
  8
Layer2
 10
492.669
 20
381.978
  0
VERTEX
  8
Layer2
 10
492.688
 20
381.988
  0
VERTEX
  8
Layer2
 10
492.706
 20
381.999
  0
VERTEX
  8
Layer2
 10
492.724
 20
382.011
  0
VERTEX
  8
Layer2
 10
492.741
 20
382.024
  0
VERTEX
  8
Layer2
 10
492.758
 20
382.037
  0
VERTEX
  8
Layer2
 10
492.774
 20
382.052
  0
VERTEX
  8
Layer2
 10
492.789
 20
382.067
  0
VERTEX
  8
Layer2
 10
492.804
 20
382.082
  0
VERTEX
  8
Layer2
 10
492.817
 20
382.099
  0
VERTEX
  8
Layer2
 10
492.831
 20
382.115
  0
VERTEX
  8
Layer2
 10
492.843
 20
382.133
  0
VERTEX
  8
Layer2
 10
492.854
 20
382.151
  0
VERTEX
  8
Layer2
 10
492.865
 20
382.169
  0
VERTEX
  8
Layer2
 10
492.875
 20
382.188
  0
VERTEX
  8
Layer2
 10
492.884
 20
382.208
  0
VERTEX
  8
Layer2
 10
492.892
 20
382.228
  0
VERTEX
  8
Layer2
 10
492.899
 20
382.248
  0
VERTEX
  8
Layer2
 10
492.906
 20
382.268
  0
VERTEX
  8
Layer2
 10
492.911
 20
382.289
  0
VERTEX
  8
Layer2
 10
492.916
 20
382.31
  0
VERTEX
  8
Layer2
 10
492.919
 20
382.331
  0
VERTEX
  8
Layer2
 10
492.922
 20
382.352
  0
VERTEX
  8
Layer2
 10
492.923
 20
382.374
  0
VERTEX
  8
Layer2
 10
492.924
 20
382.395
  0
VERTEX
  8
Layer2
 10
492.923
 20
382.416
  0
VERTEX
  8
Layer2
 10
492.922
 20
382.438
  0
VERTEX
  8
Layer2
 10
492.92
 20
382.459
  0
VERTEX
  8
Layer2
 10
492.916
 20
382.48
  0
VERTEX
  8
Layer2
 10
492.912
 20
382.501
  0
VERTEX
  8
Layer2
 10
492.907
 20
382.522
  0
VERTEX
  8
Layer2
 10
492.901
 20
382.542
  0
SEQEND
  0
LINE
  8
Layer2
  6
CONTINUOUS
 62
7
 10
491.038
 20
382.278
 11
491.038
 21
380.375
  0
LINE
  8
Layer2
  6
CONTINUOUS
 62
7
 10
484.893
 20
382.321
 11
484.893
 21
380.375
  0
LINE
  8
Layer2
  6
CONTINUOUS
 62
7
 10
483.746
 20
380.375
 11
483.022
 21
379.651
  0
LINE
  8
Layer2
  6
CONTINUOUS
 62
7
 10
492.194
 20
380.375
 11
492.919
 21
379.651
  0
LINE
  8
Layer2
  6
CONTINUOUS
 62
7
 10
486.16
 20
375.366
 11
489.781
 21
375.366
  0
POLYLINE
  8
Layer2
  6
CONTINUOUS
 62
7
 66
1
 10
0
 20
0
 30
0
 70
1
  0
VERTEX
  8
Layer2
 10
488.743
 20
375.366
  0
VERTEX
  8
Layer2
 10
488.736
 20
375.467
  0
VERTEX
  8
Layer2
 10
488.717
 20
375.566
  0
VERTEX
  8
Layer2
 10
488.684
 20
375.662
  0
VERTEX
  8
Layer2
 10
488.639
 20
375.753
  0
VERTEX
  8
Layer2
 10
488.583
 20
375.837
  0
VERTEX
  8
Layer2
 10
488.517
 20
375.913
  0
VERTEX
  8
Layer2
 10
488.441
 20
375.979
  0
VERTEX
  8
Layer2
 10
488.357
 20
376.036
  0
VERTEX
  8
Layer2
 10
488.266
 20
376.08
  0
VERTEX
  8
Layer2
 10
488.17
 20
376.113
  0
VERTEX
  8
Layer2
 10
488.071
 20
376.132
  0
VERTEX
  8
Layer2
 10
487.97
 20
376.139
  0
VERTEX
  8
Layer2
 10
487.869
 20
376.132
  0
VERTEX
  8
Layer2
 10
487.77
 20
376.113
  0
VERTEX
  8
Layer2
 10
487.674
 20
376.08
  0
VERTEX
  8
Layer2
 10
487.584
 20
376.036
  0
VERTEX
  8
Layer2
 10
487.5
 20
375.979
  0
VERTEX
  8
Layer2
 10
487.424
 20
375.913
  0
VERTEX
  8
Layer2
 10
487.357
 20
375.837
  0
VERTEX
  8
Layer2
 10
487.301
 20
375.753
  0
VERTEX
  8
Layer2
 10
487.256
 20
375.662
  0
VERTEX
  8
Layer2
 10
487.224
 20
375.566
  0
VERTEX
  8
Layer2
 10
487.204
 20
375.467
  0
VERTEX
  8
Layer2
 10
487.197
 20
375.366
  0
VERTEX
  8
Layer2
 10
487.204
 20
375.265
  0
VERTEX
  8
Layer2
 10
487.224
 20
375.166
  0
VERTEX
  8
Layer2
 10
487.256
 20
375.071
  0
VERTEX
  8
Layer2
 10
487.301
 20
374.98
  0
VERTEX
  8
Layer2
 10
487.357
 20
374.896
  0
VERTEX
  8
Layer2
 10
487.424
 20
374.82
  0
VERTEX
  8
Layer2
 10
487.5
 20
374.753
  0
VERTEX
  8
Layer2
 10
487.584
 20
374.697
  0
VERTEX
  8
Layer2
 10
487.674
 20
374.652
  0
VERTEX
  8
Layer2
 10
487.77
 20
374.62
  0
VERTEX
  8
Layer2
 10
487.869
 20
374.6
  0
VERTEX
  8
Layer2
 10
487.97
 20
374.593
  0
VERTEX
  8
Layer2
 10
488.071
 20
374.6
  0
VERTEX
  8
Layer2
 10
488.17
 20
374.62
  0
VERTEX
  8
Layer2
 10
488.266
 20
374.652
  0
VERTEX
  8
Layer2
 10
488.357
 20
374.697
  0
VERTEX
  8
Layer2
 10
488.441
 20
374.753
  0
VERTEX
  8
Layer2
 10
488.517
 20
374.82
  0
VERTEX
  8
Layer2
 10
488.583
 20
374.896
  0
VERTEX
  8
Layer2
 10
488.639
 20
374.98
  0
VERTEX
  8
Layer2
 10
488.684
 20
375.071
  0
VERTEX
  8
Layer2
 10
488.717
 20
375.166
  0
VERTEX
  8
Layer2
 10
488.736
 20
375.265
  0
SEQEND
  0
LINE
  8
Layer2
  6
CONTINUOUS
 62
7
 10
483.927
 20
363.9
 11
492.013
 21
363.9
  0
LINE
  8
Layer2
  6
CONTINUOUS
 62
7
 10
492.013
 20
366.568
 11
492.013
 21
363.9
  0
LINE
  8
Layer2
  6
CONTINUOUS
 62
7
 10
486.082
 20
367.763
 11
486.082
 21
366.994
  0
LINE
  8
Layer2
  6
CONTINUOUS
 62
7
 10
489.841
 20
367.763
 11
489.841
 21
366.994
  0
LINE
  8
Layer2
  6
DASHED1
 62
7
 10
489.358
 20
358.313
 11
489.358
 21
363.9
  0
LINE
  8
Layer2
  6
DASHED1
 62
7
 10
486.582
 20
358.59
 11
486.582
 21
363.9
  0
LINE
  8
Layer2
  6
CONTINUOUS
 62
7
 10
489.358
 20
368.245
 11
486.565
 21
368.245
  0
LINE
  8
Layer2
  6
CONTINUOUS
 62
7
 10
486.565
 20
368.245
 11
486.082
 21
367.763
  0
LINE
  8
Layer2
  6
CONTINUOUS
 62
7
 10
489.358
 20
368.245
 11
489.841
 21
367.763
  0
LINE
  8
Layer2
  6
CONTINUOUS
 62
7
 10
483.927
 20
366.568
 11
483.927
 21
363.9
  0
LINE
  8
Layer2
  6
CONTINUOUS
 62
7
 10
483.927
 20
366.568
 11
484.665
 21
366.994
  0
LINE
  8
Layer2
  6
CONTINUOUS
 62
7
 10
484.665
 20
366.994
 11
491.276
 21
366.994
  0
LINE
  8
Layer2
  6
CONTINUOUS
 62
7
 10
491.276
 20
366.994
 11
492.013
 21
366.568
  0
POLYLINE
  8
Layer2
  6
CONTINUOUS
 62
7
 66
1
 10
0
 20
0
 30
0
  0
VERTEX
  8
Layer2
 10
489.955
 20
366.61
  0
VERTEX
  8
Layer2
 10
489.875
 20
366.635
  0
VERTEX
  8
Layer2
 10
489.794
 20
366.659
  0
VERTEX
  8
Layer2
 10
489.713
 20
366.682
  0
VERTEX
  8
Layer2
 10
489.632
 20
366.704
  0
VERTEX
  8
Layer2
 10
489.551
 20
366.725
  0
VERTEX
  8
Layer2
 10
489.469
 20
366.744
  0
VERTEX
  8
Layer2
 10
489.387
 20
366.763
  0
VERTEX
  8
Layer2
 10
489.305
 20
366.78
  0
VERTEX
  8
Layer2
 10
489.223
 20
366.797
  0
VERTEX
  8
Layer2
 10
489.14
 20
366.812
  0
VERTEX
  8
Layer2
 10
489.057
 20
366.827
  0
VERTEX
  8
Layer2
 10
488.974
 20
366.84
  0
VERTEX
  8
Layer2
 10
488.891
 20
366.853
  0
VERTEX
  8
Layer2
 10
488.808
 20
366.864
  0
VERTEX
  8
Layer2
 10
488.725
 20
366.874
  0
VERTEX
  8
Layer2
 10
488.641
 20
366.883
  0
VERTEX
  8
Layer2
 10
488.558
 20
366.891
  0
VERTEX
  8
Layer2
 10
488.474
 20
366.898
  0
VERTEX
  8
Layer2
 10
488.39
 20
366.904
  0
VERTEX
  8
Layer2
 10
488.306
 20
366.909
  0
VERTEX
  8
Layer2
 10
488.222
 20
366.913
  0
VERTEX
  8
Layer2
 10
488.138
 20
366.915
  0
VERTEX
  8
Layer2
 10
488.054
 20
366.917
  0
VERTEX
  8
Layer2
 10
487.97
 20
366.918
  0
VERTEX
  8
Layer2
 10
487.886
 20
366.917
  0
VERTEX
  8
Layer2
 10
487.802
 20
366.915
  0
VERTEX
  8
Layer2
 10
487.718
 20
366.913
  0
VERTEX
  8
Layer2
 10
487.634
 20
366.909
  0
VERTEX
  8
Layer2
 10
487.55
 20
366.904
  0
VERTEX
  8
Layer2
 10
487.467
 20
366.898
  0
VERTEX
  8
Layer2
 10
487.383
 20
366.891
  0
VERTEX
  8
Layer2
 10
487.299
 20
366.883
  0
VERTEX
  8
Layer2
 10
487.216
 20
366.874
  0
VERTEX
  8
Layer2
 10
487.132
 20
366.864
  0
VERTEX
  8
Layer2
 10
487.049
 20
366.853
  0
VERTEX
  8
Layer2
 10
486.966
 20
366.84
  0
VERTEX
  8
Layer2
 10
486.883
 20
366.827
  0
VERTEX
  8
Layer2
 10
486.8
 20
366.812
  0
VERTEX
  8
Layer2
 10
486.718
 20
366.797
  0
VERTEX
  8
Layer2
 10
486.635
 20
366.78
  0
VERTEX
  8
Layer2
 10
486.553
 20
366.763
  0
VERTEX
  8
Layer2
 10
486.471
 20
366.744
  0
VERTEX
  8
Layer2
 10
486.39
 20
366.725
  0
VERTEX
  8
Layer2
 10
486.308
 20
366.704
  0
VERTEX
  8
Layer2
 10
486.227
 20
366.682
  0
VERTEX
  8
Layer2
 10
486.146
 20
366.659
  0
VERTEX
  8
Layer2
 10
486.066
 20
366.635
  0
VERTEX
  8
Layer2
 10
485.985
 20
366.61
  0
SEQEND
  0
POLYLINE
  8
Layer2
  6
CONTINUOUS
 62
7
 66
1
 10
0
 20
0
 30
0
  0
VERTEX
  8
Layer2
 10
485.985
 20
366.61
  0
VERTEX
  8
Layer2
 10
485.949
 20
366.635
  0
VERTEX
  8
Layer2
 10
485.912
 20
366.658
  0
VERTEX
  8
Layer2
 10
485.874
 20
366.681
  0
VERTEX
  8
Layer2
 10
485.836
 20
366.702
  0
VERTEX
  8
Layer2
 10
485.797
 20
366.723
  0
VERTEX
  8
Layer2
 10
485.758
 20
366.743
  0
VERTEX
  8
Layer2
 10
485.718
 20
366.761
  0
VERTEX
  8
Layer2
 10
485.677
 20
366.779
  0
VERTEX
  8
Layer2
 10
485.637
 20
366.795
  0
VERTEX
  8
Layer2
 10
485.596
 20
366.811
  0
VERTEX
  8
Layer2
 10
485.554
 20
366.826
  0
VERTEX
  8
Layer2
 10
485.512
 20
366.839
  0
VERTEX
  8
Layer2
 10
485.47
 20
366.852
  0
VERTEX
  8
Layer2
 10
485.428
 20
366.863
  0
VERTEX
  8
Layer2
 10
485.385
 20
366.873
  0
VERTEX
  8
Layer2
 10
485.342
 20
366.883
  0
VERTEX
  8
Layer2
 10
485.299
 20
366.891
  0
VERTEX
  8
Layer2
 10
485.256
 20
366.898
  0
VERTEX
  8
Layer2
 10
485.212
 20
366.904
  0
VERTEX
  8
Layer2
 10
485.168
 20
366.909
  0
VERTEX
  8
Layer2
 10
485.125
 20
366.913
  0
VERTEX
  8
Layer2
 10
485.081
 20
366.915
  0
VERTEX
  8
Layer2
 10
485.037
 20
366.917
  0
VERTEX
  8
Layer2
 10
484.993
 20
366.918
  0
VERTEX
  8
Layer2
 10
484.949
 20
366.917
  0
VERTEX
  8
Layer2
 10
484.905
 20
366.915
  0
VERTEX
  8
Layer2
 10
484.861
 20
366.913
  0
VERTEX
  8
Layer2
 10
484.817
 20
366.909
  0
VERTEX
  8
Layer2
 10
484.774
 20
366.904
  0
VERTEX
  8
Layer2
 10
484.73
 20
366.898
  0
VERTEX
  8
Layer2
 10
484.687
 20
366.891
  0
VERTEX
  8
Layer2
 10
484.644
 20
366.883
  0
VERTEX
  8
Layer2
 10
484.601
 20
366.873
  0
VERTEX
  8
Layer2
 10
484.558
 20
366.863
  0
VERTEX
  8
Layer2
 10
484.516
 20
366.852
  0
VERTEX
  8
Layer2
 10
484.473
 20
366.839
  0
VERTEX
  8
Layer2
 10
484.432
 20
366.826
  0
VERTEX
  8
Layer2
 10
484.39
 20
366.811
  0
VERTEX
  8
Layer2
 10
484.349
 20
366.795
  0
VERTEX
  8
Layer2
 10
484.308
 20
366.779
  0
VERTEX
  8
Layer2
 10
484.268
 20
366.761
  0
VERTEX
  8
Layer2
 10
484.228
 20
366.743
  0
VERTEX
  8
Layer2
 10
484.189
 20
366.723
  0
VERTEX
  8
Layer2
 10
484.15
 20
366.702
  0
VERTEX
  8
Layer2
 10
484.112
 20
366.681
  0
VERTEX
  8
Layer2
 10
484.074
 20
366.658
  0
VERTEX
  8
Layer2
 10
484.037
 20
366.635
  0
VERTEX
  8
Layer2
 10
484
 20
366.61
  0
SEQEND
  0
POLYLINE
  8
Layer2
  6
CONTINUOUS
 62
7
 66
1
 10
0
 20
0
 30
0
  0
VERTEX
  8
Layer2
 10
491.94
 20
366.61
  0
VERTEX
  8
Layer2
 10
491.903
 20
366.635
  0
VERTEX
  8
Layer2
 10
491.866
 20
366.658
  0
VERTEX
  8
Layer2
 10
491.829
 20
366.681
  0
VERTEX
  8
Layer2
 10
491.79
 20
366.702
  0
VERTEX
  8
Layer2
 10
491.751
 20
366.723
  0
VERTEX
  8
Layer2
 10
491.712
 20
366.743
  0
VERTEX
  8
Layer2
 10
491.672
 20
366.761
  0
VERTEX
  8
Layer2
 10
491.632
 20
366.779
  0
VERTEX
  8
Layer2
 10
491.591
 20
366.795
  0
VERTEX
  8
Layer2
 10
491.55
 20
366.811
  0
VERTEX
  8
Layer2
 10
491.509
 20
366.826
  0
VERTEX
  8
Layer2
 10
491.467
 20
366.839
  0
VERTEX
  8
Layer2
 10
491.425
 20
366.852
  0
VERTEX
  8
Layer2
 10
491.382
 20
366.863
  0
VERTEX
  8
Layer2
 10
491.34
 20
366.873
  0
VERTEX
  8
Layer2
 10
491.297
 20
366.883
  0
VERTEX
  8
Layer2
 10
491.254
 20
366.891
  0
VERTEX
  8
Layer2
 10
491.21
 20
366.898
  0
VERTEX
  8
Layer2
 10
491.167
 20
366.904
  0
VERTEX
  8
Layer2
 10
491.123
 20
366.909
  0
VERTEX
  8
Layer2
 10
491.079
 20
366.913
  0
VERTEX
  8
Layer2
 10
491.035
 20
366.915
  0
VERTEX
  8
Layer2
 10
490.991
 20
366.917
  0
VERTEX
  8
Layer2
 10
490.947
 20
366.918
  0
VERTEX
  8
Layer2
 10
490.904
 20
366.917
  0
VERTEX
  8
Layer2
 10
490.86
 20
366.915
  0
VERTEX
  8
Layer2
 10
490.816
 20
366.913
  0
VERTEX
  8
Layer2
 10
490.772
 20
366.909
  0
VERTEX
  8
Layer2
 10
490.728
 20
366.904
  0
VERTEX
  8
Layer2
 10
490.685
 20
366.898
  0
VERTEX
  8
Layer2
 10
490.641
 20
366.891
  0
VERTEX
  8
Layer2
 10
490.598
 20
366.883
  0
VERTEX
  8
Layer2
 10
490.555
 20
366.873
  0
VERTEX
  8
Layer2
 10
490.513
 20
366.863
  0
VERTEX
  8
Layer2
 10
490.47
 20
366.852
  0
VERTEX
  8
Layer2
 10
490.428
 20
366.839
  0
VERTEX
  8
Layer2
 10
490.386
 20
366.826
  0
VERTEX
  8
Layer2
 10
490.345
 20
366.811
  0
VERTEX
  8
Layer2
 10
490.304
 20
366.795
  0
VERTEX
  8
Layer2
 10
490.263
 20
366.779
  0
VERTEX
  8
Layer2
 10
490.223
 20
366.761
  0
VERTEX
  8
Layer2
 10
490.183
 20
366.743
  0
VERTEX
  8
Layer2
 10
490.144
 20
366.723
  0
VERTEX
  8
Layer2
 10
490.105
 20
366.702
  0
VERTEX
  8
Layer2
 10
490.066
 20
366.681
  0
VERTEX
  8
Layer2
 10
490.029
 20
366.658
  0
VERTEX
  8
Layer2
 10
489.992
 20
366.635
  0
VERTEX
  8
Layer2
 10
489.955
 20
366.61
  0
SEQEND
  0
LINE
  8
Layer2
  6
CONTINUOUS
 62
7
 10
489.955
 20
366.61
 11
489.955
 21
363.9
  0
LINE
  8
Layer2
  6
CONTINUOUS
 62
7
 10
485.985
 20
366.61
 11
485.985
 21
363.9
  0
LINE
  8
Layer2
  6
CONTINUOUS
 62
7
 10
489.358
 20
366.994
 11
489.358
 21
368.245
  0
LINE
  8
Layer2
  6
CONTINUOUS
 62
7
 10
486.582
 20
366.994
 11
486.582
 21
368.245
  0
LINE
  8
Layer2
  6
DASHED1
 62
7
 10
489.955
 20
359.108
 11
489.955
 21
363.9
  0
LINE
  8
Layer2
  6
DASHED1
 62
7
 10
485.985
 20
359.108
 11
485.985
 21
363.9
  0
LINE
  8
Layer2
  6
DASHED1
 62
7
 10
485.985
 20
359.108
 11
489.955
 21
359.108
  0
LINE
  8
Layer2
  6
DASHED1
 62
7
 10
489.436
 20
358.59
 11
486.504
 21
358.59
  0
LINE
  8
Layer2
  6
DASHED1
 62
7
 10
486.504
 20
358.59
 11
485.985
 21
359.108
  0
LINE
  8
Layer2
  6
DASHED1
 62
7
 10
489.436
 20
358.59
 11
489.955
 21
359.108
  0
LINE
  8
Layer2
  6
CONTINUOUS
 62
7
 10
483.867
 20
357.539
 11
483.348
 21
357.021
  0
LINE
  8
Layer2
  6
CONTINUOUS
 62
7
 10
492.074
 20
357.539
 11
492.628
 21
356.985
  0
POLYLINE
  8
Layer2
  6
CONTINUOUS
 62
7
 66
1
 10
0
 20
0
 30
0
  0
VERTEX
  8
Layer2
 10
478.301
 20
358.022
  0
VERTEX
  8
Layer2
 10
478.301
 20
357.988
  0
VERTEX
  8
Layer2
 10
478.303
 20
357.954
  0
VERTEX
  8
Layer2
 10
478.306
 20
357.92
  0
VERTEX
  8
Layer2
 10
478.31
 20
357.887
  0
VERTEX
  8
Layer2
 10
478.315
 20
357.853
  0
VERTEX
  8
Layer2
 10
478.321
 20
357.82
  0
VERTEX
  8
Layer2
 10
478.328
 20
357.787
  0
VERTEX
  8
Layer2
 10
478.336
 20
357.754
  0
VERTEX
  8
Layer2
 10
478.346
 20
357.721
  0
VERTEX
  8
Layer2
 10
478.356
 20
357.689
  0
VERTEX
  8
Layer2
 10
478.367
 20
357.657
  0
VERTEX
  8
Layer2
 10
478.38
 20
357.625
  0
VERTEX
  8
Layer2
 10
478.393
 20
357.594
  0
VERTEX
  8
Layer2
 10
478.408
 20
357.563
  0
VERTEX
  8
Layer2
 10
478.423
 20
357.533
  0
VERTEX
  8
Layer2
 10
478.44
 20
357.504
  0
VERTEX
  8
Layer2
 10
478.457
 20
357.474
  0
VERTEX
  8
Layer2
 10
478.476
 20
357.446
  0
VERTEX
  8
Layer2
 10
478.495
 20
357.418
  0
VERTEX
  8
Layer2
 10
478.515
 20
357.391
  0
VERTEX
  8
Layer2
 10
478.536
 20
357.364
  0
VERTEX
  8
Layer2
 10
478.558
 20
357.338
  0
VERTEX
  8
Layer2
 10
478.581
 20
357.313
  0
VERTEX
  8
Layer2
 10
478.605
 20
357.289
  0
VERTEX
  8
Layer2
 10
478.629
 20
357.265
  0
VERTEX
  8
Layer2
 10
478.654
 20
357.242
  0
VERTEX
  8
Layer2
 10
478.68
 20
357.22
  0
VERTEX
  8
Layer2
 10
478.707
 20
357.199
  0
VERTEX
  8
Layer2
 10
478.734
 20
357.179
  0
VERTEX
  8
Layer2
 10
478.762
 20
357.16
  0
VERTEX
  8
Layer2
 10
478.79
 20
357.141
  0
VERTEX
  8
Layer2
 10
478.819
 20
357.124
  0
VERTEX
  8
Layer2
 10
478.849
 20
357.108
  0
VERTEX
  8
Layer2
 10
478.879
 20
357.092
  0
VERTEX
  8
Layer2
 10
478.91
 20
357.078
  0
VERTEX
  8
Layer2
 10
478.941
 20
357.064
  0
VERTEX
  8
Layer2
 10
478.973
 20
357.052
  0
VERTEX
  8
Layer2
 10
479.005
 20
357.04
  0
VERTEX
  8
Layer2
 10
479.037
 20
357.03
  0
VERTEX
  8
Layer2
 10
479.07
 20
357.02
  0
VERTEX
  8
Layer2
 10
479.102
 20
357.012
  0
VERTEX
  8
Layer2
 10
479.136
 20
357.005
  0
VERTEX
  8
Layer2
 10
479.169
 20
356.999
  0
VERTEX
  8
Layer2
 10
479.203
 20
356.994
  0
VERTEX
  8
Layer2
 10
479.236
 20
356.99
  0
VERTEX
  8
Layer2
 10
479.27
 20
356.987
  0
VERTEX
  8
Layer2
 10
479.304
 20
356.986
  0
VERTEX
  8
Layer2
 10
479.338
 20
356.985
  0
SEQEND
  0
POLYLINE
  8
Layer2
  6
CONTINUOUS
 62
7
 66
1
 10
0
 20
0
 30
0
  0
VERTEX
  8
Layer2
 10
496.356
 20
357.018
  0
VERTEX
  8
Layer2
 10
496.39
 20
357.019
  0
VERTEX
  8
Layer2
 10
496.424
 20
357.021
  0
VERTEX
  8
Layer2
 10
496.458
 20
357.023
  0
VERTEX
  8
Layer2
 10
496.492
 20
357.027
  0
VERTEX
  8
Layer2
 10
496.525
 20
357.032
  0
VERTEX
  8
Layer2
 10
496.559
 20
357.038
  0
VERTEX
  8
Layer2
 10
496.592
 20
357.045
  0
VERTEX
  8
Layer2
 10
496.625
 20
357.054
  0
VERTEX
  8
Layer2
 10
496.657
 20
357.063
  0
VERTEX
  8
Layer2
 10
496.69
 20
357.073
  0
VERTEX
  8
Layer2
 10
496.722
 20
357.085
  0
VERTEX
  8
Layer2
 10
496.753
 20
357.097
  0
VERTEX
  8
Layer2
 10
496.784
 20
357.111
  0
VERTEX
  8
Layer2
 10
496.815
 20
357.125
  0
VERTEX
  8
Layer2
 10
496.845
 20
357.141
  0
VERTEX
  8
Layer2
 10
496.875
 20
357.157
  0
VERTEX
  8
Layer2
 10
496.904
 20
357.175
  0
VERTEX
  8
Layer2
 10
496.932
 20
357.193
  0
VERTEX
  8
Layer2
 10
496.96
 20
357.212
  0
VERTEX
  8
Layer2
 10
496.988
 20
357.233
  0
VERTEX
  8
Layer2
 10
497.014
 20
357.254
  0
VERTEX
  8
Layer2
 10
497.04
 20
357.276
  0
VERTEX
  8
Layer2
 10
497.065
 20
357.298
  0
VERTEX
  8
Layer2
 10
497.09
 20
357.322
  0
VERTEX
  8
Layer2
 10
497.113
 20
357.346
  0
VERTEX
  8
Layer2
 10
497.136
 20
357.372
  0
VERTEX
  8
Layer2
 10
497.158
 20
357.397
  0
VERTEX
  8
Layer2
 10
497.179
 20
357.424
  0
VERTEX
  8
Layer2
 10
497.199
 20
357.451
  0
VERTEX
  8
Layer2
 10
497.218
 20
357.479
  0
VERTEX
  8
Layer2
 10
497.237
 20
357.508
  0
VERTEX
  8
Layer2
 10
497.254
 20
357.537
  0
VERTEX
  8
Layer2
 10
497.271
 20
357.566
  0
VERTEX
  8
Layer2
 10
497.286
 20
357.597
  0
VERTEX
  8
Layer2
 10
497.301
 20
357.627
  0
VERTEX
  8
Layer2
 10
497.314
 20
357.658
  0
VERTEX
  8
Layer2
 10
497.327
 20
357.69
  0
VERTEX
  8
Layer2
 10
497.338
 20
357.722
  0
VERTEX
  8
Layer2
 10
497.349
 20
357.754
  0
VERTEX
  8
Layer2
 10
497.358
 20
357.787
  0
VERTEX
  8
Layer2
 10
497.366
 20
357.82
  0
VERTEX
  8
Layer2
 10
497.373
 20
357.853
  0
VERTEX
  8
Layer2
 10
497.379
 20
357.886
  0
VERTEX
  8
Layer2
 10
497.384
 20
357.92
  0
VERTEX
  8
Layer2
 10
497.388
 20
357.954
  0
VERTEX
  8
Layer2
 10
497.391
 20
357.987
  0
VERTEX
  8
Layer2
 10
497.393
 20
358.021
  0
VERTEX
  8
Layer2
 10
497.393
 20
358.055
  0
SEQEND
  0
LINE
  8
Layer2
  6
CONTINUOUS
 62
7
 10
486.082
 20
367.763
 11
489.841
 21
367.763
  0
LINE
  8
Layer2
  6
PHANTOM1
 62
7
 10
478.31
 20
389.985
 11
497.626
 21
389.985
  0
LINE
  8
Layer2
  6
DASHED2
 62
7
 10
480.487
 20
387.315
 11
483.625
 21
387.315
  0
LINE
  8
Layer2
  6
DASHED1
 62
7
 10
492.315
 20
387.556
 11
496.419
 21
387.556
  0
TEXT
  8
Layer2
 62
7
 10
485.074
 20
388.763
 73
3
 11
485.074
 21
388.763
 40
4.14816
 41
1
  1
MAX
  0
LINE
  8
Layer2
  6
DASHED1
 62
7
 10
483.625
 20
399.469
 11
492.315
 21
399.469
  0
LINE
  8
Layer2
  6
DASHED1
 62
7
 10
483.625
 20
399.469
 11
483.107
 21
399.988
  0
LINE
  8
Layer2
  6
DASHED1
 62
7
 10
492.315
 20
399.469
 11
492.834
 21
399.988
  0
LINE
  8
Layer2
  6
CONTINUOUS
 62
7
 10
479.352
 20
399.985
 11
478.315
 21
398.951
  0
LINE
  8
Layer2
  6
CONTINUOUS
 62
7
 10
496.589
 20
399.985
 11
497.626
 21
398.951
  0
TEXT
  8
Layer2
 62
7
 10
449.035
 20
378.505
 72
1
 11
449.035
 21
378.505
 40
4.14816
 41
1
 50
90
  1
43
  0
TEXT
  8
Layer2
 62
7
 10
458.45
 20
383.694
 72
1
 11
458.45
 21
383.694
 40
4.14816
 41
1
 50
90
  1
5.5
  0
TEXT
  8
Layer2
 62
7
 10
458.762
 20
349.077
 72
1
 11
458.762
 21
349.077
 40
4.14816
 41
1
 50
90
  1
42
  0
TEXT
  8
Layer2
 62
7
 10
487.486
 20
319.153
 72
1
 11
487.486
 21
319.153
 40
4.14816
 41
1
 50
2.03555e-013
  1
φ18
  0
TEXT
  8
Layer2
 62
7
 10
527.316
 20
341.197
 72
1
 11
527.316
 21
341.197
 40
4.14816
 41
1
 50
90
  1
25
  0
LINE
  8
Layer2
  6
CONTINUOUS
 62
7
 10
481.909
 20
399.985
 11
446.8
 21
399.985
  0
LINE
  8
Layer2
  6
CONTINUOUS
 62
7
 10
479.352
 20
356.985
 11
449.109
 21
356.985
  0
POLYLINE
  8
Layer2
  6
CONTINUOUS
 62
7
 66
1
 10
0
 20
0
 30
0
  0
VERTEX
  8
Layer2
 10
450.072
 20
399.988
  0
VERTEX
  8
Layer2
 10
450.072
 20
357.023
  0
SEQEND
  0
POLYLINE
  8
Layer2
  6
CONTINUOUS
 62
7
 66
1
 10
0
 20
0
 30
0
 70
1
  0
VERTEX
  8
Layer2
 10
449.037
 20
396.124
  0
VERTEX
  8
Layer2
 10
450.072
 20
399.988
  0
VERTEX
  8
Layer2
 10
451.108
 20
396.124
  0
SEQEND
  0
POLYLINE
  8
Layer2
  6
CONTINUOUS
 62
7
 66
1
 10
0
 20
0
 30
0
 70
1
  0
VERTEX
  8
Layer2
 10
451.108
 20
360.886
  0
VERTEX
  8
Layer2
 10
450.072
 20
357.023
  0
VERTEX
  8
Layer2
 10
449.037
 20
360.886
  0
SEQEND
  0
LINE
  8
Layer2
  6
CONTINUOUS
 62
7
 10
469.142
 20
371.986
 11
457.314
 21
371.986
  0
LINE
  8
Layer2
  6
CONTINUOUS
 62
7
 10
467.97
 20
329.986
 11
456.688
 21
329.986
  0
POLYLINE
  8
Layer2
  6
CONTINUOUS
 62
7
 66
1
 10
0
 20
0
 30
0
  0
VERTEX
  8
Layer2
 10
458.762
 20
371.986
  0
VERTEX
  8
Layer2
 10
458.762
 20
329.986
  0
SEQEND
  0
POLYLINE
  8
Layer2
  6
CONTINUOUS
 62
7
 66
1
 10
0
 20
0
 30
0
 70
1
  0
VERTEX
  8
Layer2
 10
457.727
 20
368.122
  0
VERTEX
  8
Layer2
 10
458.762
 20
371.986
  0
VERTEX
  8
Layer2
 10
459.798
 20
368.122
  0
SEQEND
  0
POLYLINE
  8
Layer2
  6
CONTINUOUS
 62
7
 66
1
 10
0
 20
0
 30
0
 70
1
  0
VERTEX
  8
Layer2
 10
459.798
 20
333.849
  0
VERTEX
  8
Layer2
 10
458.762
 20
329.986
  0
VERTEX
  8
Layer2
 10
457.727
 20
333.849
  0
SEQEND
  0
LINE
  8
Layer2
  6
CONTINUOUS
 62
7
 10
467.935
 20
377.486
 11
457.555
 21
377.486
  0
POLYLINE
  8
Layer2
  6
CONTINUOUS
 62
7
 66
1
 10
0
 20
0
 30
0
  0
VERTEX
  8
Layer2
 10
458.762
 20
385.782
  0
VERTEX
  8
Layer2
 10
458.762
 20
377.486
  0
SEQEND
  0
POLYLINE
  8
Layer2
  6
CONTINUOUS
 62
7
 66
1
 10
0
 20
0
 30
0
 70
1
  0
VERTEX
  8
Layer2
 10
459.798
 20
381.349
  0
VERTEX
  8
Layer2
 10
458.762
 20
377.486
  0
VERTEX
  8
Layer2
 10
457.727
 20
381.349
  0
SEQEND
  0
LINE
  8
Layer2
  6
CONTINUOUS
 62
7
 10
458.762
 20
377.486
 11
458.762
 21
371.986
  0
LINE
  8
Layer2
  6
CONTINUOUS
 62
7
 10
498.616
 20
354.986
 11
529.03
 21
354.986
  0
LINE
  8
Layer2
  6
CONTINUOUS
 62
7
 10
508.247
 20
329.986
 11
529.39
 21
329.986
  0
POLYLINE
  8
Layer2
  6
CONTINUOUS
 62
7
 66
1
 10
0
 20
0
 30
0
  0
VERTEX
  8
Layer2
 10
527.316
 20
354.969
  0
VERTEX
  8
Layer2
 10
527.316
 20
329.986
  0
SEQEND
  0
POLYLINE
  8
Layer2
  6
CONTINUOUS
 62
7
 66
1
 10
0
 20
0
 30
0
 70
1
  0
VERTEX
  8
Layer2
 10
526.281
 20
351.105
  0
VERTEX
  8
Layer2
 10
527.316
 20
354.969
  0
VERTEX
  8
Layer2
 10
528.352
 20
351.105
  0
SEQEND
  0
POLYLINE
  8
Layer2
  6
CONTINUOUS
 62
7
 66
1
 10
0
 20
0
 30
0
 70
1
  0
VERTEX
  8
Layer2
 10
528.352
 20
333.849
  0
VERTEX
  8
Layer2
 10
527.316
 20
329.986
  0
VERTEX
  8
Layer2
 10
526.281
 20
333.849
  0
SEQEND
  0
TEXT
  8
Layer2
 62
7
 10
521.015
 20
344.274
 73
3
 11
521.015
 21
344.274
 40
3.11112
 41
1
 50
90
  1
±0.1
  0
TEXT
  8
Layer2
 62
7
 10
530.937
 20
325.761
 73
3
 11
530.937
 21
325.761
 40
4.14816
 41
1
 50
90
  1
(センター間距離）
  0
LINE
  8
Layer2
  6
DASHED1
 62
7
 10
470.97
 20
330.504
 11
476.97
 21
330.504
  0
LINE
  8
Layer2
  6
CONTINUOUS
 62
7
 10
498.555
 20
329.986
 11
497.143
 21
329.986
  0
LINE
  8
Layer2
  6
CONTINUOUS
 62
7
 10
477.385
 20
329.986
 11
480.367
 21
329.986
  0
LINE
  8
Layer2
  6
DASHED1
 62
7
 10
470.97
 20
330.504
 11
470.452
 21
329.986
  0
LINE
  8
Layer2
  6
DASHED1
 62
7
 10
476.97
 20
330.504
 11
477.489
 21
329.986
  0
LINE
  8
Layer2
  6
CONTINUOUS
 62
7
 10
628.873
 20
499.348
 11
628.873
 21
459.348
  0
LINE
  8
Layer2
  6
CONTINUOUS
 62
7
 10
690.873
 20
499.348
 11
690.873
 21
459.348
  0
LINE
  8
Layer2
  6
CONTINUOUS
 62
7
 10
698.873
 20
499.348
 11
698.873
 21
459.348
  0
LINE
  8
Layer2
  6
CENTER1
 62
7
 10
662.873
 20
502.49
 11
662.873
 21
486.707
  0
LINE
  8
Layer2
  6
DASHED1
 62
7
 10
629.148
 20
488.348
 11
666.764
 21
488.348
  0
LINE
  8
Layer2
  6
DASHED1
 62
7
 10
628.873
 20
470.348
 11
666.489
 21
470.348
  0
LINE
  8
Layer2
  6
DASHED1
 62
7
 10
648.741
 20
487.735
 11
648.741
 21
470.931
  0
LINE
  8
Layer2
  6
DASHED1
 62
7
 10
646.359
 20
487.735
 11
646.359
 21
470.931
  0
LINE
  8
Layer2
  6
CENTER1
 62
7
 10
647.55
 20
504.601
 11
647.55
 21
468.826
  0
LINE
  8
Layer2
  6
CENTER1
 62
7
 10
634.873
 20
472.001
 11
634.873
 21
459.24
  0
LINE
  8
Layer2
  6
CENTER1
 62
7
 10
662.873
 20
472.368
 11
662.873
 21
457.901
  0
CIRCLE
  8
Layer2
  6
CONTINUOUS
 62
7
 10
647.55
 20
479.348
 40
3.76681
  0
LINE
  8
Layer2
  6
DASHED1
 62
7
 10
674.907
 20
478.888
 11
667.873
 21
478.888
  0
ARC
  8
Layer2
  6
CONTINUOUS
 62
7
 10
643.077
 20
479.383
 40
1
 50
140.711
 51
225
  0
LINE
  8
Layer2
  6
CONTINUOUS
 62
7
 10
652.06
 20
480.992
 11
654.323
 21
480.992
  0
LINE
  8
Layer2
  6
CONTINUOUS
 62
7
 10
652.06
 20
477.507
 11
654.323
 21
477.507
  0
LINE
  8
Layer2
  6
CONTINUOUS
 62
7
 10
654.323
 20
480.992
 11
654.323
 21
477.507
  0
ARC
  8
Layer2
  6
CONTINUOUS
 62
7
 10
647.55
 20
479.348
 40
4.80058
 50
20.031
 51
140.098
  0
ARC
  8
Layer2
  6
CONTINUOUS
 62
7
 10
647.55
 20
479.348
 40
4.80058
 50
218.056
 51
337.793
  0
ARC
  8
Layer2
  6
CONTINUOUS
 62
7
 10
634.657
 20
472.098
 40
10.1292
 50
24.1178
 51
40.4581
  0
ARC
  8
Layer2
  6
CONTINUOUS
 62
7
 10
634.596
 20
486.589
 40
10.1292
 50
319.542
 51
335.882
  0
ARC
  8
Layer2
  6
CONTINUOUS
 62
7
 10
653.191
 20
480.992
 40
0.542282
 50
0
 51
180
  0
ARC
  8
Layer2
  6
CONTINUOUS
 62
7
 10
653.191
 20
477.507
 40
0.657613
 50
180
 51
2.03555e-013
  0
ARC
  8
Layer2
  6
DASHED1
 62
7
 10
647.55
 20
470.931
 40
1.19099
 50
0
 51
180
  0
ARC
  8
Layer2
  6
DASHED1
 62
7
 10
647.55
 20
488.292
 40
1.31523
 50
180
 51
2.03555e-013
  0
LINE
  8
Layer2
  6
CONTINUOUS
 62
7
 10
628.873
 20
488.348
 11
619.141
 21
488.348
  0
LINE
  8
Layer2
  6
CONTINUOUS
 62
7
 10
628.873
 20
470.348
 11
619.141
 21
470.348
  0
LINE
  8
Layer2
  6
CONTINUOUS
 62
7
 10
619.141
 20
488.348
 11
619.141
 21
470.348
  0
LINE
  8
Layer2
  6
DASHED1
 62
7
 10
619.141
 20
483.294
 11
634.134
 21
483.294
  0
LINE
  8
Layer2
  6
DASHED1
 62
7
 10
619.141
 20
475.403
 11
634.134
 21
475.403
  0
LINE
  8
Layer2
  6
DASHED1
 62
7
 10
631.241
 20
483.294
 11
631.241
 21
475.403
  0
LINE
  8
Layer2
  6
DASHED1
 62
7
 10
634.134
 20
483.294
 11
634.134
 21
475.403
  0
LINE
  8
Layer2
  6
PHANTOM1
 62
7
 10
619.141
 20
488.292
 11
593.757
 21
488.292
  0
LINE
  8
Layer2
  6
PHANTOM1
 62
7
 10
619.141
 20
470.931
 11
593.757
 21
470.931
  0
LINE
  8
Layer2
  6
PHANTOM1
 62
7
 10
593.757
 20
488.292
 11
593.757
 21
470.931
  0
LINE
  8
Layer2
  6
PHANTOM1
 62
7
 10
593.757
 20
483.294
 11
610.46
 21
483.294
  0
LINE
  8
Layer2
  6
PHANTOM1
 62
7
 10
610.197
 20
475.403
 11
593.757
 21
475.403
  0
LINE
  8
Layer2
  6
PHANTOM1
 62
7
 10
596.124
 20
481.02
 11
596.124
 21
477.676
  0
LINE
  8
Layer2
  6
PHANTOM1
 62
7
 10
596.124
 20
481.02
 11
603.095
 21
481.02
  0
LINE
  8
Layer2
  6
PHANTOM1
 62
7
 10
596.124
 20
477.676
 11
603.768
 21
477.676
  0
POLYLINE
  8
Layer2
  6
PHANTOM1
 62
7
 66
1
 10
0
 20
0
 30
0
  0
VERTEX
  8
Layer2
 10
603.095
 20
481.02
  0
VERTEX
  8
Layer2
 10
603.247
 20
481.021
  0
VERTEX
  8
Layer2
 10
603.399
 20
481.024
  0
VERTEX
  8
Layer2
 10
603.551
 20
481.029
  0
VERTEX
  8
Layer2
 10
603.703
 20
481.036
  0
VERTEX
  8
Layer2
 10
603.855
 20
481.045
  0
VERTEX
  8
Layer2
 10
604.006
 20
481.056
  0
VERTEX
  8
Layer2
 10
604.158
 20
481.069
  0
VERTEX
  8
Layer2
 10
604.309
 20
481.084
  0
VERTEX
  8
Layer2
 10
604.46
 20
481.101
  0
VERTEX
  8
Layer2
 10
604.61
 20
481.12
  0
VERTEX
  8
Layer2
 10
604.76
 20
481.141
  0
VERTEX
  8
Layer2
 10
604.91
 20
481.164
  0
VERTEX
  8
Layer2
 10
605.059
 20
481.189
  0
VERTEX
  8
Layer2
 10
605.208
 20
481.215
  0
VERTEX
  8
Layer2
 10
605.357
 20
481.244
  0
VERTEX
  8
Layer2
 10
605.505
 20
481.275
  0
VERTEX
  8
Layer2
 10
605.652
 20
481.308
  0
VERTEX
  8
Layer2
 10
605.799
 20
481.342
  0
VERTEX
  8
Layer2
 10
605.945
 20
481.379
  0
VERTEX
  8
Layer2
 10
606.09
 20
481.417
  0
VERTEX
  8
Layer2
 10
606.235
 20
481.457
  0
VERTEX
  8
Layer2
 10
606.379
 20
481.5
  0
VERTEX
  8
Layer2
 10
606.522
 20
481.544
  0
VERTEX
  8
Layer2
 10
606.665
 20
481.59
  0
VERTEX
  8
Layer2
 10
606.807
 20
481.638
  0
VERTEX
  8
Layer2
 10
606.947
 20
481.688
  0
VERTEX
  8
Layer2
 10
607.087
 20
481.739
  0
VERTEX
  8
Layer2
 10
607.226
 20
481.793
  0
VERTEX
  8
Layer2
 10
607.364
 20
481.848
  0
VERTEX
  8
Layer2
 10
607.501
 20
481.905
  0
VERTEX
  8
Layer2
 10
607.638
 20
481.964
  0
VERTEX
  8
Layer2
 10
607.772
 20
482.024
  0
VERTEX
  8
Layer2
 10
607.906
 20
482.087
  0
VERTEX
  8
Layer2
 10
608.039
 20
482.151
  0
VERTEX
  8
Layer2
 10
608.171
 20
482.217
  0
VERTEX
  8
Layer2
 10
608.301
 20
482.284
  0
VERTEX
  8
Layer2
 10
608.431
 20
482.354
  0
VERTEX
  8
Layer2
 10
608.559
 20
482.425
  0
VERTEX
  8
Layer2
 10
608.685
 20
482.497
  0
VERTEX
  8
Layer2
 10
608.811
 20
482.572
  0
VERTEX
  8
Layer2
 10
608.935
 20
482.648
  0
VERTEX
  8
Layer2
 10
609.058
 20
482.725
  0
VERTEX
  8
Layer2
 10
609.179
 20
482.805
  0
VERTEX
  8
Layer2
 10
609.299
 20
482.885
  0
VERTEX
  8
Layer2
 10
609.418
 20
482.968
  0
VERTEX
  8
Layer2
 10
609.535
 20
483.052
  0
VERTEX
  8
Layer2
 10
609.65
 20
483.137
  0
VERTEX
  8
Layer2
 10
609.765
 20
483.224
  0
SEQEND
  0
POLYLINE
  8
Layer2
  6
PHANTOM1
 62
7
 66
1
 10
0
 20
0
 30
0
  0
VERTEX
  8
Layer2
 10
610.197
 20
475.403
  0
VERTEX
  8
Layer2
 10
610.061
 20
475.493
  0
VERTEX
  8
Layer2
 10
609.924
 20
475.582
  0
VERTEX
  8
Layer2
 10
609.785
 20
475.67
  0
VERTEX
  8
Layer2
 10
609.645
 20
475.755
  0
VERTEX
  8
Layer2
 10
609.504
 20
475.839
  0
VERTEX
  8
Layer2
 10
609.362
 20
475.921
  0
VERTEX
  8
Layer2
 10
609.218
 20
476.002
  0
VERTEX
  8
Layer2
 10
609.074
 20
476.081
  0
VERTEX
  8
Layer2
 10
608.928
 20
476.158
  0
VERTEX
  8
Layer2
 10
608.781
 20
476.233
  0
VERTEX
  8
Layer2
 10
608.633
 20
476.306
  0
VERTEX
  8
Layer2
 10
608.484
 20
476.378
  0
VERTEX
  8
Layer2
 10
608.333
 20
476.448
  0
VERTEX
  8
Layer2
 10
608.182
 20
476.516
  0
VERTEX
  8
Layer2
 10
608.03
 20
476.582
  0
VERTEX
  8
Layer2
 10
607.877
 20
476.646
  0
VERTEX
  8
Layer2
 10
607.723
 20
476.709
  0
VERTEX
  8
Layer2
 10
607.568
 20
476.769
  0
VERTEX
  8
Layer2
 10
607.412
 20
476.828
  0
VERTEX
  8
Layer2
 10
607.256
 20
476.885
  0
VERTEX
  8
Layer2
 10
607.098
 20
476.94
  0
VERTEX
  8
Layer2
 10
606.94
 20
476.993
  0
VERTEX
  8
Layer2
 10
606.781
 20
477.044
  0
VERTEX
  8
Layer2
 10
606.621
 20
477.093
  0
VERTEX
  8
Layer2
 10
606.461
 20
477.14
  0
VERTEX
  8
Layer2
 10
606.299
 20
477.186
  0
VERTEX
  8
Layer2
 10
606.138
 20
477.229
  0
VERTEX
  8
Layer2
 10
605.975
 20
477.27
  0
VERTEX
  8
Layer2
 10
605.812
 20
477.31
  0
VERTEX
  8
Layer2
 10
605.649
 20
477.347
  0
VERTEX
  8
Layer2
 10
605.485
 20
477.383
  0
VERTEX
  8
Layer2
 10
605.32
 20
477.416
  0
VERTEX
  8
Layer2
 10
605.155
 20
477.447
  0
VERTEX
  8
Layer2
 10
604.989
 20
477.477
  0
VERTEX
  8
Layer2
 10
604.823
 20
477.504
  0
VERTEX
  8
Layer2
 10
604.657
 20
477.53
  0
VERTEX
  8
Layer2
 10
604.49
 20
477.553
  0
VERTEX
  8
Layer2
 10
604.323
 20
477.574
  0
VERTEX
  8
Layer2
 10
604.156
 20
477.594
  0
VERTEX
  8
Layer2
 10
603.988
 20
477.611
  0
VERTEX
  8
Layer2
 10
603.821
 20
477.626
  0
VERTEX
  8
Layer2
 10
603.653
 20
477.64
  0
VERTEX
  8
Layer2
 10
603.484
 20
477.651
  0
VERTEX
  8
Layer2
 10
603.316
 20
477.66
  0
VERTEX
  8
Layer2
 10
603.147
 20
477.667
  0
VERTEX
  8
Layer2
 10
602.979
 20
477.672
  0
VERTEX
  8
Layer2
 10
602.81
 20
477.675
  0
VERTEX
  8
Layer2
 10
602.642
 20
477.676
  0
SEQEND
  0
LINE
  8
Layer2
  6
PHANTOM1
 62
7
 10
609.765
 20
483.224
 11
609.765
 21
475.348
  0
LINE
  8
Layer2
  6
DASHED1
 62
7
 10
634.134
 20
482.373
 11
631.241
 21
483.294
  0
LINE
  8
Layer2
  6
DASHED1
 62
7
 10
634.134
 20
476.455
 11
631.241
 21
475.403
  0
LINE
  8
Layer2
  6
CENTER1
 62
7
 10
624.402
 20
485.924
 11
624.402
 21
473.167
  0
POLYLINE
  8
Layer2
  6
CONTINUOUS
 62
7
 66
1
 10
0
 20
0
 30
0
 70
1
  0
VERTEX
  8
Layer2
 10
628.216
 20
479.348
  0
VERTEX
  8
Layer2
 10
626.309
 20
482.651
  0
VERTEX
  8
Layer2
 10
622.494
 20
482.651
  0
VERTEX
  8
Layer2
 10
620.587
 20
479.348
  0
VERTEX
  8
Layer2
 10
622.494
 20
476.045
  0
VERTEX
  8
Layer2
 10
626.309
 20
476.045
  0
SEQEND
  0
CIRCLE
  8
Layer2
  6
CONTINUOUS
 62
7
 10
624.402
 20
479.348
 40
3.81416
  0
CIRCLE
  8
Layer2
  6
CONTINUOUS
 62
7
 10
624.402
 20
479.348
 40
1.90708
  0
CIRCLE
  8
Layer2
  6
CONTINUOUS
 62
7
 10
624.402
 20
479.348
 40
1.24947
  0
LINE
  8
Layer2
  6
PHANTOM1
 62
7
 10
593.757
 20
480.861
 11
586.26
 21
480.861
  0
LINE
  8
Layer2
  6
PHANTOM1
 62
7
 10
586.26
 20
480.861
 11
586.26
 21
477.178
  0
LINE
  8
Layer2
  6
PHANTOM1
 62
7
 10
586.26
 20
477.178
 11
593.757
 21
477.178
  0
LINE
  8
Layer2
  6
DASHED1
 62
7
 10
619.141
 20
483.294
 11
619.141
 21
475.403
  0
LINE
  8
Layer2
  6
PHANTOM1
 62
7
 10
619.141
 20
483.348
 11
609.408
 21
483.348
  0
LINE
  8
Layer2
  6
PHANTOM1
 62
7
 10
609.765
 20
475.348
 11
619.141
 21
475.348
  0
LINE
  8
Layer2
  6
CENTER1
 62
7
 10
629.148
 20
493.348
 11
643.604
 21
493.348
  0
LINE
  8
Layer2
  6
CENTER1
 62
7
 10
625.331
 20
465.348
 11
640.655
 21
465.348
  0
CIRCLE
  8
Layer2
  6
CONTINUOUS
 62
7
 10
662.873
 20
493.348
 40
4.5
  0
CIRCLE
  8
Layer2
  6
CONTINUOUS
 62
7
 10
634.873
 20
493.348
 40
4.5
  0
CIRCLE
  8
Layer2
  6
CONTINUOUS
 62
7
 10
634.873
 20
465.348
 40
4.5
  0
CIRCLE
  8
Layer2
  6
CONTINUOUS
 62
7
 10
662.873
 20
465.348
 40
4.5
  0
LINE
  8
Layer2
  6
CONTINUOUS
 62
7
 10
628.873
 20
499.348
 11
690.982
 21
499.348
  0
LINE
  8
Layer2
  6
CONTINUOUS
 62
7
 10
628.873
 20
459.348
 11
690.873
 21
459.348
  0
CIRCLE
  8
Layer2
  6
CONTINUOUS
 62
7
 10
662.873
 20
493.348
 40
3
  0
CIRCLE
  8
Layer2
  6
CONTINUOUS
 62
7
 10
634.873
 20
493.348
 40
3
  0
CIRCLE
  8
Layer2
  6
CONTINUOUS
 62
7
 10
662.873
 20
465.348
 40
3
  0
CIRCLE
  8
Layer2
  6
CONTINUOUS
 62
7
 10
634.873
 20
465.348
 40
3
  0
LINE
  8
Layer2
  6
CENTER1
 62
7
 10
656.476
 20
465.348
 11
668.095
 21
465.348
  0
LINE
  8
Layer2
  6
CENTER1
 62
7
 10
650.555
 20
493.348
 11
655.102
 21
493.348
  0
LINE
  8
Layer2
  6
CENTER1
 62
7
 10
642.027
 20
465.348
 11
647.218
 21
465.348
  0
LINE
  8
Layer2
  6
CENTER1
 62
7
 10
656.229
 20
493.348
 11
669.084
 21
493.348
  0
CIRCLE
  8
Layer2
  6
CONTINUOUS
 62
7
 10
652.873
 20
493.348
 40
1.25
  0
CIRCLE
  8
Layer2
  6
CONTINUOUS
 62
7
 10
644.873
 20
465.348
 40
1.25
  0
TEXT
  8
Layer2
 62
7
 10
631.898
 20
516.894
 72
1
 11
631.898
 21
516.894
 40
4
 41
1
  1
6
  0
TEXT
  8
Layer2
 62
7
 10
648.339
 20
516.894
 72
1
 11
648.339
 21
516.894
 40
4
 41
1
  1
28
  0
TEXT
  8
Layer2
 62
7
 10
679.563
 20
450.124
 72
1
 11
679.563
 21
450.124
 40
4
 41
1
  1
23
  0
POLYLINE
  8
Layer2
  6
CONTINUOUS
 62
7
 66
1
 10
0
 20
0
 30
0
  0
VERTEX
  8
Layer2
 10
632.802
 20
495.47
  0
VERTEX
  8
Layer2
 10
620.29
 20
508.159
  0
VERTEX
  8
Layer2
 10
620.29
 20
508.159
  0
SEQEND
  0
POLYLINE
  8
Layer2
  6
CONTINUOUS
 62
7
 66
1
 10
0
 20
0
 30
0
 70
1
  0
VERTEX
  8
Layer2
 10
630.826
 20
498.948
  0
VERTEX
  8
Layer2
 10
632.802
 20
495.47
  0
VERTEX
  8
Layer2
 10
629.352
 20
497.494
  0
SEQEND
  0
TEXT
  8
Layer2
 62
7
 10
588.704
 20
506.225
 73
3
 11
588.704
 21
506.225
 40
4
 41
1
  1
（ベース取付穴）
  0
POLYLINE
  8
Layer2
  6
CONTINUOUS
 62
7
 66
1
 10
0
 20
0
 30
0
  0
VERTEX
  8
Layer2
 10
643.772
 20
464.464
  0
VERTEX
  8
Layer2
 10
621.579
 20
443.7
  0
VERTEX
  8
Layer2
 10
621.579
 20
443.7
  0
SEQEND
  0
POLYLINE
  8
Layer2
  6
CONTINUOUS
 62
7
 66
1
 10
0
 20
0
 30
0
 70
1
  0
VERTEX
  8
Layer2
 10
640.244
 20
462.581
  0
VERTEX
  8
Layer2
 10
643.772
 20
464.464
  0
VERTEX
  8
Layer2
 10
641.658
 20
461.069
  0
SEQEND
  0
LINE
  8
Layer2
  6
CONTINUOUS
 62
7
 10
621.579
 20
443.7
 11
573.579
 21
443.7
  0
TEXT
  8
Layer2
 62
7
 10
573.579
 20
444.7
 40
4
 41
1
  1
ベース位置決めセンター穴
  0
TEXT
  8
Layer2
 62
7
 10
573.879
 20
453.368
 73
3
 11
573.879
 21
453.368
 40
4
 41
1
  1
2-Φ2.5
  0
LINE
  8
Layer2
  6
CONTINUOUS
 62
7
 10
667.873
 20
469.848
 11
667.873
 21
447.243
  0
LINE
  8
Layer2
  6
CONTINUOUS
 62
7
 10
690.873
 20
459.348
 11
690.873
 21
447.38
  0
POLYLINE
  8
Layer2
  6
CONTINUOUS
 62
7
 66
1
 10
0
 20
0
 30
0
  0
VERTEX
  8
Layer2
 10
667.873
 20
449.501
  0
VERTEX
  8
Layer2
 10
690.873
 20
449.501
  0
SEQEND
  0
POLYLINE
  8
Layer2
  6
CONTINUOUS
 62
7
 66
1
 10
0
 20
0
 30
0
 70
1
  0
VERTEX
  8
Layer2
 10
671.737
 20
448.466
  0
VERTEX
  8
Layer2
 10
667.873
 20
449.501
  0
VERTEX
  8
Layer2
 10
671.737
 20
450.536
  0
SEQEND
  0
POLYLINE
  8
Layer2
  6
CONTINUOUS
 62
7
 66
1
 10
0
 20
0
 30
0
 70
1
  0
VERTEX
  8
Layer2
 10
687.01
 20
450.536
  0
VERTEX
  8
Layer2
 10
690.873
 20
449.501
  0
VERTEX
  8
Layer2
 10
687.01
 20
448.466
  0
SEQEND
  0
LINE
  8
Layer2
  6
CONTINUOUS
 62
7
 10
620.29
 20
508.159
 11
610.29
 21
508.159
  0
TEXT
  8
Layer2
 62
7
 10
610.29
 20
509.159
 40
4
 41
1
  1
4-Φ6
  0
LINE
  8
Layer2
  6
CONTINUOUS
 62
7
 10
634.873
 20
499.348
 11
634.873
 21
517.974
  0
POLYLINE
  8
Layer2
  6
CONTINUOUS
 62
7
 66
1
 10
0
 20
0
 30
0
  0
VERTEX
  8
Layer2
 10
620.873
 20
515.894
  0
VERTEX
  8
Layer2
 10
628.873
 20
515.894
  0
SEQEND
  0
POLYLINE
  8
Layer2
  6
CONTINUOUS
 62
7
 66
1
 10
0
 20
0
 30
0
 70
1
  0
VERTEX
  8
Layer2
 10
625.01
 20
516.929
  0
VERTEX
  8
Layer2
 10
628.873
 20
515.894
  0
VERTEX
  8
Layer2
 10
625.01
 20
514.859
  0
SEQEND
  0
LINE
  8
Layer2
  6
CONTINUOUS
 62
7
 10
634.923
 20
515.894
 11
628.873
 21
515.894
  0
LINE
  8
Layer2
  6
CONTINUOUS
 62
7
 10
662.873
 20
502.49
 11
662.873
 21
516.94
  0
POLYLINE
  8
Layer2
  6
CONTINUOUS
 62
7
 66
1
 10
0
 20
0
 30
0
  0
VERTEX
  8
Layer2
 10
634.923
 20
515.894
  0
VERTEX
  8
Layer2
 10
662.873
 20
515.894
  0
SEQEND
  0
POLYLINE
  8
Layer2
  6
CONTINUOUS
 62
7
 66
1
 10
0
 20
0
 30
0
 70
1
  0
VERTEX
  8
Layer2
 10
638.787
 20
514.859
  0
VERTEX
  8
Layer2
 10
634.923
 20
515.894
  0
VERTEX
  8
Layer2
 10
638.787
 20
516.929
  0
SEQEND
  0
POLYLINE
  8
Layer2
  6
CONTINUOUS
 62
7
 66
1
 10
0
 20
0
 30
0
 70
1
  0
VERTEX
  8
Layer2
 10
659.01
 20
516.929
  0
VERTEX
  8
Layer2
 10
662.873
 20
515.894
  0
VERTEX
  8
Layer2
 10
659.01
 20
514.859
  0
SEQEND
  0
TEXT
  8
Layer2
 62
7
 10
659.873
 20
527.175
 72
1
 11
659.873
 21
527.175
 40
6
 41
1
  1
62
  0
LINE
  8
Layer2
  6
CONTINUOUS
 62
7
 10
690.873
 20
498.358
 11
690.873
 21
529.175
  0
LINE
  8
Layer2
  6
CONTINUOUS
 62
7
 10
628.873
 20
499.348
 11
628.873
 21
529.175
  0
POLYLINE
  8
Layer2
  6
CONTINUOUS
 62
7
 66
1
 10
0
 20
0
 30
0
  0
VERTEX
  8
Layer2
 10
690.873
 20
525.175
  0
VERTEX
  8
Layer2
 10
628.873
 20
525.175
  0
SEQEND
  0
POLYLINE
  8
Layer2
  6
CONTINUOUS
 62
7
 66
1
 10
0
 20
0
 30
0
 70
1
  0
VERTEX
  8
Layer2
 10
687.01
 20
526.21
  0
VERTEX
  8
Layer2
 10
690.873
 20
525.175
  0
VERTEX
  8
Layer2
 10
687.01
 20
524.14
  0
SEQEND
  0
POLYLINE
  8
Layer2
  6
CONTINUOUS
 62
7
 66
1
 10
0
 20
0
 30
0
 70
1
  0
VERTEX
  8
Layer2
 10
632.737
 20
524.14
  0
VERTEX
  8
Layer2
 10
628.873
 20
525.175
  0
VERTEX
  8
Layer2
 10
632.737
 20
526.21
  0
SEQEND
  0
LINE
  8
Layer2
  6
CONTINUOUS
 62
7
 10
496.97
 20
354.969
 11
496.97
 21
317.158
  0
LINE
  8
Layer2
  6
CONTINUOUS
 62
7
 10
478.97
 20
354.969
 11
478.97
 21
317.452
  0
TEXT
  8
Layer2
 62
7
 10
636.873
 20
445.189
 72
1
 11
636.873
 21
445.189
 40
6
 41
1
  1
16
  0
LINE
  8
Layer2
  6
CONTINUOUS
 62
7
 10
628.873
 20
459.348
 11
628.873
 21
439.189
  0
LINE
  8
Layer2
  6
CONTINUOUS
 62
7
 10
644.873
 20
461.209
 11
644.873
 21
439.189
  0
POLYLINE
  8
Layer2
  6
CONTINUOUS
 62
7
 66
1
 10
0
 20
0
 30
0
  0
VERTEX
  8
Layer2
 10
628.873
 20
443.189
  0
VERTEX
  8
Layer2
 10
644.873
 20
443.189
  0
SEQEND
  0
POLYLINE
  8
Layer2
  6
CONTINUOUS
 62
7
 66
1
 10
0
 20
0
 30
0
 70
1
  0
VERTEX
  8
Layer2
 10
632.737
 20
442.154
  0
VERTEX
  8
Layer2
 10
628.873
 20
443.189
  0
VERTEX
  8
Layer2
 10
632.737
 20
444.224
  0
SEQEND
  0
POLYLINE
  8
Layer2
  6
CONTINUOUS
 62
7
 66
1
 10
0
 20
0
 30
0
 70
1
  0
VERTEX
  8
Layer2
 10
641.01
 20
444.224
  0
VERTEX
  8
Layer2
 10
644.873
 20
443.189
  0
VERTEX
  8
Layer2
 10
641.01
 20
442.154
  0
SEQEND
  0
LINE
  8
Layer2
  6
CENTER1
 62
7
 10
634.873
 20
499.348
 11
634.873
 21
486.599
  0
LINE
  8
Layer2
  6
CENTER1
 62
7
 10
652.873
 20
495.66
 11
652.873
 21
491.458
  0
LINE
  8
Layer2
  6
CENTER1
 62
7
 10
644.873
 20
461.209
 11
644.873
 21
468.68
  0
LINE
  8
Layer2
  6
CENTER1
 62
7
 10
578.914
 20
479.348
 11
708.343
 21
479.348
  0
LINE
  8
Layer2
  6
CONTINUOUS
 62
7
 10
702.921
 20
477.248
 11
705.531
 21
477.244
  0
LINE
  8
Layer2
  6
CONTINUOUS
 62
7
 10
698.921
 20
483.967
 11
702.333
 21
483.967
  0
LINE
  8
Layer2
  6
CONTINUOUS
 62
7
 10
702.333
 20
483.967
 11
702.921
 21
482.948
  0
LINE
  8
Layer2
  6
CONTINUOUS
 62
7
 10
702.921
 20
482.948
 11
702.921
 21
475.748
  0
LINE
  8
Layer2
  6
CONTINUOUS
 62
7
 10
702.921
 20
475.748
 11
702.333
 21
474.729
  0
LINE
  8
Layer2
  6
CONTINUOUS
 62
7
 10
702.333
 20
474.729
 11
698.921
 21
474.729
  0
LINE
  8
Layer2
  6
CONTINUOUS
 62
7
 10
698.921
 20
481.657
 11
702.333
 21
481.657
  0
LINE
  8
Layer2
  6
CONTINUOUS
 62
7
 10
698.921
 20
477.039
 11
702.333
 21
477.039
  0
LINE
  8
Layer2
  6
CONTINUOUS
 62
7
 10
706.021
 20
481.848
 11
706.021
 21
476.848
  0
LINE
  8
Layer2
  6
CONTINUOUS
 62
7
 10
706.921
 20
480.948
 11
706.921
 21
477.748
  0
LINE
  8
Layer2
  6
CONTINUOUS
 62
7
 10
706.021
 20
481.848
 11
706.921
 21
480.948
  0
LINE
  8
Layer2
  6
CONTINUOUS
 62
7
 10
706.021
 20
476.848
 11
706.921
 21
477.748
  0
ARC
  8
Layer2
  6
CONTINUOUS
 62
7
 10
695.047
 20
479.348
 40
7.643
 50
342.412
 51
17.588
  0
ARC
  8
Layer2
  6
CONTINUOUS
 62
7
 10
700.645
 20
482.812
 40
2.045
 50
325.616
 51
34.384
  0
ARC
  8
Layer2
  6
CONTINUOUS
 62
7
 10
700.645
 20
475.884
 40
2.045
 50
325.616
 51
34.384
  0
LINE
  8
Layer2
  6
CONTINUOUS
 62
7
 10
702.921
 20
481.848
 11
706.021
 21
481.848
  0
LINE
  8
Layer2
  6
CONTINUOUS
 62
7
 10
702.921
 20
481.448
 11
706.421
 21
481.448
  0
LINE
  8
Layer2
  6
CONTINUOUS
 62
7
 10
702.921
 20
477.248
 11
706.421
 21
477.248
  0
LINE
  8
Layer2
  6
CONTINUOUS
 62
7
 10
702.921
 20
476.848
 11
706.021
 21
476.848
  0
LINE
  8
Layer2
  6
CONTINUOUS
 62
7
 10
698.873
 20
489.598
 11
703.865
 21
489.598
  0
LINE
  8
Layer2
  6
CONTINUOUS
 62
7
 10
698.873
 20
460.598
 11
703.742
 21
460.598
  0
LINE
  8
Layer2
  6
CONTINUOUS
 62
7
 10
698.873
 20
498.098
 11
703.865
 21
498.098
  0
LINE
  8
Layer2
  6
CONTINUOUS
 62
7
 10
703.865
 20
489.598
 11
703.865
 21
498.098
  0
LINE
  8
Layer2
  6
CONTINUOUS
 62
7
 10
704.165
 20
489.898
 11
704.165
 21
497.798
  0
LINE
  8
Layer2
  6
CONTINUOUS
 62
7
 10
703.865
 20
489.598
 11
704.165
 21
489.898
  0
LINE
  8
Layer2
  6
CONTINUOUS
 62
7
 10
703.865
 20
498.098
 11
704.165
 21
497.798
  0
LINE
  8
Layer2
  6
CENTER1
 62
7
 10
705.429
 20
493.848
 11
695.513
 21
493.848
  0
LINE
  8
Layer2
  6
CONTINUOUS
 62
7
 10
698.99
 20
497.598
 11
703.749
 21
497.598
  0
LINE
  8
Layer2
  6
CONTINUOUS
 62
7
 10
699.106
 20
497.098
 11
703.633
 21
497.098
  0
LINE
  8
Layer2
  6
CONTINUOUS
 62
7
 10
699.222
 20
496.598
 11
703.516
 21
496.598
  0
LINE
  8
Layer2
  6
CONTINUOUS
 62
7
 10
699.339
 20
496.098
 11
703.4
 21
496.098
  0
LINE
  8
Layer2
  6
CONTINUOUS
 62
7
 10
699.455
 20
495.598
 11
703.284
 21
495.598
  0
LINE
  8
Layer2
  6
CONTINUOUS
 62
7
 10
699.571
 20
495.098
 11
703.167
 21
495.098
  0
LINE
  8
Layer2
  6
CONTINUOUS
 62
7
 10
690.982
 20
459.348
 11
698.873
 21
459.348
  0
LINE
  8
Layer2
  6
CONTINUOUS
 62
7
 10
690.982
 20
499.348
 11
698.873
 21
499.348
  0
LINE
  8
Layer2
  6
CONTINUOUS
 62
7
 10
698.873
 20
469.098
 11
703.742
 21
469.098
  0
LINE
  8
Layer2
  6
CONTINUOUS
 62
7
 10
703.742
 20
460.598
 11
703.742
 21
469.098
  0
LINE
  8
Layer2
  6
CONTINUOUS
 62
7
 10
704.042
 20
460.898
 11
704.042
 21
468.798
  0
LINE
  8
Layer2
  6
CONTINUOUS
 62
7
 10
703.742
 20
460.598
 11
704.042
 21
460.898
  0
LINE
  8
Layer2
  6
CONTINUOUS
 62
7
 10
703.742
 20
469.098
 11
704.042
 21
468.798
  0
LINE
  8
Layer2
  6
CENTER1
 62
7
 10
705.306
 20
464.848
 11
695.389
 21
464.848
  0
LINE
  8
Layer2
  6
CONTINUOUS
 62
7
 10
698.873
 20
469.098
 11
703.742
 21
469.098
  0
LINE
  8
Layer2
  6
CONTINUOUS
 62
7
 10
698.987
 20
468.598
 11
703.628
 21
468.598
  0
LINE
  8
Layer2
  6
CONTINUOUS
 62
7
 10
699.1
 20
468.098
 11
703.515
 21
468.098
  0
LINE
  8
Layer2
  6
CONTINUOUS
 62
7
 10
699.214
 20
467.598
 11
703.401
 21
467.598
  0
LINE
  8
Layer2
  6
CONTINUOUS
 62
7
 10
699.327
 20
467.098
 11
703.288
 21
467.098
  0
LINE
  8
Layer2
  6
CONTINUOUS
 62
7
 10
699.441
 20
466.598
 11
703.174
 21
466.598
  0
LINE
  8
Layer2
  6
CONTINUOUS
 62
7
 10
699.554
 20
466.098
 11
703.061
 21
466.098
  0
TEXT
  8
Layer2
 62
7
 10
715.797
 20
479.348
 72
1
 11
715.797
 21
479.348
 40
4
 41
1
 50
90
  1
 19 
  0
LINE
  8
Layer2
  6
CONTINUOUS
 62
7
 10
689.146
 20
488.848
 11
718.797
 21
488.848
  0
LINE
  8
Layer2
  6
CONTINUOUS
 62
7
 10
689.398
 20
469.848
 11
718.797
 21
469.848
  0
POLYLINE
  8
Layer2
  6
CONTINUOUS
 62
7
 66
1
 10
0
 20
0
 30
0
  0
VERTEX
  8
Layer2
 10
716.797
 20
488.848
  0
VERTEX
  8
Layer2
 10
716.797
 20
469.848
  0
SEQEND
  0
POLYLINE
  8
Layer2
  6
CONTINUOUS
 62
7
 66
1
 10
0
 20
0
 30
0
 70
1
  0
VERTEX
  8
Layer2
 10
715.762
 20
484.985
  0
VERTEX
  8
Layer2
 10
716.797
 20
488.848
  0
VERTEX
  8
Layer2
 10
717.833
 20
484.985
  0
SEQEND
  0
POLYLINE
  8
Layer2
  6
CONTINUOUS
 62
7
 66
1
 10
0
 20
0
 30
0
 70
1
  0
VERTEX
  8
Layer2
 10
717.833
 20
473.712
  0
VERTEX
  8
Layer2
 10
716.797
 20
469.848
  0
VERTEX
  8
Layer2
 10
715.762
 20
473.712
  0
SEQEND
  0
TEXT
  8
Layer2
 62
7
 10
738.28
 20
479.348
 72
1
 11
738.28
 21
479.348
 40
6
 41
1
 50
90
  1
 40 
  0
LINE
  8
Layer2
  6
CONTINUOUS
 62
7
 10
698.873
 20
499.348
 11
744.28
 21
499.348
  0
LINE
  8
Layer2
  6
CONTINUOUS
 62
7
 10
698.873
 20
459.348
 11
744.28
 21
459.348
  0
POLYLINE
  8
Layer2
  6
CONTINUOUS
 62
7
 66
1
 10
0
 20
0
 30
0
  0
VERTEX
  8
Layer2
 10
740.28
 20
499.348
  0
VERTEX
  8
Layer2
 10
740.28
 20
459.348
  0
SEQEND
  0
POLYLINE
  8
Layer2
  6
CONTINUOUS
 62
7
 66
1
 10
0
 20
0
 30
0
 70
1
  0
VERTEX
  8
Layer2
 10
739.245
 20
495.485
  0
VERTEX
  8
Layer2
 10
740.28
 20
499.348
  0
VERTEX
  8
Layer2
 10
741.316
 20
495.485
  0
SEQEND
  0
POLYLINE
  8
Layer2
  6
CONTINUOUS
 62
7
 66
1
 10
0
 20
0
 30
0
 70
1
  0
VERTEX
  8
Layer2
 10
741.316
 20
463.212
  0
VERTEX
  8
Layer2
 10
740.28
 20
459.348
  0
VERTEX
  8
Layer2
 10
739.245
 20
463.212
  0
SEQEND
  0
TEXT
  8
Layer2
 62
7
 10
728.334
 20
479.348
 72
1
 11
728.334
 21
479.348
 40
6
 41
1
 50
90
  1
29
  0
LINE
  8
Layer2
  6
CONTINUOUS
 62
7
 10
705.429
 20
493.848
 11
734.334
 21
493.848
  0
LINE
  8
Layer2
  6
CONTINUOUS
 62
7
 10
705.306
 20
464.848
 11
734.334
 21
464.848
  0
POLYLINE
  8
Layer2
  6
CONTINUOUS
 62
7
 66
1
 10
0
 20
0
 30
0
  0
VERTEX
  8
Layer2
 10
730.334
 20
493.848
  0
VERTEX
  8
Layer2
 10
730.334
 20
465.348
  0
SEQEND
  0
POLYLINE
  8
Layer2
  6
CONTINUOUS
 62
7
 66
1
 10
0
 20
0
 30
0
 70
1
  0
VERTEX
  8
Layer2
 10
729.298
 20
489.985
  0
VERTEX
  8
Layer2
 10
730.334
 20
493.848
  0
VERTEX
  8
Layer2
 10
731.369
 20
489.985
  0
SEQEND
  0
POLYLINE
  8
Layer2
  6
CONTINUOUS
 62
7
 66
1
 10
0
 20
0
 30
0
 70
1
  0
VERTEX
  8
Layer2
 10
731.369
 20
468.712
  0
VERTEX
  8
Layer2
 10
730.334
 20
464.848
  0
VERTEX
  8
Layer2
 10
729.298
 20
468.712
  0
SEQEND
  0
TEXT
  8
Layer2
 62
7
 10
705.373
 20
526.165
 72
1
 11
705.373
 21
526.165
 40
6
 41
1
  1
8
  0
LINE
  8
Layer2
  6
CONTINUOUS
 62
7
 10
698.873
 20
499.348
 11
698.873
 21
527.31
  0
POLYLINE
  8
Layer2
  6
CONTINUOUS
 62
7
 66
1
 10
0
 20
0
 30
0
  0
VERTEX
  8
Layer2
 10
709.056
 20
525.175
  0
VERTEX
  8
Layer2
 10
698.765
 20
525.175
  0
SEQEND
  0
POLYLINE
  8
Layer2
  6
CONTINUOUS
 62
7
 66
1
 10
0
 20
0
 30
0
 70
1
  0
VERTEX
  8
Layer2
 10
702.628
 20
524.14
  0
VERTEX
  8
Layer2
 10
698.765
 20
525.175
  0
VERTEX
  8
Layer2
 10
702.628
 20
526.21
  0
SEQEND
  0
LINE
  8
Layer2
  6
CONTINUOUS
 62
7
 10
698.765
 20
525.175
 11
690.873
 21
525.175
  0
LINE
  8
Layer2
  6
DASHED1
 62
7
 10
667.873
 20
479.848
 11
675.041
 21
479.848
  0
LINE
  8
Layer2
  6
CONTINUOUS
 62
7
 10
667.873
 20
488.848
 11
667.873
 21
469.848
  0
LINE
  8
Layer2
  6
CONTINUOUS
 62
7
 10
667.873
 20
488.848
 11
690.873
 21
488.848
  0
LINE
  8
Layer2
  6
CENTER1
 62
7
 10
679.184
 20
491.974
 11
679.184
 21
466.591
  0
ARC
  8
Layer2
  6
DASHED1
 62
7
 10
694.268
 20
487.355
 40
17.833
 50
206.548
 51
259.025
  0
LINE
  8
Layer2
  6
DASHED1
 62
7
 10
683.493
 20
478.848
 11
687.98
 21
478.848
  0
LINE
  8
Layer2
  6
DASHED1
 62
7
 10
683.494
 20
479.848
 11
687.98
 21
479.848
  0
LINE
  8
Layer2
  6
CONTINUOUS
 62
7
 10
667.873
 20
469.848
 11
690.873
 21
469.848
  0
LINE
  8
Layer2
  6
CONTINUOUS
 62
7
 10
689.553
 20
481.848
 11
690.873
 21
481.848
  0
LINE
  8
Layer2
  6
CONTINUOUS
 62
7
 10
687.98
 20
482.242
 11
687.98
 21
476.348
  0
LINE
  8
Layer2
  6
CONTINUOUS
 62
7
 10
687.98
 20
482.242
 11
690.873
 21
482.242
  0
LINE
  8
Layer2
  6
CONTINUOUS
 62
7
 10
687.98
 20
476.348
 11
690.873
 21
476.348
  0
LINE
  8
Layer2
  6
CONTINUOUS
 62
7
 10
688.553
 20
480.848
 11
688.553
 21
477.848
  0
LINE
  8
Layer2
  6
CONTINUOUS
 62
7
 10
689.553
 20
481.448
 11
689.213
 21
481.788
  0
ARC
  8
Layer2
  6
CONTINUOUS
 62
7
 10
689.553
 20
480.848
 40
1
 50
90
 51
180
  0
LINE
  8
Layer2
  6
CONTINUOUS
 62
7
 10
689.553
 20
481.848
 11
689.553
 21
476.848
  0
LINE
  8
Layer2
  6
CONTINUOUS
 62
7
 10
689.553
 20
481.448
 11
690.873
 21
481.448
  0
LINE
  8
Layer2
  6
CONTINUOUS
 62
7
 10
689.553
 20
477.248
 11
690.873
 21
477.248
  0
LINE
  8
Layer2
  6
CONTINUOUS
 62
7
 10
689.553
 20
476.848
 11
690.873
 21
476.848
  0
ARC
  8
Layer2
  6
CONTINUOUS
 62
7
 10
689.553
 20
477.848
 40
1
 50
180
 51
270
  0
ARC
  8
Layer2
  6
DASHED1
 62
7
 10
694.268
 20
471.414
 40
17.833
 50
100.975
 51
153.452
  0
TEXT
  8
Layer2
 62
7
 10
640.873
 20
432.759
 72
1
 11
640.873
 21
432.759
 40
6
 41
1
  1
24
  0
LINE
  8
Layer2
  6
CONTINUOUS
 62
7
 10
628.873
 20
443.189
 11
628.873
 21
426.759
  0
LINE
  8
Layer2
  6
CONTINUOUS
 62
7
 10
652.873
 20
491.458
 11
652.873
 21
426.759
  0
POLYLINE
  8
Layer2
  6
CONTINUOUS
 62
7
 66
1
 10
0
 20
0
 30
0
  0
VERTEX
  8
Layer2
 10
628.873
 20
430.759
  0
VERTEX
  8
Layer2
 10
652.873
 20
430.759
  0
SEQEND
  0
POLYLINE
  8
Layer2
  6
CONTINUOUS
 62
7
 66
1
 10
0
 20
0
 30
0
 70
1
  0
VERTEX
  8
Layer2
 10
632.737
 20
429.724
  0
VERTEX
  8
Layer2
 10
628.873
 20
430.759
  0
VERTEX
  8
Layer2
 10
632.737
 20
431.794
  0
SEQEND
  0
POLYLINE
  8
Layer2
  6
CONTINUOUS
 62
7
 66
1
 10
0
 20
0
 30
0
 70
1
  0
VERTEX
  8
Layer2
 10
649.01
 20
431.794
  0
VERTEX
  8
Layer2
 10
652.873
 20
430.759
  0
VERTEX
  8
Layer2
 10
649.01
 20
429.724
  0
SEQEND
  0
CIRCLE
  8
Layer2
  6
CONTINUOUS
 62
7
 10
679.184
 20
479.348
 40
4.5
  0
CIRCLE
  8
Layer2
  6
CONTINUOUS
 62
7
 10
487.97
 20
354.986
 40
9
  0
CIRCLE
  8
Layer2
  6
CONTINUOUS
 62
7
 10
487.97
 20
354.986
 40
4
  0
LINE
  8
Layer2
  6
DASHED1
 62
7
 10
478.72
 20
371.986
 11
478.72
 21
377.486
  0
LINE
  8
Layer2
  6
CONTINUOUS
 62
7
 10
478.97
 20
318.42
 11
496.97
 21
318.42
  0
POLYLINE
  8
Layer2
  6
CONTINUOUS
 62
7
 66
1
 10
0
 20
0
 30
0
 70
1
  0
VERTEX
  8
Layer2
 10
482.834
 20
317.385
  0
VERTEX
  8
Layer2
 10
478.97
 20
318.42
  0
VERTEX
  8
Layer2
 10
482.834
 20
319.455
  0
SEQEND
  0
POLYLINE
  8
Layer2
  6
CONTINUOUS
 62
7
 66
1
 10
0
 20
0
 30
0
 70
1
  0
VERTEX
  8
Layer2
 10
493.107
 20
319.455
  0
VERTEX
  8
Layer2
 10
496.97
 20
318.42
  0
VERTEX
  8
Layer2
 10
493.107
 20
317.385
  0
SEQEND
  0
TEXT
  8
Layer2
 62
7
 10
560.428
 20
479.348
 72
1
 11
560.428
 21
479.348
 40
6
 41
1
 50
90
  1
 28 
  0
LINE
  8
Layer2
  6
CONTINUOUS
 62
7
 10
626.518
 20
493.348
 11
562.798
 21
493.348
  0
LINE
  8
Layer2
  6
CONTINUOUS
 62
7
 10
625.331
 20
465.348
 11
563.727
 21
465.348
  0
LINE
  8
Layer2
  6
CONTINUOUS
 62
7
 10
565.428
 20
493.348
 11
565.428
 21
465.348
  0
POLYLINE
  8
Layer2
  6
CONTINUOUS
 62
7
 66
1
 10
0
 20
0
 30
0
  0
VERTEX
  8
Layer2
 10
730.334
 20
493.848
  0
VERTEX
  8
Layer2
 10
730.334
 20
464.848
  0
SEQEND
  0
POLYLINE
  8
Layer2
  6
CONTINUOUS
 62
7
 66
1
 10
0
 20
0
 30
0
 70
1
  0
VERTEX
  8
Layer2
 10
566.463
 20
469.212
  0
VERTEX
  8
Layer2
 10
565.428
 20
465.348
  0
VERTEX
  8
Layer2
 10
564.392
 20
469.212
  0
SEQEND
  0
POLYLINE
  8
Layer2
  6
CONTINUOUS
 62
7
 66
1
 10
0
 20
0
 30
0
 70
1
  0
VERTEX
  8
Layer2
 10
564.392
 20
489.485
  0
VERTEX
  8
Layer2
 10
565.428
 20
493.348
  0
VERTEX
  8
Layer2
 10
566.463
 20
489.485
  0
SEQEND
  0
LINE
  8
Layer2
  6
CONTINUOUS
 62
7
 10
629.373
 20
329.969
 11
690.373
 21
329.969
  0
LINE
  8
Layer2
  6
CONTINUOUS
 62
7
 10
690.873
 20
376.961
 11
690.873
 21
358.862
  0
LINE
  8
Layer2
  6
CONTINUOUS
 62
7
 10
668.373
 20
399.968
 11
690.216
 21
399.968
  0
LINE
  8
Layer2
  6
CONTINUOUS
 62
7
 10
687.684
 20
399.968
 11
687.684
 21
368.376
  0
LINE
  8
Layer2
  6
DASHED1
 62
7
 10
674.684
 20
372.757
 11
683.684
 21
372.757
  0
LINE
  8
Layer2
  6
CENTER1
 62
7
 10
679.184
 20
367.382
 11
679.184
 21
403.697
  0
LINE
  8
Layer2
  6
CONTINUOUS
 62
7
 10
691.531
 20
377.461
 11
698.373
 21
377.461
  0
LINE
  8
Layer2
  6
CONTINUOUS
 62
7
 10
687.684
 20
368.376
 11
690.873
 21
368.376
  0
LINE
  8
Layer2
  6
DASHED1
 62
7
 10
667.568
 20
374.703
 11
674.544
 21
374.703
  0
LINE
  8
Layer2
  6
DASHED1
 62
7
 10
683.466
 20
374.703
 11
684.661
 21
374.703
  0
LINE
  8
Layer2
  6
CONTINUOUS
 62
7
 10
667.873
 20
399.268
 11
667.873
 21
373.462
  0
LINE
  8
Layer2
  6
CONTINUOUS
 62
7
 10
644.044
 20
386.602
 11
652.156
 21
386.602
  0
LINE
  8
Layer2
  6
CONTINUOUS
 62
7
 10
698.873
 20
353.088
 11
702.123
 21
353.088
  0
LINE
  8
Layer2
  6
CENTER1
 62
7
 10
707.596
 20
348.469
 11
686.726
 21
348.469
  0
LINE
  8
Layer2
  6
CENTER1
 62
7
 10
705.892
 20
371.961
 11
685.711
 21
371.961
  0
LINE
  8
Layer2
  6
CONTINUOUS
 62
7
 10
698.873
 20
376.58
 11
702.285
 21
376.58
  0
LINE
  8
Layer2
  6
CONTINUOUS
 62
7
 10
698.873
 20
376.961
 11
698.873
 21
330.469
  0
LINE
  8
Layer2
  6
CONTINUOUS
 62
7
 10
691.531
 20
329.969
 11
698.373
 21
329.969
  0
LINE
  8
Layer2
  6
CONTINUOUS
 62
7
 10
689.879
 20
351.898
 11
667.873
 21
373.462
  0
LINE
  8
Layer2
  6
CONTINUOUS
 62
7
 10
689.879
 20
345.789
 11
689.879
 21
351.898
  0
LINE
  8
Layer2
  6
CONTINUOUS
 62
7
 10
635.745
 20
343.282
 11
667.873
 21
343.282
  0
LINE
  8
Layer2
  6
CONTINUOUS
 62
7
 10
635.745
 20
332.234
 11
667.568
 21
332.234
  0
LINE
  8
Layer2
  6
CONTINUOUS
 62
7
 10
685.963
 20
345.289
 11
685.963
 21
332.018
  0
LINE
  8
Layer2
  6
CONTINUOUS
 62
7
 10
681.23
 20
345.289
 11
681.23
 21
332.018
  0
LINE
  8
Layer2
  6
CONTINUOUS
 62
7
 10
677.619
 20
340.23
 11
681.23
 21
340.23
  0
LINE
  8
Layer2
  6
CONTINUOUS
 62
7
 10
677.619
 20
340.23
 11
677.619
 21
335.335
  0
LINE
  8
Layer2
  6
CONTINUOUS
 62
7
 10
677.619
 20
335.335
 11
681.23
 21
335.335
  0
LINE
  8
Layer2
  6
CONTINUOUS
 62
7
 10
690.716
 20
399.268
 11
690.716
 21
374.202
  0
LINE
  8
Layer2
  6
PHANTOM1
 62
7
 10
667.568
 20
363.813
 11
686.186
 21
345.513
  0
LINE
  8
Layer2
  6
CONTINUOUS
 62
7
 10
684.813
 20
356.862
 11
688.873
 21
356.862
  0
LINE
  8
Layer2
  6
DASHED1
 62
7
 10
667.568
 20
375.515
 11
674.544
 21
375.515
  0
LINE
  8
Layer2
  6
DASHED1
 62
7
 10
683.466
 20
375.515
 11
684.566
 21
375.515
  0
LINE
  8
Layer2
  6
CONTINUOUS
 62
7
 10
702.285
 20
376.58
 11
702.873
 21
375.561
  0
LINE
  8
Layer2
  6
CONTINUOUS
 62
7
 10
702.873
 20
375.561
 11
702.873
 21
368.361
  0
LINE
  8
Layer2
  6
CONTINUOUS
 62
7
 10
702.873
 20
368.361
 11
702.285
 21
367.342
  0
LINE
  8
Layer2
  6
CONTINUOUS
 62
7
 10
702.285
 20
367.342
 11
698.873
 21
367.342
  0
LINE
  8
Layer2
  6
CONTINUOUS
 62
7
 10
698.873
 20
374.27
 11
702.285
 21
374.27
  0
LINE
  8
Layer2
  6
CONTINUOUS
 62
7
 10
698.873
 20
369.652
 11
702.285
 21
369.652
  0
LINE
  8
Layer2
  6
CONTINUOUS
 62
7
 10
688.655
 20
374.461
 11
690.873
 21
374.461
  0
LINE
  8
Layer2
  6
CONTINUOUS
 62
7
 10
688.655
 20
369.461
 11
690.873
 21
369.461
  0
LINE
  8
Layer2
  6
CONTINUOUS
 62
7
 10
702.873
 20
374.202
 11
702.873
 21
369.202
  0
LINE
  8
Layer2
  6
CONTINUOUS
 62
7
 10
688.255
 20
374.061
 11
690.873
 21
374.061
  0
LINE
  8
Layer2
  6
CONTINUOUS
 62
7
 10
688.255
 20
369.861
 11
690.873
 21
369.861
  0
ARC
  8
Layer2
  6
CONTINUOUS
 62
7
 10
694.999
 20
371.961
 40
7.643
 50
342.412
 51
17.588
  0
ARC
  8
Layer2
  6
CONTINUOUS
 62
7
 10
700.597
 20
375.425
 40
2.045
 50
325.616
 51
34.384
  0
ARC
  8
Layer2
  6
CONTINUOUS
 62
7
 10
700.597
 20
368.497
 40
2.045
 50
325.616
 51
34.384
  0
LINE
  8
Layer2
  6
CONTINUOUS
 62
7
 10
698.873
 20
376.321
 11
698.873
 21
367.083
  0
LINE
  8
Layer2
  6
CONTINUOUS
 62
7
 10
702.123
 20
353.088
 11
702.711
 21
352.069
  0
LINE
  8
Layer2
  6
CONTINUOUS
 62
7
 10
702.711
 20
352.069
 11
702.711
 21
350.969
  0
LINE
  8
Layer2
  6
CONTINUOUS
 62
7
 10
702.711
 20
344.869
 11
702.123
 21
343.85
  0
LINE
  8
Layer2
  6
CONTINUOUS
 62
7
 10
702.123
 20
343.85
 11
698.873
 21
343.85
  0
LINE
  8
Layer2
  6
CONTINUOUS
 62
7
 10
698.873
 20
350.778
 11
702.123
 21
350.778
  0
LINE
  8
Layer2
  6
CONTINUOUS
 62
7
 10
698.873
 20
346.16
 11
702.123
 21
346.16
  0
LINE
  8
Layer2
  6
CONTINUOUS
 62
7
 10
702.711
 20
351.165
 11
702.711
 21
346.165
  0
LINE
  8
Layer2
  6
CONTINUOUS
 62
7
 10
702.711
 20
350.715
 11
703.161
 21
350.715
  0
LINE
  8
Layer2
  6
CONTINUOUS
 62
7
 10
702.711
 20
346.565
 11
703.161
 21
346.615
  0
LINE
  8
Layer2
  6
CONTINUOUS
 62
7
 10
690.379
 20
350.569
 11
690.873
 21
350.569
  0
LINE
  8
Layer2
  6
CONTINUOUS
 62
7
 10
690.379
 20
346.369
 11
690.873
 21
346.369
  0
ARC
  8
Layer2
  6
CONTINUOUS
 62
7
 10
694.837
 20
348.469
 40
7.643
 50
342.412
 51
17.588
  0
ARC
  8
Layer2
  6
CONTINUOUS
 62
7
 10
700.435
 20
351.933
 40
2.045
 50
325.616
 51
34.384
  0
ARC
  8
Layer2
  6
CONTINUOUS
 62
7
 10
700.435
 20
345.005
 40
2.045
 50
325.616
 51
34.384
  0
LINE
  8
Layer2
  6
CONTINUOUS
 62
7
 10
688.655
 20
374.461
 11
688.655
 21
369.461
  0
LINE
  8
Layer2
  6
CONTINUOUS
 62
7
 10
690.779
 20
350.969
 11
690.779
 21
345.969
  0
LINE
  8
Layer2
  6
CONTINUOUS
 62
7
 10
689.879
 20
350.069
 11
689.879
 21
346.869
  0
LINE
  8
Layer2
  6
CONTINUOUS
 62
7
 10
690.779
 20
350.969
 11
689.879
 21
350.069
  0
LINE
  8
Layer2
  6
CONTINUOUS
 62
7
 10
690.779
 20
345.969
 11
689.879
 21
346.869
  0
LINE
  8
Layer2
  6
CONTINUOUS
 62
7
 10
702.711
 20
350.969
 11
702.711
 21
344.869
  0
LINE
  8
Layer2
  6
CONTINUOUS
 62
7
 10
687.755
 20
373.561
 11
687.755
 21
370.361
  0
LINE
  8
Layer2
  6
CONTINUOUS
 62
7
 10
688.655
 20
374.461
 11
687.755
 21
373.561
  0
LINE
  8
Layer2
  6
CONTINUOUS
 62
7
 10
688.655
 20
369.461
 11
687.755
 21
370.361
  0
LINE
  8
Layer2
  6
CONTINUOUS
 62
7
 10
702.873
 20
373.802
 11
703.273
 21
373.802
  0
LINE
  8
Layer2
  6
CONTINUOUS
 62
7
 10
702.873
 20
369.602
 11
703.273
 21
369.602
  0
LINE
  8
Layer2
  6
CONTINUOUS
 62
7
 10
703.773
 20
373.561
 11
703.773
 21
370.361
  0
LINE
  8
Layer2
  6
CONTINUOUS
 62
7
 10
702.873
 20
374.461
 11
703.773
 21
373.561
  0
LINE
  8
Layer2
  6
CONTINUOUS
 62
7
 10
702.873
 20
369.461
 11
703.773
 21
370.361
  0
LINE
  8
Layer2
  6
CONTINUOUS
 62
7
 10
681.23
 20
332.018
 11
685.963
 21
332.018
  0
LINE
  8
Layer2
  6
CONTINUOUS
 62
7
 10
703.611
 20
350.069
 11
703.611
 21
346.869
  0
LINE
  8
Layer2
  6
CONTINUOUS
 62
7
 10
702.711
 20
350.969
 11
703.611
 21
350.069
  0
LINE
  8
Layer2
  6
CONTINUOUS
 62
7
 10
702.711
 20
346.165
 11
703.611
 21
347.065
  0
LINE
  8
Layer2
  6
PHANTOM1
 62
7
 10
681.274
 20
332.782
 11
681.274
 21
335.282
  0
LINE
  8
Layer2
  6
CENTER1
 62
7
 10
686.988
 20
337.782
 11
633.508
 21
337.782
  0
LINE
  8
Layer2
  6
CONTINUOUS
 62
7
 10
635.745
 20
343.282
 11
635.745
 21
332.234
  0
LINE
  8
Layer2
  6
PHANTOM1
 62
7
 10
681.274
 20
332.782
 11
681.274
 21
337.782
  0
LINE
  8
Layer2
  6
PHANTOM1
 62
7
 10
681.274
 20
342.782
 11
681.274
 21
337.782
  0
LINE
  8
Layer2
  6
CONTINUOUS
 62
7
 10
690.466
 20
399.718
 11
690.716
 21
399.268
  0
LINE
  8
Layer2
  6
CONTINUOUS
 62
7
 10
690.873
 20
330.469
 11
690.873
 21
358.862
  0
ARC
  8
Layer2
  6
CONTINUOUS
 62
7
 10
688.873
 20
358.862
 40
2
 50
270
 51
2.03555e-013
  0
LINE
  8
Layer2
  6
CONTINUOUS
 62
7
 10
689.879
 20
345.789
 11
689.379
 21
345.289
  0
LINE
  8
Layer2
  6
CONTINUOUS
 62
7
 10
698.373
 20
329.969
 11
698.873
 21
330.469
  0
LINE
  8
Layer2
  6
CONTINUOUS
 62
7
 10
698.873
 20
330.469
 11
698.373
 21
329.969
  0
LINE
  8
Layer2
  6
CONTINUOUS
 62
7
 10
690.873
 20
330.469
 11
691.373
 21
329.969
  0
LINE
  8
Layer2
  6
CONTINUOUS
 62
7
 10
690.873
 20
330.469
 11
690.373
 21
329.969
  0
LINE
  8
Layer2
  6
CONTINUOUS
 62
7
 10
698.373
 20
377.461
 11
698.873
 21
376.961
  0
LINE
  8
Layer2
  6
CONTINUOUS
 62
7
 10
691.373
 20
377.461
 11
690.873
 21
376.961
  0
POLYLINE
  8
Layer2
  6
CONTINUOUS
 62
7
 66
1
 10
0
 20
0
 30
0
  0
VERTEX
  8
Layer2
 10
636.734
 20
363.19
  0
VERTEX
  8
Layer2
 10
636.646
 20
362.966
  0
VERTEX
  8
Layer2
 10
636.56
 20
362.743
  0
VERTEX
  8
Layer2
 10
636.477
 20
362.521
  0
VERTEX
  8
Layer2
 10
636.4
 20
362.301
  0
VERTEX
  8
Layer2
 10
636.331
 20
362.084
  0
VERTEX
  8
Layer2
 10
636.27
 20
361.87
  0
VERTEX
  8
Layer2
 10
636.221
 20
361.659
  0
VERTEX
  8
Layer2
 10
636.184
 20
361.453
  0
VERTEX
  8
Layer2
 10
636.162
 20
361.252
  0
VERTEX
  8
Layer2
 10
636.157
 20
361.056
  0
VERTEX
  8
Layer2
 10
636.17
 20
360.867
  0
VERTEX
  8
Layer2
 10
636.203
 20
360.684
  0
VERTEX
  8
Layer2
 10
636.258
 20
360.509
  0
VERTEX
  8
Layer2
 10
636.337
 20
360.342
  0
VERTEX
  8
Layer2
 10
636.441
 20
360.184
  0
VERTEX
  8
Layer2
 10
636.572
 20
360.035
  0
VERTEX
  8
Layer2
 10
636.724
 20
359.893
  0
VERTEX
  8
Layer2
 10
636.887
 20
359.756
  0
VERTEX
  8
Layer2
 10
637.052
 20
359.62
  0
VERTEX
  8
Layer2
 10
637.211
 20
359.484
  0
VERTEX
  8
Layer2
 10
637.355
 20
359.344
  0
VERTEX
  8
Layer2
 10
637.475
 20
359.199
  0
VERTEX
  8
Layer2
 10
637.562
 20
359.045
  0
VERTEX
  8
Layer2
 10
637.611
 20
358.88
  0
VERTEX
  8
Layer2
 10
637.625
 20
358.706
  0
VERTEX
  8
Layer2
 10
637.61
 20
358.524
  0
VERTEX
  8
Layer2
 10
637.569
 20
358.334
  0
VERTEX
  8
Layer2
 10
637.509
 20
358.138
  0
VERTEX
  8
Layer2
 10
637.434
 20
357.937
  0
VERTEX
  8
Layer2
 10
637.349
 20
357.733
  0
VERTEX
  8
Layer2
 10
637.259
 20
357.525
  0
VERTEX
  8
Layer2
 10
637.17
 20
357.317
  0
VERTEX
  8
Layer2
 10
637.085
 20
357.107
  0
VERTEX
  8
Layer2
 10
637.01
 20
356.899
  0
VERTEX
  8
Layer2
 10
636.95
 20
356.692
  0
VERTEX
  8
Layer2
 10
636.904
 20
356.487
  0
VERTEX
  8
Layer2
 10
636.873
 20
356.284
  0
VERTEX
  8
Layer2
 10
636.855
 20
356.083
  0
VERTEX
  8
Layer2
 10
636.85
 20
355.884
  0
VERTEX
  8
Layer2
 10
636.858
 20
355.686
  0
VERTEX
  8
Layer2
 10
636.877
 20
355.49
  0
VERTEX
  8
Layer2
 10
636.908
 20
355.295
  0
VERTEX
  8
Layer2
 10
636.949
 20
355.102
  0
VERTEX
  8
Layer2
 10
637
 20
354.91
  0
VERTEX
  8
Layer2
 10
637.061
 20
354.72
  0
VERTEX
  8
Layer2
 10
637.131
 20
354.531
  0
VERTEX
  8
Layer2
 10
637.208
 20
354.343
  0
VERTEX
  8
Layer2
 10
637.294
 20
354.156
  0
VERTEX
  8
Layer2
 10
637.387
 20
353.971
  0
VERTEX
  8
Layer2
 10
637.486
 20
353.786
  0
VERTEX
  8
Layer2
 10
637.591
 20
353.603
  0
VERTEX
  8
Layer2
 10
637.702
 20
353.42
  0
VERTEX
  8
Layer2
 10
637.817
 20
353.238
  0
VERTEX
  8
Layer2
 10
637.936
 20
353.057
  0
VERTEX
  8
Layer2
 10
638.059
 20
352.877
  0
VERTEX
  8
Layer2
 10
638.185
 20
352.698
  0
VERTEX
  8
Layer2
 10
638.314
 20
352.519
  0
VERTEX
  8
Layer2
 10
638.444
 20
352.34
  0
VERTEX
  8
Layer2
 10
638.575
 20
352.162
  0
VERTEX
  8
Layer2
 10
638.707
 20
351.985
  0
VERTEX
  8
Layer2
 10
638.839
 20
351.807
  0
VERTEX
  8
Layer2
 10
638.971
 20
351.63
  0
VERTEX
  8
Layer2
 10
639.101
 20
351.454
  0
VERTEX
  8
Layer2
 10
639.23
 20
351.277
  0
VERTEX
  8
Layer2
 10
639.356
 20
351.101
  0
VERTEX
  8
Layer2
 10
639.48
 20
350.924
  0
VERTEX
  8
Layer2
 10
639.599
 20
350.747
  0
VERTEX
  8
Layer2
 10
639.715
 20
350.57
  0
VERTEX
  8
Layer2
 10
639.826
 20
350.393
  0
VERTEX
  8
Layer2
 10
639.931
 20
350.215
  0
VERTEX
  8
Layer2
 10
640.031
 20
350.037
  0
VERTEX
  8
Layer2
 10
640.124
 20
349.858
  0
VERTEX
  8
Layer2
 10
640.209
 20
349.679
  0
VERTEX
  8
Layer2
 10
640.287
 20
349.499
  0
VERTEX
  8
Layer2
 10
640.356
 20
349.318
  0
VERTEX
  8
Layer2
 10
640.416
 20
349.136
  0
VERTEX
  8
Layer2
 10
640.467
 20
348.953
  0
VERTEX
  8
Layer2
 10
640.507
 20
348.769
  0
VERTEX
  8
Layer2
 10
640.536
 20
348.584
  0
VERTEX
  8
Layer2
 10
640.554
 20
348.397
  0
VERTEX
  8
Layer2
 10
640.56
 20
348.209
  0
VERTEX
  8
Layer2
 10
640.555
 20
348.02
  0
VERTEX
  8
Layer2
 10
640.54
 20
347.83
  0
VERTEX
  8
Layer2
 10
640.515
 20
347.639
  0
VERTEX
  8
Layer2
 10
640.481
 20
347.446
  0
VERTEX
  8
Layer2
 10
640.439
 20
347.253
  0
VERTEX
  8
Layer2
 10
640.39
 20
347.059
  0
VERTEX
  8
Layer2
 10
640.334
 20
346.864
  0
VERTEX
  8
Layer2
 10
640.272
 20
346.669
  0
VERTEX
  8
Layer2
 10
640.204
 20
346.473
  0
VERTEX
  8
Layer2
 10
640.133
 20
346.276
  0
VERTEX
  8
Layer2
 10
640.057
 20
346.079
  0
VERTEX
  8
Layer2
 10
639.979
 20
345.882
  0
VERTEX
  8
Layer2
 10
639.898
 20
345.684
  0
VERTEX
  8
Layer2
 10
639.816
 20
345.487
  0
VERTEX
  8
Layer2
 10
639.734
 20
345.289
  0
SEQEND
  0
LINE
  8
Layer2
  6
PHANTOM1
 62
7
 10
690.873
 20
389.111
 11
690.873
 21
348.862
  0
LINE
  8
Layer2
  6
PHANTOM1
 62
7
 10
690.216
 20
389.968
 11
668.068
 21
389.968
  0
LINE
  8
Layer2
  6
PHANTOM1
 62
7
 10
668.068
 20
389.768
 11
667.568
 21
389.268
  0
LINE
  8
Layer2
  6
PHANTOM1
 62
7
 10
690.216
 20
389.768
 11
690.873
 21
389.111
  0
LINE
  8
Layer2
  6
CONTINUOUS
 62
7
 10
648.073
 20
371.839
 11
636.785
 21
371.839
  0
TEXT
  8
Layer2
 62
7
 10
729.434
 20
364.868
 72
1
 11
729.434
 21
364.868
 40
3
 41
1
 50
90
  1
70
  0
TEXT
  8
Layer2
 62
7
 10
720.707
 20
359.868
 72
1
 11
720.707
 21
359.868
 40
3
 41
1
 50
90
  1
60
  0
LINE
  8
Layer2
  6
CONTINUOUS
 62
7
 10
692.373
 20
399.768
 11
732.434
 21
399.768
  0
LINE
  8
Layer2
  6
CONTINUOUS
 62
7
 10
696.952
 20
329.969
 11
732.434
 21
329.969
  0
POLYLINE
  8
Layer2
  6
CONTINUOUS
 62
7
 66
1
 10
0
 20
0
 30
0
  0
VERTEX
  8
Layer2
 10
730.434
 20
399.768
  0
VERTEX
  8
Layer2
 10
730.434
 20
329.969
  0
SEQEND
  0
POLYLINE
  8
Layer2
  6
CONTINUOUS
 62
7
 66
1
 10
0
 20
0
 30
0
 70
1
  0
VERTEX
  8
Layer2
 10
729.399
 20
395.904
  0
VERTEX
  8
Layer2
 10
730.434
 20
399.768
  0
VERTEX
  8
Layer2
 10
731.469
 20
395.904
  0
SEQEND
  0
POLYLINE
  8
Layer2
  6
CONTINUOUS
 62
7
 66
1
 10
0
 20
0
 30
0
 70
1
  0
VERTEX
  8
Layer2
 10
731.469
 20
333.832
  0
VERTEX
  8
Layer2
 10
730.434
 20
329.969
  0
VERTEX
  8
Layer2
 10
729.399
 20
333.832
  0
SEQEND
  0
LINE
  8
Layer2
  6
CONTINUOUS
 62
7
 10
690.216
 20
389.768
 11
723.207
 21
389.768
  0
LINE
  8
Layer2
  6
CONTINUOUS
 62
7
 10
696.952
 20
329.969
 11
714.435
 21
329.969
  0
LINE
  8
Layer2
  6
CONTINUOUS
 62
7
 10
667.873
 20
345.289
 11
667.873
 21
343.282
  0
LINE
  8
Layer2
  6
CONTINUOUS
 62
7
 10
667.873
 20
332.234
 11
667.873
 21
329.969
  0
LINE
  8
Layer2
  6
PHANTOM1
 62
7
 10
681.23
 20
332.234
 11
681.23
 21
334.996
  0
LINE
  8
Layer2
  6
CONTINUOUS
 62
7
 10
636.925
 20
332.234
 11
638.498
 21
332.234
  0
LINE
  8
Layer2
  6
CONTINUOUS
 62
7
 10
656.325
 20
343.282
 11
654.752
 21
343.282
  0
LINE
  8
Layer2
  6
CONTINUOUS
 62
7
 10
653.179
 20
343.282
 11
651.606
 21
343.282
  0
LINE
  8
Layer2
  6
CONTINUOUS
 62
7
 10
650.033
 20
343.282
 11
648.46
 21
343.282
  0
LINE
  8
Layer2
  6
CONTINUOUS
 62
7
 10
646.887
 20
343.282
 11
645.314
 21
343.282
  0
LINE
  8
Layer2
  6
CONTINUOUS
 62
7
 10
637.449
 20
343.282
 11
635.876
 21
343.282
  0
LINE
  8
Layer2
  6
PHANTOM1
 62
7
 10
681.23
 20
343.282
 11
681.23
 21
332.234
  0
LINE
  8
Layer2
  6
CONTINUOUS
 62
7
 10
635.876
 20
340.524
 11
637.449
 21
340.524
  0
LINE
  8
Layer2
  6
CONTINUOUS
 62
7
 10
636.925
 20
335.007
 11
638.498
 21
335.007
  0
LINE
  8
Layer2
  6
CONTINUOUS
 62
7
 10
637.449
 20
343.282
 11
637.449
 21
340.524
  0
LINE
  8
Layer2
  6
CONTINUOUS
 62
7
 10
635.876
 20
343.282
 11
635.876
 21
340.524
  0
LINE
  8
Layer2
  6
CONTINUOUS
 62
7
 10
636.925
 20
335.007
 11
636.925
 21
332.234
  0
LINE
  8
Layer2
  6
CONTINUOUS
 62
7
 10
638.498
 20
335.007
 11
638.498
 21
332.234
  0
LINE
  8
Layer2
  6
CONTINUOUS
 62
7
 10
635.876
 20
340.524
 11
636.925
 21
335.007
  0
LINE
  8
Layer2
  6
CONTINUOUS
 62
7
 10
637.449
 20
340.524
 11
638.498
 21
335.007
  0
LINE
  8
Layer2
  6
CONTINUOUS
 62
7
 10
636.401
 20
337.765
 11
636.925
 21
332.234
  0
LINE
  8
Layer2
  6
CONTINUOUS
 62
7
 10
637.58
 20
343.282
 11
637.974
 21
337.765
  0
LINE
  8
Layer2
  6
CONTINUOUS
 62
7
 10
640.071
 20
332.234
 11
641.644
 21
332.234
  0
LINE
  8
Layer2
  6
CONTINUOUS
 62
7
 10
640.595
 20
343.282
 11
639.022
 21
343.282
  0
LINE
  8
Layer2
  6
CONTINUOUS
 62
7
 10
639.022
 20
340.524
 11
640.595
 21
340.524
  0
LINE
  8
Layer2
  6
CONTINUOUS
 62
7
 10
640.071
 20
335.007
 11
641.644
 21
335.007
  0
LINE
  8
Layer2
  6
CONTINUOUS
 62
7
 10
640.595
 20
343.282
 11
640.595
 21
340.524
  0
LINE
  8
Layer2
  6
CONTINUOUS
 62
7
 10
639.022
 20
343.282
 11
639.022
 21
340.524
  0
LINE
  8
Layer2
  6
CONTINUOUS
 62
7
 10
640.071
 20
335.007
 11
640.071
 21
332.234
  0
LINE
  8
Layer2
  6
CONTINUOUS
 62
7
 10
641.644
 20
335.007
 11
641.644
 21
332.234
  0
LINE
  8
Layer2
  6
CONTINUOUS
 62
7
 10
639.022
 20
340.524
 11
640.071
 21
335.007
  0
LINE
  8
Layer2
  6
CONTINUOUS
 62
7
 10
640.595
 20
340.524
 11
641.644
 21
335.007
  0
LINE
  8
Layer2
  6
CONTINUOUS
 62
7
 10
639.547
 20
337.765
 11
640.071
 21
332.234
  0
LINE
  8
Layer2
  6
CONTINUOUS
 62
7
 10
640.726
 20
343.282
 11
641.12
 21
337.765
  0
LINE
  8
Layer2
  6
CONTINUOUS
 62
7
 10
643.217
 20
332.234
 11
644.79
 21
332.234
  0
LINE
  8
Layer2
  6
CONTINUOUS
 62
7
 10
643.741
 20
343.282
 11
642.168
 21
343.282
  0
LINE
  8
Layer2
  6
CONTINUOUS
 62
7
 10
642.168
 20
340.524
 11
643.741
 21
340.524
  0
LINE
  8
Layer2
  6
CONTINUOUS
 62
7
 10
643.217
 20
335.007
 11
644.79
 21
335.007
  0
LINE
  8
Layer2
  6
CONTINUOUS
 62
7
 10
643.741
 20
343.282
 11
643.741
 21
340.524
  0
LINE
  8
Layer2
  6
CONTINUOUS
 62
7
 10
642.168
 20
343.282
 11
642.168
 21
340.524
  0
LINE
  8
Layer2
  6
CONTINUOUS
 62
7
 10
643.217
 20
335.007
 11
643.217
 21
332.234
  0
LINE
  8
Layer2
  6
CONTINUOUS
 62
7
 10
644.79
 20
335.007
 11
644.79
 21
332.234
  0
LINE
  8
Layer2
  6
CONTINUOUS
 62
7
 10
642.168
 20
340.524
 11
643.217
 21
335.007
  0
LINE
  8
Layer2
  6
CONTINUOUS
 62
7
 10
643.741
 20
340.524
 11
644.79
 21
335.007
  0
LINE
  8
Layer2
  6
CONTINUOUS
 62
7
 10
642.693
 20
337.765
 11
643.217
 21
332.234
  0
LINE
  8
Layer2
  6
CONTINUOUS
 62
7
 10
643.872
 20
343.282
 11
644.266
 21
337.765
  0
LINE
  8
Layer2
  6
CONTINUOUS
 62
7
 10
646.363
 20
332.234
 11
647.936
 21
332.234
  0
LINE
  8
Layer2
  6
CONTINUOUS
 62
7
 10
646.887
 20
343.282
 11
645.314
 21
343.282
  0
LINE
  8
Layer2
  6
CONTINUOUS
 62
7
 10
645.314
 20
340.524
 11
646.887
 21
340.524
  0
LINE
  8
Layer2
  6
CONTINUOUS
 62
7
 10
646.363
 20
335.007
 11
647.936
 21
335.007
  0
LINE
  8
Layer2
  6
CONTINUOUS
 62
7
 10
646.887
 20
343.282
 11
646.887
 21
340.524
  0
LINE
  8
Layer2
  6
CONTINUOUS
 62
7
 10
645.314
 20
343.282
 11
645.314
 21
340.524
  0
LINE
  8
Layer2
  6
CONTINUOUS
 62
7
 10
646.363
 20
335.007
 11
646.363
 21
332.234
  0
LINE
  8
Layer2
  6
CONTINUOUS
 62
7
 10
647.936
 20
335.007
 11
647.936
 21
332.234
  0
LINE
  8
Layer2
  6
CONTINUOUS
 62
7
 10
645.314
 20
340.524
 11
646.363
 21
335.007
  0
LINE
  8
Layer2
  6
CONTINUOUS
 62
7
 10
646.887
 20
340.524
 11
647.936
 21
335.007
  0
LINE
  8
Layer2
  6
CONTINUOUS
 62
7
 10
645.839
 20
337.765
 11
646.363
 21
332.234
  0
LINE
  8
Layer2
  6
CONTINUOUS
 62
7
 10
647.018
 20
343.282
 11
647.411
 21
337.765
  0
LINE
  8
Layer2
  6
CONTINUOUS
 62
7
 10
649.509
 20
332.234
 11
651.082
 21
332.234
  0
LINE
  8
Layer2
  6
CONTINUOUS
 62
7
 10
650.033
 20
343.282
 11
648.46
 21
343.282
  0
LINE
  8
Layer2
  6
CONTINUOUS
 62
7
 10
648.46
 20
340.524
 11
650.033
 21
340.524
  0
LINE
  8
Layer2
  6
CONTINUOUS
 62
7
 10
649.509
 20
335.007
 11
651.082
 21
335.007
  0
LINE
  8
Layer2
  6
CONTINUOUS
 62
7
 10
650.033
 20
343.282
 11
650.033
 21
340.524
  0
LINE
  8
Layer2
  6
CONTINUOUS
 62
7
 10
648.46
 20
343.282
 11
648.46
 21
340.524
  0
LINE
  8
Layer2
  6
CONTINUOUS
 62
7
 10
649.509
 20
335.007
 11
649.509
 21
332.234
  0
LINE
  8
Layer2
  6
CONTINUOUS
 62
7
 10
651.082
 20
335.007
 11
651.082
 21
332.234
  0
LINE
  8
Layer2
  6
CONTINUOUS
 62
7
 10
648.46
 20
340.524
 11
649.509
 21
335.007
  0
LINE
  8
Layer2
  6
CONTINUOUS
 62
7
 10
650.033
 20
340.524
 11
651.082
 21
335.007
  0
LINE
  8
Layer2
  6
CONTINUOUS
 62
7
 10
648.984
 20
337.765
 11
649.509
 21
332.234
  0
LINE
  8
Layer2
  6
CONTINUOUS
 62
7
 10
650.164
 20
343.282
 11
650.557
 21
337.765
  0
LINE
  8
Layer2
  6
CONTINUOUS
 62
7
 10
652.655
 20
332.234
 11
654.228
 21
332.234
  0
LINE
  8
Layer2
  6
CONTINUOUS
 62
7
 10
653.179
 20
343.282
 11
651.606
 21
343.282
  0
LINE
  8
Layer2
  6
CONTINUOUS
 62
7
 10
651.606
 20
340.524
 11
653.179
 21
340.524
  0
LINE
  8
Layer2
  6
CONTINUOUS
 62
7
 10
652.655
 20
335.007
 11
654.228
 21
335.007
  0
LINE
  8
Layer2
  6
CONTINUOUS
 62
7
 10
653.179
 20
343.282
 11
653.179
 21
340.524
  0
LINE
  8
Layer2
  6
CONTINUOUS
 62
7
 10
651.606
 20
343.282
 11
651.606
 21
340.524
  0
LINE
  8
Layer2
  6
CONTINUOUS
 62
7
 10
652.655
 20
335.007
 11
652.655
 21
332.234
  0
LINE
  8
Layer2
  6
CONTINUOUS
 62
7
 10
654.228
 20
335.007
 11
654.228
 21
332.234
  0
LINE
  8
Layer2
  6
CONTINUOUS
 62
7
 10
651.606
 20
340.524
 11
652.655
 21
335.007
  0
LINE
  8
Layer2
  6
CONTINUOUS
 62
7
 10
653.179
 20
340.524
 11
654.228
 21
335.007
  0
LINE
  8
Layer2
  6
CONTINUOUS
 62
7
 10
652.13
 20
337.765
 11
652.655
 21
332.234
  0
LINE
  8
Layer2
  6
CONTINUOUS
 62
7
 10
653.31
 20
343.282
 11
653.703
 21
337.765
  0
LINE
  8
Layer2
  6
CONTINUOUS
 62
7
 10
655.801
 20
332.234
 11
657.374
 21
332.234
  0
LINE
  8
Layer2
  6
PHANTOM1
 62
7
 10
681.23
 20
343.282
 11
679.919
 21
343.282
  0
LINE
  8
Layer2
  6
PHANTOM1
 62
7
 10
674.676
 20
332.234
 11
676.249
 21
332.234
  0
LINE
  8
Layer2
  6
PHANTOM1
 62
7
 10
675.201
 20
343.282
 11
673.628
 21
343.282
  0
LINE
  8
Layer2
  6
PHANTOM1
 62
7
 10
673.628
 20
340.524
 11
675.201
 21
340.524
  0
LINE
  8
Layer2
  6
PHANTOM1
 62
7
 10
674.676
 20
335.007
 11
676.249
 21
335.007
  0
LINE
  8
Layer2
  6
PHANTOM1
 62
7
 10
675.201
 20
343.282
 11
675.201
 21
340.524
  0
LINE
  8
Layer2
  6
PHANTOM1
 62
7
 10
673.628
 20
343.282
 11
673.628
 21
340.524
  0
LINE
  8
Layer2
  6
PHANTOM1
 62
7
 10
674.676
 20
335.007
 11
674.676
 21
332.234
  0
LINE
  8
Layer2
  6
PHANTOM1
 62
7
 10
676.249
 20
335.007
 11
676.249
 21
332.234
  0
LINE
  8
Layer2
  6
PHANTOM1
 62
7
 10
673.628
 20
340.524
 11
674.676
 21
335.007
  0
LINE
  8
Layer2
  6
PHANTOM1
 62
7
 10
675.201
 20
340.524
 11
676.249
 21
335.007
  0
LINE
  8
Layer2
  6
PHANTOM1
 62
7
 10
674.152
 20
337.765
 11
674.676
 21
332.234
  0
LINE
  8
Layer2
  6
PHANTOM1
 62
7
 10
675.332
 20
343.282
 11
675.725
 21
337.765
  0
LINE
  8
Layer2
  6
PHANTOM1
 62
7
 10
677.822
 20
332.234
 11
679.395
 21
332.234
  0
LINE
  8
Layer2
  6
PHANTOM1
 62
7
 10
678.346
 20
343.282
 11
676.773
 21
343.282
  0
LINE
  8
Layer2
  6
PHANTOM1
 62
7
 10
676.773
 20
340.524
 11
678.346
 21
340.524
  0
LINE
  8
Layer2
  6
PHANTOM1
 62
7
 10
677.822
 20
335.007
 11
679.395
 21
335.007
  0
LINE
  8
Layer2
  6
PHANTOM1
 62
7
 10
678.346
 20
343.282
 11
678.346
 21
340.524
  0
LINE
  8
Layer2
  6
PHANTOM1
 62
7
 10
676.773
 20
343.282
 11
676.773
 21
340.524
  0
LINE
  8
Layer2
  6
PHANTOM1
 62
7
 10
677.822
 20
335.007
 11
677.822
 21
332.234
  0
LINE
  8
Layer2
  6
PHANTOM1
 62
7
 10
679.395
 20
335.007
 11
679.395
 21
332.234
  0
LINE
  8
Layer2
  6
PHANTOM1
 62
7
 10
676.773
 20
340.524
 11
677.822
 21
335.007
  0
LINE
  8
Layer2
  6
PHANTOM1
 62
7
 10
678.346
 20
340.524
 11
679.395
 21
335.007
  0
LINE
  8
Layer2
  6
PHANTOM1
 62
7
 10
677.298
 20
337.765
 11
677.822
 21
332.234
  0
LINE
  8
Layer2
  6
PHANTOM1
 62
7
 10
678.478
 20
343.282
 11
678.871
 21
337.765
  0
LINE
  8
Layer2
  6
PHANTOM1
 62
7
 10
680.968
 20
332.234
 11
681.23
 21
332.234
  0
LINE
  8
Layer2
  6
PHANTOM1
 62
7
 10
679.919
 20
340.524
 11
681.23
 21
340.52
  0
LINE
  8
Layer2
  6
PHANTOM1
 62
7
 10
680.968
 20
335.007
 11
681.23
 21
334.996
  0
LINE
  8
Layer2
  6
PHANTOM1
 62
7
 10
679.919
 20
343.282
 11
679.919
 21
340.524
  0
LINE
  8
Layer2
  6
PHANTOM1
 62
7
 10
680.968
 20
335.007
 11
680.968
 21
332.234
  0
LINE
  8
Layer2
  6
PHANTOM1
 62
7
 10
679.919
 20
340.524
 11
680.968
 21
335.007
  0
LINE
  8
Layer2
  6
PHANTOM1
 62
7
 10
680.444
 20
337.765
 11
680.968
 21
332.234
  0
LINE
  8
Layer2
  6
CONTINUOUS
 62
7
 10
668.909
 20
343.282
 11
667.336
 21
343.282
  0
LINE
  8
Layer2
  6
CONTINUOUS
 62
7
 10
665.763
 20
343.282
 11
664.19
 21
343.282
  0
LINE
  8
Layer2
  6
CONTINUOUS
 62
7
 10
656.325
 20
343.282
 11
654.752
 21
343.282
  0
LINE
  8
Layer2
  6
CONTINUOUS
 62
7
 10
654.752
 20
340.524
 11
656.325
 21
340.524
  0
LINE
  8
Layer2
  6
CONTINUOUS
 62
7
 10
655.801
 20
335.007
 11
657.374
 21
335.007
  0
LINE
  8
Layer2
  6
CONTINUOUS
 62
7
 10
656.325
 20
343.282
 11
656.325
 21
340.524
  0
LINE
  8
Layer2
  6
CONTINUOUS
 62
7
 10
654.752
 20
343.282
 11
654.752
 21
340.524
  0
LINE
  8
Layer2
  6
CONTINUOUS
 62
7
 10
655.801
 20
335.007
 11
655.801
 21
332.234
  0
LINE
  8
Layer2
  6
CONTINUOUS
 62
7
 10
657.374
 20
335.007
 11
657.374
 21
332.234
  0
LINE
  8
Layer2
  6
CONTINUOUS
 62
7
 10
654.752
 20
340.524
 11
655.801
 21
335.007
  0
LINE
  8
Layer2
  6
CONTINUOUS
 62
7
 10
656.325
 20
340.524
 11
657.374
 21
335.007
  0
LINE
  8
Layer2
  6
CONTINUOUS
 62
7
 10
655.276
 20
337.765
 11
655.801
 21
332.234
  0
LINE
  8
Layer2
  6
CONTINUOUS
 62
7
 10
656.456
 20
343.282
 11
656.849
 21
337.765
  0
LINE
  8
Layer2
  6
CONTINUOUS
 62
7
 10
658.947
 20
332.234
 11
660.52
 21
332.234
  0
LINE
  8
Layer2
  6
CONTINUOUS
 62
7
 10
659.471
 20
343.282
 11
657.898
 21
343.282
  0
LINE
  8
Layer2
  6
CONTINUOUS
 62
7
 10
657.898
 20
340.524
 11
659.471
 21
340.524
  0
LINE
  8
Layer2
  6
CONTINUOUS
 62
7
 10
658.947
 20
335.007
 11
660.52
 21
335.007
  0
LINE
  8
Layer2
  6
CONTINUOUS
 62
7
 10
659.471
 20
343.282
 11
659.471
 21
340.524
  0
LINE
  8
Layer2
  6
CONTINUOUS
 62
7
 10
657.898
 20
343.282
 11
657.898
 21
340.524
  0
LINE
  8
Layer2
  6
CONTINUOUS
 62
7
 10
658.947
 20
335.007
 11
658.947
 21
332.234
  0
LINE
  8
Layer2
  6
CONTINUOUS
 62
7
 10
660.52
 20
335.007
 11
660.52
 21
332.234
  0
LINE
  8
Layer2
  6
CONTINUOUS
 62
7
 10
657.898
 20
340.524
 11
658.947
 21
335.007
  0
LINE
  8
Layer2
  6
CONTINUOUS
 62
7
 10
659.471
 20
340.524
 11
660.52
 21
335.007
  0
LINE
  8
Layer2
  6
CONTINUOUS
 62
7
 10
658.422
 20
337.765
 11
658.947
 21
332.234
  0
LINE
  8
Layer2
  6
CONTINUOUS
 62
7
 10
659.602
 20
343.282
 11
659.995
 21
337.765
  0
LINE
  8
Layer2
  6
CONTINUOUS
 62
7
 10
662.092
 20
332.234
 11
663.665
 21
332.234
  0
LINE
  8
Layer2
  6
CONTINUOUS
 62
7
 10
662.617
 20
343.282
 11
661.044
 21
343.282
  0
LINE
  8
Layer2
  6
CONTINUOUS
 62
7
 10
661.044
 20
340.524
 11
662.617
 21
340.524
  0
LINE
  8
Layer2
  6
CONTINUOUS
 62
7
 10
662.092
 20
335.007
 11
663.665
 21
335.007
  0
LINE
  8
Layer2
  6
CONTINUOUS
 62
7
 10
662.617
 20
343.282
 11
662.617
 21
340.524
  0
LINE
  8
Layer2
  6
CONTINUOUS
 62
7
 10
661.044
 20
343.282
 11
661.044
 21
340.524
  0
LINE
  8
Layer2
  6
CONTINUOUS
 62
7
 10
662.092
 20
335.007
 11
662.092
 21
332.234
  0
LINE
  8
Layer2
  6
CONTINUOUS
 62
7
 10
663.665
 20
335.007
 11
663.665
 21
332.234
  0
LINE
  8
Layer2
  6
CONTINUOUS
 62
7
 10
661.044
 20
340.524
 11
662.092
 21
335.007
  0
LINE
  8
Layer2
  6
CONTINUOUS
 62
7
 10
662.617
 20
340.524
 11
663.665
 21
335.007
  0
LINE
  8
Layer2
  6
CONTINUOUS
 62
7
 10
661.568
 20
337.765
 11
662.092
 21
332.234
  0
LINE
  8
Layer2
  6
CONTINUOUS
 62
7
 10
662.748
 20
343.282
 11
663.141
 21
337.765
  0
LINE
  8
Layer2
  6
CONTINUOUS
 62
7
 10
665.238
 20
332.234
 11
666.811
 21
332.234
  0
LINE
  8
Layer2
  6
CONTINUOUS
 62
7
 10
665.763
 20
343.282
 11
664.19
 21
343.282
  0
LINE
  8
Layer2
  6
CONTINUOUS
 62
7
 10
664.19
 20
340.524
 11
665.763
 21
340.524
  0
LINE
  8
Layer2
  6
CONTINUOUS
 62
7
 10
665.238
 20
335.007
 11
666.811
 21
335.007
  0
LINE
  8
Layer2
  6
CONTINUOUS
 62
7
 10
665.763
 20
343.282
 11
665.763
 21
340.524
  0
LINE
  8
Layer2
  6
CONTINUOUS
 62
7
 10
664.19
 20
343.282
 11
664.19
 21
340.524
  0
LINE
  8
Layer2
  6
CONTINUOUS
 62
7
 10
665.238
 20
335.007
 11
665.238
 21
332.234
  0
LINE
  8
Layer2
  6
CONTINUOUS
 62
7
 10
666.811
 20
335.007
 11
666.811
 21
332.234
  0
LINE
  8
Layer2
  6
CONTINUOUS
 62
7
 10
664.19
 20
340.524
 11
665.238
 21
335.007
  0
LINE
  8
Layer2
  6
CONTINUOUS
 62
7
 10
665.763
 20
340.524
 11
666.811
 21
335.007
  0
LINE
  8
Layer2
  6
CONTINUOUS
 62
7
 10
664.714
 20
337.765
 11
665.238
 21
332.234
  0
LINE
  8
Layer2
  6
CONTINUOUS
 62
7
 10
665.894
 20
343.282
 11
666.287
 21
337.765
  0
LINE
  8
Layer2
  6
CONTINUOUS
 62
7
 10
668.384
 20
332.234
 11
669.957
 21
332.234
  0
LINE
  8
Layer2
  6
CONTINUOUS
 62
7
 10
668.909
 20
343.282
 11
667.336
 21
343.282
  0
LINE
  8
Layer2
  6
CONTINUOUS
 62
7
 10
667.336
 20
340.524
 11
668.909
 21
340.524
  0
LINE
  8
Layer2
  6
CONTINUOUS
 62
7
 10
668.384
 20
335.007
 11
669.957
 21
335.007
  0
LINE
  8
Layer2
  6
CONTINUOUS
 62
7
 10
668.909
 20
343.282
 11
668.909
 21
340.524
  0
LINE
  8
Layer2
  6
CONTINUOUS
 62
7
 10
667.336
 20
343.282
 11
667.336
 21
340.524
  0
LINE
  8
Layer2
  6
CONTINUOUS
 62
7
 10
668.384
 20
335.007
 11
668.384
 21
332.234
  0
LINE
  8
Layer2
  6
CONTINUOUS
 62
7
 10
669.957
 20
335.007
 11
669.957
 21
332.234
  0
LINE
  8
Layer2
  6
CONTINUOUS
 62
7
 10
667.336
 20
340.524
 11
668.384
 21
335.007
  0
LINE
  8
Layer2
  6
CONTINUOUS
 62
7
 10
668.909
 20
340.524
 11
669.957
 21
335.007
  0
LINE
  8
Layer2
  6
CONTINUOUS
 62
7
 10
667.86
 20
337.765
 11
668.384
 21
332.234
  0
LINE
  8
Layer2
  6
CONTINUOUS
 62
7
 10
669.04
 20
343.282
 11
669.433
 21
337.765
  0
LINE
  8
Layer2
  6
CONTINUOUS
 62
7
 10
671.53
 20
332.234
 11
673.103
 21
332.234
  0
LINE
  8
Layer2
  6
CONTINUOUS
 62
7
 10
672.055
 20
343.282
 11
670.482
 21
343.282
  0
LINE
  8
Layer2
  6
CONTINUOUS
 62
7
 10
670.482
 20
340.524
 11
672.055
 21
340.524
  0
LINE
  8
Layer2
  6
CONTINUOUS
 62
7
 10
671.53
 20
335.007
 11
673.103
 21
335.007
  0
LINE
  8
Layer2
  6
CONTINUOUS
 62
7
 10
672.055
 20
343.282
 11
672.055
 21
340.524
  0
LINE
  8
Layer2
  6
CONTINUOUS
 62
7
 10
670.482
 20
343.282
 11
670.482
 21
340.524
  0
LINE
  8
Layer2
  6
CONTINUOUS
 62
7
 10
671.53
 20
335.007
 11
671.53
 21
332.234
  0
LINE
  8
Layer2
  6
CONTINUOUS
 62
7
 10
673.103
 20
335.007
 11
673.103
 21
332.234
  0
LINE
  8
Layer2
  6
CONTINUOUS
 62
7
 10
670.482
 20
340.524
 11
671.53
 21
335.007
  0
LINE
  8
Layer2
  6
CONTINUOUS
 62
7
 10
672.055
 20
340.524
 11
673.103
 21
335.007
  0
LINE
  8
Layer2
  6
CONTINUOUS
 62
7
 10
671.006
 20
337.765
 11
671.53
 21
332.234
  0
LINE
  8
Layer2
  6
CONTINUOUS
 62
7
 10
672.186
 20
343.282
 11
672.579
 21
337.765
  0
LINE
  8
Layer2
  6
CONTINUOUS
 62
7
 10
635.745
 20
332.234
 11
636.532
 21
332.234
  0
LINE
  8
Layer2
  6
CONTINUOUS
 62
7
 10
636.532
 20
334.992
 11
635.745
 21
334.992
  0
LINE
  8
Layer2
  6
CONTINUOUS
 62
7
 10
636.532
 20
332.234
 11
636.532
 21
334.992
  0
LINE
  8
Layer2
  6
CONTINUOUS
 62
7
 10
636.532
 20
334.992
 11
636.008
 21
337.751
  0
LINE
  8
Layer2
  6
CONTINUOUS
 62
7
 10
635.745
 20
332.234
 11
635.745
 21
337.751
  0
LINE
  8
Layer2
  6
CONTINUOUS
 62
7
 10
636.008
 20
337.751
 11
635.745
 21
337.751
  0
POLYLINE
  8
Layer2
  6
CONTINUOUS
 62
7
 66
1
 10
0
 20
0
 30
0
  0
VERTEX
  8
Layer2
 10
681.287
 20
399.768
  0
VERTEX
  8
Layer2
 10
680.953
 20
399.309
  0
VERTEX
  8
Layer2
 10
680.625
 20
398.851
  0
VERTEX
  8
Layer2
 10
680.312
 20
398.395
  0
VERTEX
  8
Layer2
 10
680.019
 20
397.943
  0
VERTEX
  8
Layer2
 10
679.755
 20
397.497
  0
VERTEX
  8
Layer2
 10
679.526
 20
397.057
  0
VERTEX
  8
Layer2
 10
679.338
 20
396.624
  0
VERTEX
  8
Layer2
 10
679.201
 20
396.201
  0
VERTEX
  8
Layer2
 10
679.119
 20
395.787
  0
VERTEX
  8
Layer2
 10
679.101
 20
395.385
  0
VERTEX
  8
Layer2
 10
679.153
 20
394.996
  0
VERTEX
  8
Layer2
 10
679.282
 20
394.621
  0
VERTEX
  8
Layer2
 10
679.488
 20
394.259
  0
VERTEX
  8
Layer2
 10
679.757
 20
393.908
  0
VERTEX
  8
Layer2
 10
680.07
 20
393.562
  0
VERTEX
  8
Layer2
 10
680.41
 20
393.218
  0
VERTEX
  8
Layer2
 10
680.76
 20
392.87
  0
VERTEX
  8
Layer2
 10
681.103
 20
392.516
  0
VERTEX
  8
Layer2
 10
681.421
 20
392.15
  0
VERTEX
  8
Layer2
 10
681.706
 20
391.772
  0
VERTEX
  8
Layer2
 10
681.959
 20
391.38
  0
VERTEX
  8
Layer2
 10
682.183
 20
390.977
  0
VERTEX
  8
Layer2
 10
682.38
 20
390.563
  0
VERTEX
  8
Layer2
 10
682.551
 20
390.138
  0
VERTEX
  8
Layer2
 10
682.698
 20
389.704
  0
VERTEX
  8
Layer2
 10
682.825
 20
389.262
  0
VERTEX
  8
Layer2
 10
682.932
 20
388.812
  0
VERTEX
  8
Layer2
 10
683.023
 20
388.354
  0
VERTEX
  8
Layer2
 10
683.098
 20
387.891
  0
VERTEX
  8
Layer2
 10
683.161
 20
387.422
  0
VERTEX
  8
Layer2
 10
683.212
 20
386.949
  0
VERTEX
  8
Layer2
 10
683.256
 20
386.472
  0
VERTEX
  8
Layer2
 10
683.292
 20
385.992
  0
VERTEX
  8
Layer2
 10
683.324
 20
385.509
  0
VERTEX
  8
Layer2
 10
683.354
 20
385.026
  0
VERTEX
  8
Layer2
 10
683.383
 20
384.541
  0
VERTEX
  8
Layer2
 10
683.414
 20
384.057
  0
VERTEX
  8
Layer2
 10
683.449
 20
383.574
  0
VERTEX
  8
Layer2
 10
683.49
 20
383.093
  0
VERTEX
  8
Layer2
 10
683.537
 20
382.614
  0
VERTEX
  8
Layer2
 10
683.59
 20
382.137
  0
VERTEX
  8
Layer2
 10
683.648
 20
381.662
  0
VERTEX
  8
Layer2
 10
683.71
 20
381.189
  0
VERTEX
  8
Layer2
 10
683.777
 20
380.717
  0
VERTEX
  8
Layer2
 10
683.846
 20
380.247
  0
VERTEX
  8
Layer2
 10
683.917
 20
379.779
  0
VERTEX
  8
Layer2
 10
683.991
 20
379.313
  0
VERTEX
  8
Layer2
 10
684.065
 20
378.847
  0
VERTEX
  8
Layer2
 10
684.139
 20
378.384
  0
VERTEX
  8
Layer2
 10
684.213
 20
377.921
  0
VERTEX
  8
Layer2
 10
684.286
 20
377.46
  0
VERTEX
  8
Layer2
 10
684.357
 20
377
  0
VERTEX
  8
Layer2
 10
684.425
 20
376.54
  0
VERTEX
  8
Layer2
 10
684.491
 20
376.082
  0
VERTEX
  8
Layer2
 10
684.552
 20
375.625
  0
VERTEX
  8
Layer2
 10
684.609
 20
375.168
  0
VERTEX
  8
Layer2
 10
684.66
 20
374.712
  0
VERTEX
  8
Layer2
 10
684.706
 20
374.256
  0
VERTEX
  8
Layer2
 10
684.745
 20
373.801
  0
VERTEX
  8
Layer2
 10
684.776
 20
373.347
  0
VERTEX
  8
Layer2
 10
684.8
 20
372.892
  0
VERTEX
  8
Layer2
 10
684.814
 20
372.438
  0
VERTEX
  8
Layer2
 10
684.82
 20
371.985
  0
VERTEX
  8
Layer2
 10
684.815
 20
371.531
  0
VERTEX
  8
Layer2
 10
684.799
 20
371.077
  0
VERTEX
  8
Layer2
 10
684.772
 20
370.623
  0
VERTEX
  8
Layer2
 10
684.732
 20
370.169
  0
VERTEX
  8
Layer2
 10
684.68
 20
369.714
  0
VERTEX
  8
Layer2
 10
684.615
 20
369.259
  0
VERTEX
  8
Layer2
 10
684.538
 20
368.804
  0
VERTEX
  8
Layer2
 10
684.453
 20
368.349
  0
VERTEX
  8
Layer2
 10
684.363
 20
367.893
  0
VERTEX
  8
Layer2
 10
684.27
 20
367.436
  0
VERTEX
  8
Layer2
 10
684.179
 20
366.98
  0
VERTEX
  8
Layer2
 10
684.091
 20
366.523
  0
VERTEX
  8
Layer2
 10
684.011
 20
366.065
  0
VERTEX
  8
Layer2
 10
683.941
 20
365.607
  0
VERTEX
  8
Layer2
 10
683.883
 20
365.149
  0
VERTEX
  8
Layer2
 10
683.842
 20
364.691
  0
VERTEX
  8
Layer2
 10
683.816
 20
364.232
  0
VERTEX
  8
Layer2
 10
683.806
 20
363.773
  0
VERTEX
  8
Layer2
 10
683.809
 20
363.314
  0
VERTEX
  8
Layer2
 10
683.826
 20
362.854
  0
VERTEX
  8
Layer2
 10
683.855
 20
362.394
  0
VERTEX
  8
Layer2
 10
683.895
 20
361.934
  0
VERTEX
  8
Layer2
 10
683.946
 20
361.473
  0
VERTEX
  8
Layer2
 10
684.005
 20
361.013
  0
VERTEX
  8
Layer2
 10
684.074
 20
360.552
  0
VERTEX
  8
Layer2
 10
684.15
 20
360.091
  0
VERTEX
  8
Layer2
 10
684.232
 20
359.63
  0
VERTEX
  8
Layer2
 10
684.32
 20
359.169
  0
VERTEX
  8
Layer2
 10
684.413
 20
358.708
  0
VERTEX
  8
Layer2
 10
684.51
 20
358.247
  0
VERTEX
  8
Layer2
 10
684.609
 20
357.785
  0
VERTEX
  8
Layer2
 10
684.711
 20
357.324
  0
VERTEX
  8
Layer2
 10
684.813
 20
356.862
  0
SEQEND
  0
LINE
  8
Layer2
  6
CONTINUOUS
 62
7
 10
684.566
 20
375.515
 11
687.684
 21
375.515
  0
LINE
  8
Layer2
  6
CONTINUOUS
 62
7
 10
684.661
 20
374.703
 11
687.684
 21
374.703
  0
LINE
  8
Layer2
  6
CONTINUOUS
 62
7
 10
685.067
 20
375.515
 11
685.067
 21
374.703
  0
LINE
  8
Layer2
  6
CONTINUOUS
 62
7
 10
670.296
 20
375.515
 11
670.296
 21
374.703
  0
LINE
  8
Layer2
  6
CENTER1
 62
7
 10
687.214
 20
350.469
 11
713.871
 21
350.469
  0
LINE
  8
Layer2
  6
CENTER1
 62
7
 10
687.214
 20
370.469
 11
715.263
 21
370.469
  0
LINE
  8
Layer2
  6
CONTINUOUS
 62
7
 10
698.873
 20
365.469
 11
704.473
 21
365.469
  0
LINE
  8
Layer2
  6
CONTINUOUS
 62
7
 10
702.711
 20
345.272
 11
704.473
 21
345.272
  0
LINE
  8
Layer2
  6
CONTINUOUS
 62
7
 10
702.777
 20
375.469
 11
704.473
 21
375.469
  0
LINE
  8
Layer2
  6
CONTINUOUS
 62
7
 10
704.473
 20
365.469
 11
704.473
 21
375.469
  0
LINE
  8
Layer2
  6
CONTINUOUS
 62
7
 10
704.873
 20
365.869
 11
704.873
 21
375.069
  0
LINE
  8
Layer2
  6
CONTINUOUS
 62
7
 10
704.473
 20
365.469
 11
704.873
 21
365.869
  0
LINE
  8
Layer2
  6
CONTINUOUS
 62
7
 10
704.473
 20
375.469
 11
704.873
 21
375.069
  0
LINE
  8
Layer2
  6
CONTINUOUS
 62
7
 10
698.873
 20
375.469
 11
698.873
 21
365.469
  0
LINE
  8
Layer2
  6
CONTINUOUS
 62
7
 10
703.913
 20
374.469
 11
702.873
 21
374.469
  0
LINE
  8
Layer2
  6
CONTINUOUS
 62
7
 10
698.873
 20
355.469
 11
704.473
 21
355.469
  0
LINE
  8
Layer2
  6
CONTINUOUS
 62
7
 10
704.473
 20
345.469
 11
704.473
 21
355.469
  0
LINE
  8
Layer2
  6
CONTINUOUS
 62
7
 10
704.873
 20
345.869
 11
704.873
 21
355.069
  0
LINE
  8
Layer2
  6
CONTINUOUS
 62
7
 10
704.473
 20
345.469
 11
704.873
 21
345.869
  0
LINE
  8
Layer2
  6
CONTINUOUS
 62
7
 10
704.473
 20
355.469
 11
704.873
 21
355.069
  0
LINE
  8
Layer2
  6
CONTINUOUS
 62
7
 10
698.873
 20
355.469
 11
698.873
 21
345.469
  0
LINE
  8
Layer2
  6
CONTINUOUS
 62
7
 10
703.913
 20
354.469
 11
699.433
 21
354.469
  0
LINE
  8
Layer2
  6
CONTINUOUS
 62
7
 10
703.353
 20
353.469
 11
699.993
 21
353.469
  0
TEXT
  8
Layer2
 62
7
 10
712.435
 20
340.219
 72
1
 11
712.435
 21
340.219
 40
6
 41
1
 50
90
  1
 20.5 
  0
LINE
  8
Layer2
  6
CONTINUOUS
 62
7
 10
713.871
 20
350.469
 11
718.435
 21
350.469
  0
LINE
  8
Layer2
  6
CONTINUOUS
 62
7
 10
710.889
 20
329.969
 11
718.435
 21
329.969
  0
POLYLINE
  8
Layer2
  6
CONTINUOUS
 62
7
 66
1
 10
0
 20
0
 30
0
  0
VERTEX
  8
Layer2
 10
714.435
 20
350.469
  0
VERTEX
  8
Layer2
 10
714.435
 20
329.969
  0
SEQEND
  0
POLYLINE
  8
Layer2
  6
CONTINUOUS
 62
7
 66
1
 10
0
 20
0
 30
0
 70
1
  0
VERTEX
  8
Layer2
 10
713.399
 20
346.605
  0
VERTEX
  8
Layer2
 10
714.435
 20
350.469
  0
VERTEX
  8
Layer2
 10
715.47
 20
346.605
  0
SEQEND
  0
POLYLINE
  8
Layer2
  6
CONTINUOUS
 62
7
 66
1
 10
0
 20
0
 30
0
 70
1
  0
VERTEX
  8
Layer2
 10
715.47
 20
333.832
  0
VERTEX
  8
Layer2
 10
714.435
 20
329.969
  0
VERTEX
  8
Layer2
 10
713.399
 20
333.832
  0
SEQEND
  0
TEXT
  8
Layer2
 62
7
 10
711.871
 20
360.469
 72
1
 11
711.871
 21
360.469
 40
6
 41
1
 50
90
  1
 20 
  0
LINE
  8
Layer2
  6
CONTINUOUS
 62
7
 10
714.352
 20
350.469
 11
709.871
 21
350.469
  0
LINE
  8
Layer2
  6
CONTINUOUS
 62
7
 10
713.39
 20
370.469
 11
717.871
 21
370.469
  0
POLYLINE
  8
Layer2
  6
CONTINUOUS
 62
7
 66
1
 10
0
 20
0
 30
0
  0
VERTEX
  8
Layer2
 10
713.871
 20
350.469
  0
VERTEX
  8
Layer2
 10
713.871
 20
370.469
  0
SEQEND
  0
POLYLINE
  8
Layer2
  6
CONTINUOUS
 62
7
 66
1
 10
0
 20
0
 30
0
 70
1
  0
VERTEX
  8
Layer2
 10
714.906
 20
354.332
  0
VERTEX
  8
Layer2
 10
713.871
 20
350.469
  0
VERTEX
  8
Layer2
 10
712.836
 20
354.332
  0
SEQEND
  0
POLYLINE
  8
Layer2
  6
CONTINUOUS
 62
7
 66
1
 10
0
 20
0
 30
0
 70
1
  0
VERTEX
  8
Layer2
 10
712.836
 20
366.605
  0
VERTEX
  8
Layer2
 10
713.871
 20
370.469
  0
VERTEX
  8
Layer2
 10
714.906
 20
366.605
  0
SEQEND
  0
POLYLINE
  8
Layer2
  6
CONTINUOUS
 62
7
 66
1
 10
0
 20
0
 30
0
  0
VERTEX
  8
Layer2
 10
700.579
 20
374.011
  0
VERTEX
  8
Layer2
 10
675.902
 20
410.006
  0
VERTEX
  8
Layer2
 10
675.902
 20
410.006
  0
SEQEND
  0
CIRCLE
  8
Layer2
  6
CONTINUOUS
 62
7
 10
700.579
 20
374.011
 40
1
  0
CIRCLE
  8
Layer2
  6
CONTINUOUS
 62
7
 10
673.503
 20
413.505
 40
4.24264
  0
TEXT
  8
Layer2
 62
7
 10
673.503
 20
413.505
 72
1
 73
2
 11
673.503
 21
413.505
 40
6
 41
1
  1
12
  0
POLYLINE
  8
Layer2
  6
CONTINUOUS
 62
7
 66
1
 10
0
 20
0
 30
0
  0
VERTEX
  8
Layer2
 10
704.873
 20
375.069
  0
VERTEX
  8
Layer2
 10
687.308
 20
411.195
  0
VERTEX
  8
Layer2
 10
687.308
 20
411.195
  0
SEQEND
  0
CIRCLE
  8
Layer2
  6
CONTINUOUS
 62
7
 10
704.873
 20
375.069
 40
1
  0
CIRCLE
  8
Layer2
  6
CONTINUOUS
 62
7
 10
685.841
 20
414.211
 40
3.3541
  0
TEXT
  8
Layer2
 62
7
 10
685.841
 20
414.211
 72
1
 73
2
 11
685.841
 21
414.211
 40
6
 41
1
  1
9
  0
POLYLINE
  8
Layer2
  6
CONTINUOUS
 62
7
 66
1
 10
0
 20
0
 30
0
  0
VERTEX
  8
Layer2
 10
668.39
 20
385.628
  0
VERTEX
  8
Layer2
 10
658.063
 20
403.151
  0
VERTEX
  8
Layer2
 10
658.063
 20
403.151
  0
SEQEND
  0
CIRCLE
  8
Layer2
  6
CONTINUOUS
 62
7
 10
668.39
 20
385.628
 40
1
  0
CIRCLE
  8
Layer2
  6
CONTINUOUS
 62
7
 10
656.36
 20
406.041
 40
3.3541
  0
TEXT
  8
Layer2
 62
7
 10
656.36
 20
406.041
 72
1
 73
2
 11
656.36
 21
406.041
 40
6
 41
1
  1
3
  0
LINE
  8
Layer2
  6
CONTINUOUS
 62
7
 10
668.123
 20
399.718
 11
667.873
 21
399.268
  0
LINE
  8
Layer2
  6
DASHED1
 62
7
 10
683.684
 20
383.36
 11
683.684
 21
372.757
  0
LINE
  8
Layer2
  6
DASHED1
 62
7
 10
674.684
 20
399.968
 11
674.684
 21
372.757
  0
LINE
  8
Layer2
  6
DASHED1
 62
7
 10
683.684
 20
372.757
 11
679.184
 21
370.159
  0
LINE
  8
Layer2
  6
DASHED1
 62
7
 10
674.684
 20
372.757
 11
679.184
 21
370.159
  0
LINE
  8
Layer2
  6
CONTINUOUS
 62
7
 10
721.1
 20
389.768
 11
721.1
 21
329.969
  0
POLYLINE
  8
Layer2
  6
CONTINUOUS
 62
7
 66
1
 10
0
 20
0
 30
0
 70
1
  0
VERTEX
  8
Layer2
 10
720.065
 20
385.904
  0
VERTEX
  8
Layer2
 10
721.1
 20
389.768
  0
VERTEX
  8
Layer2
 10
722.135
 20
385.904
  0
SEQEND
  0
POLYLINE
  8
Layer2
  6
CONTINUOUS
 62
7
 66
1
 10
0
 20
0
 30
0
 70
1
  0
VERTEX
  8
Layer2
 10
722.135
 20
333.832
  0
VERTEX
  8
Layer2
 10
721.1
 20
329.969
  0
VERTEX
  8
Layer2
 10
720.065
 20
333.832
  0
SEQEND
  0
LINE
  8
Layer2
  6
CONTINUOUS
 62
7
 10
619.812
 20
363.969
 11
619.812
 21
366.799
  0
LINE
  8
Layer2
  6
CENTER1
 62
7
 10
623.853
 20
370.222
 11
623.853
 21
356.231
  0
LINE
  8
Layer2
  6
CONTINUOUS
 62
7
 10
619.812
 20
366.799
 11
620.453
 21
367.169
  0
LINE
  8
Layer2
  6
CONTINUOUS
 62
7
 10
627.894
 20
366.799
 11
627.894
 21
363.969
  0
LINE
  8
Layer2
  6
CONTINUOUS
 62
7
 10
621.832
 20
363.969
 11
621.832
 21
366.799
  0
LINE
  8
Layer2
  6
CONTINUOUS
 62
7
 10
625.874
 20
363.969
 11
625.874
 21
366.799
  0
LINE
  8
Layer2
  6
CONTINUOUS
 62
7
 10
622.153
 20
367.169
 11
622.153
 21
367.469
  0
LINE
  8
Layer2
  6
CONTINUOUS
 62
7
 10
625.553
 20
367.169
 11
625.553
 21
367.469
  0
ARC
  8
Layer2
  6
CONTINUOUS
 62
7
 10
623.853
 20
360.424
 40
6.687
 50
72.412
 51
107.588
  0
ARC
  8
Layer2
  6
CONTINUOUS
 62
7
 10
620.822
 20
365.322
 40
1.789
 50
55.616
 51
124.384
  0
ARC
  8
Layer2
  6
CONTINUOUS
 62
7
 10
626.884
 20
365.322
 40
1.789
 50
55.616
 51
124.384
  0
LINE
  8
Layer2
  6
CONTINUOUS
 62
7
 10
622.653
 20
367.969
 11
625.053
 21
367.969
  0
LINE
  8
Layer2
  6
CONTINUOUS
 62
7
 10
621.853
 20
367.169
 11
622.653
 21
367.969
  0
LINE
  8
Layer2
  6
CONTINUOUS
 62
7
 10
625.853
 20
367.169
 11
625.053
 21
367.969
  0
LINE
  8
Layer2
  6
CONTINUOUS
 62
7
 10
627.253
 20
367.169
 11
620.453
 21
367.169
  0
LINE
  8
Layer2
  6
CONTINUOUS
 62
7
 10
625.853
 20
363.812
 11
625.853
 21
359.114
  0
LINE
  8
Layer2
  6
CONTINUOUS
 62
7
 10
621.853
 20
363.812
 11
621.853
 21
359.114
  0
LINE
  8
Layer2
  6
CONTINUOUS
 62
7
 10
625.553
 20
359.114
 11
625.553
 21
363.812
  0
LINE
  8
Layer2
  6
CONTINUOUS
 62
7
 10
622.153
 20
359.114
 11
622.153
 21
363.812
  0
LINE
  8
Layer2
  6
CONTINUOUS
 62
7
 10
625.853
 20
359.314
 11
621.853
 21
359.314
  0
LINE
  8
Layer2
  6
CONTINUOUS
 62
7
 10
622.653
 20
358.514
 11
625.053
 21
358.514
  0
LINE
  8
Layer2
  6
CONTINUOUS
 62
7
 10
621.853
 20
359.314
 11
622.653
 21
358.514
  0
LINE
  8
Layer2
  6
CONTINUOUS
 62
7
 10
625.853
 20
359.314
 11
625.053
 21
358.514
  0
LINE
  8
Layer2
  6
CONTINUOUS
 62
7
 10
609.538
 20
358.969
 11
633.853
 21
358.969
  0
LINE
  8
Layer2
  6
CONTINUOUS
 62
7
 10
628.873
 20
330.469
 11
628.873
 21
345.289
  0
LINE
  8
Layer2
  6
CONTINUOUS
 62
7
 10
628.873
 20
330.469
 11
629.373
 21
329.969
  0
LINE
  8
Layer2
  6
CONTINUOUS
 62
7
 10
618.853
 20
346.469
 11
619.353
 21
345.969
  0
LINE
  8
Layer2
  6
CONTINUOUS
 62
7
 10
619.353
 20
345.969
 11
689.359
 21
345.969
  0
LINE
  8
Layer2
  6
CONTINUOUS
 62
7
 10
619.414
 20
363.969
 11
629.353
 21
363.969
  0
LINE
  8
Layer2
  6
CONTINUOUS
 62
7
 10
619.414
 20
363.969
 11
618.914
 21
363.469
  0
LINE
  8
Layer2
  6
CONTINUOUS
 62
7
 10
618.853
 20
346.568
 11
618.853
 21
363.469
  0
LINE
  8
Layer2
  6
CONTINUOUS
 62
7
 10
618.914
 20
350.969
 11
633.853
 21
350.969
  0
LINE
  8
Layer2
  6
CONTINUOUS
 62
7
 10
630.96
 20
358.969
 11
630.96
 21
350.969
  0
LINE
  8
Layer2
  6
CONTINUOUS
 62
7
 10
633.853
 20
358.969
 11
633.853
 21
350.969
  0
LINE
  8
Layer2
  6
PHANTOM1
 62
7
 10
618.914
 20
363.65
 11
591.704
 21
363.65
  0
LINE
  8
Layer2
  6
PHANTOM1
 62
7
 10
618.914
 20
346.498
 11
591.704
 21
346.498
  0
LINE
  8
Layer2
  6
PHANTOM1
 62
7
 10
591.704
 20
363.65
 11
591.704
 21
346.289
  0
LINE
  8
Layer2
  6
PHANTOM1
 62
7
 10
592.835
 20
358.969
 11
609.538
 21
358.969
  0
LINE
  8
Layer2
  6
PHANTOM1
 62
7
 10
609.538
 20
350.969
 11
593.098
 21
350.969
  0
LINE
  8
Layer2
  6
CONTINUOUS
 62
7
 10
593.853
 20
356.993
 11
593.853
 21
352.952
  0
LINE
  8
Layer2
  6
CONTINUOUS
 62
7
 10
593.853
 20
356.993
 11
603.57
 21
356.993
  0
LINE
  8
Layer2
  6
CONTINUOUS
 62
7
 10
593.853
 20
352.952
 11
603.541
 21
352.952
  0
ARC
  8
Layer2
  6
CONTINUOUS
 62
7
 10
603.57
 20
342.945
 40
10
 50
53.3601
 51
90
  0
LINE
  8
Layer2
  6
CONTINUOUS
 62
7
 10
609.538
 20
358.969
 11
609.538
 21
350.969
  0
LINE
  8
Layer2
  6
PHANTOM1
 62
7
 10
593.853
 20
356.993
 11
583.853
 21
356.993
  0
LINE
  8
Layer2
  6
PHANTOM1
 62
7
 10
583.853
 20
356.993
 11
583.853
 21
352.952
  0
LINE
  8
Layer2
  6
PHANTOM1
 62
7
 10
583.853
 20
352.952
 11
593.853
 21
352.952
  0
LINE
  8
Layer2
  6
CONTINUOUS
 62
7
 10
609.538
 20
350.969
 11
618.914
 21
350.969
  0
LINE
  8
Layer2
  6
CONTINUOUS
 62
7
 10
621.993
 20
358.861
 11
621.993
 21
357.61
  0
LINE
  8
Layer2
  6
CONTINUOUS
 62
7
 10
626.401
 20
358.969
 11
621.993
 21
357.61
  0
LINE
  8
Layer2
  6
CONTINUOUS
 62
7
 10
633.853
 20
358.048
 11
630.96
 21
358.969
  0
LINE
  8
Layer2
  6
CONTINUOUS
 62
7
 10
633.853
 20
352.022
 11
630.96
 21
350.969
  0
LINE
  8
Layer2
  6
CENTER1
 62
7
 10
581.287
 20
354.969
 11
635.343
 21
354.969
  0
ARC
  8
Layer2
  6
CONTINUOUS
 62
7
 10
603.57
 20
366.993
 40
10
 50
270
 51
306.64
  0
LINE
  8
Layer2
  6
CONTINUOUS
 62
7
 10
644.044
 20
384.493
 11
651.183
 21
384.493
  0
LINE
  8
Layer2
  6
CONTINUOUS
 62
7
 10
652.156
 20
386.602
 11
653.454
 21
385.088
  0
LINE
  8
Layer2
  6
CONTINUOUS
 62
7
 10
653.454
 20
384.493
 11
653.454
 21
385.088
  0
ARC
  8
Layer2
  6
CONTINUOUS
 62
7
 10
652.318
 20
384.482
 40
1.13567
 50
179.415
 51
0.584631
  0
LINE
  8
Layer2
  6
CONTINUOUS
 62
7
 10
644.044
 20
386.602
 11
641.846
 21
384.299
  0
LINE
  8
Layer2
  6
CONTINUOUS
 62
7
 10
644.044
 20
384.493
 11
642.747
 21
383.358
  0
ARC
  8
Layer2
  6
CONTINUOUS
 62
7
 10
642.317
 20
383.849
 40
0.652073
 50
136.332
 51
311.186
  0
LINE
  8
Layer2
  6
CENTER1
 62
7
 10
648.019
 20
390.813
 11
648.019
 21
362.261
  0
LINE
  8
Layer2
  6
CONTINUOUS
 62
7
 10
629.373
 20
378.248
 11
665.873
 21
378.248
  0
LINE
  8
Layer2
  6
CENTER1
 62
7
 10
662.873
 20
379.829
 11
662.873
 21
362.308
  0
LINE
  8
Layer2
  6
CONTINUOUS
 62
7
 10
628.873
 20
377.748
 11
628.873
 21
364.469
  0
LINE
  8
Layer2
  6
CENTER1
 62
7
 10
634.873
 20
378.853
 11
634.873
 21
361.556
  0
LINE
  8
Layer2
  6
CONTINUOUS
 62
7
 10
645.248
 20
384.493
 11
645.248
 21
381.648
  0
LINE
  8
Layer2
  6
CONTINUOUS
 62
7
 10
650.633
 20
384.493
 11
650.633
 21
381.648
  0
LINE
  8
Layer2
  6
CONTINUOUS
 62
7
 10
645.982
 20
371.647
 11
649.98
 21
371.647
  0
LINE
  8
Layer2
  6
CONTINUOUS
 62
7
 10
645.248
 20
372.147
 11
650.715
 21
372.147
  0
LINE
  8
Layer2
  6
CONTINUOUS
 62
7
 10
650.715
 20
363.969
 11
650.715
 21
372.147
  0
LINE
  8
Layer2
  6
CONTINUOUS
 62
7
 10
645.248
 20
363.969
 11
645.248
 21
372.147
  0
LINE
  8
Layer2
  6
CONTINUOUS
 62
7
 10
649.98
 20
377.497
 11
649.98
 21
371.647
  0
LINE
  8
Layer2
  6
CONTINUOUS
 62
7
 10
645.982
 20
377.497
 11
645.982
 21
371.647
  0
LINE
  8
Layer2
  6
CONTINUOUS
 62
7
 10
645.982
 20
377.497
 11
649.98
 21
377.497
  0
LINE
  8
Layer2
  6
CONTINUOUS
 62
7
 10
650.715
 20
377.997
 11
649.98
 21
377.497
  0
LINE
  8
Layer2
  6
CONTINUOUS
 62
7
 10
645.982
 20
377.497
 11
645.248
 21
377.997
  0
LINE
  8
Layer2
  6
CONTINUOUS
 62
7
 10
645.982
 20
371.647
 11
645.248
 21
372.147
  0
LINE
  8
Layer2
  6
CONTINUOUS
 62
7
 10
649.98
 20
371.647
 11
650.715
 21
372.147
  0
LINE
  8
Layer2
  6
CONTINUOUS
 62
7
 10
645.248
 20
372.147
 11
645.248
 21
377.997
  0
LINE
  8
Layer2
  6
CONTINUOUS
 62
7
 10
650.715
 20
372.147
 11
650.715
 21
377.997
  0
LINE
  8
Layer2
  6
CONTINUOUS
 62
7
 10
645.982
 20
371.647
 11
645.982
 21
363.969
  0
LINE
  8
Layer2
  6
CONTINUOUS
 62
7
 10
649.98
 20
371.647
 11
649.98
 21
363.969
  0
LINE
  8
Layer2
  6
CONTINUOUS
 62
7
 10
652.638
 20
378.248
 11
652.638
 21
381.06
  0
LINE
  8
Layer2
  6
CONTINUOUS
 62
7
 10
652.638
 20
381.06
 11
651.619
 21
381.648
  0
LINE
  8
Layer2
  6
CONTINUOUS
 62
7
 10
651.619
 20
381.648
 11
644.419
 21
381.648
  0
LINE
  8
Layer2
  6
CONTINUOUS
 62
7
 10
644.419
 20
381.648
 11
643.4
 21
381.06
  0
LINE
  8
Layer2
  6
CONTINUOUS
 62
7
 10
643.4
 20
381.06
 11
643.4
 21
378.248
  0
LINE
  8
Layer2
  6
CONTINUOUS
 62
7
 10
650.328
 20
378.248
 11
650.328
 21
381.06
  0
LINE
  8
Layer2
  6
CONTINUOUS
 62
7
 10
645.71
 20
378.248
 11
645.71
 21
381.06
  0
ARC
  8
Layer2
  6
CONTINUOUS
 62
7
 10
648.019
 20
373.774
 40
7.643
 50
72.412
 51
107.588
  0
ARC
  8
Layer2
  6
CONTINUOUS
 62
7
 10
651.483
 20
379.372
 40
2.045
 50
55.616
 51
124.384
  0
ARC
  8
Layer2
  6
CONTINUOUS
 62
7
 10
644.555
 20
379.372
 40
2.045
 50
55.616
 51
124.384
  0
CIRCLE
  8
Layer2
  6
CONTINUOUS
 62
7
 10
652.318
 20
384.482
 40
0.497482
  0
LINE
  8
Layer2
  6
CONTINUOUS
 62
7
 10
666.373
 20
364.469
 11
666.373
 21
377.748
  0
LINE
  8
Layer2
  6
CONTINUOUS
 62
7
 10
665.873
 20
378.248
 11
666.373
 21
377.748
  0
LINE
  8
Layer2
  6
CONTINUOUS
 62
7
 10
666.373
 20
364.469
 11
665.873
 21
363.969
  0
LINE
  8
Layer2
  6
CONTINUOUS
 62
7
 10
628.873
 20
364.469
 11
629.373
 21
363.969
  0
LINE
  8
Layer2
  6
CONTINUOUS
 62
7
 10
628.873
 20
377.748
 11
629.373
 21
378.248
  0
LINE
  8
Layer2
  6
CONTINUOUS
 62
7
 10
629.373
 20
363.969
 11
676.952
 21
363.969
  0
TEXT
  8
Layer2
 62
7
 10
614.902
 20
389.322
 72
1
 11
614.902
 21
389.322
 40
3
 41
1
  1
40
  0
TEXT
  8
Layer2
 62
7
 10
607.899
 20
382.571
 72
1
 11
607.899
 21
382.571
 40
3
 41
1
  1
25
  0
LINE
  8
Layer2
  6
CONTINUOUS
 62
7
 10
593.853
 20
356.993
 11
593.853
 21
390.322
  0
LINE
  8
Layer2
  6
CONTINUOUS
 62
7
 10
633.853
 20
359.558
 11
633.853
 21
389.918
  0
TEXT
  8
Layer2
 62
7
 10
623.882
 20
381.881
 72
1
 11
623.882
 21
381.881
 40
4
 41
1
  1
10
  0
LINE
  8
Layer2
  6
CONTINUOUS
 62
7
 10
628.853
 20
378.084
 11
628.853
 21
385.881
  0
LINE
  8
Layer2
  6
CONTINUOUS
 62
7
 10
618.853
 20
364.056
 11
618.853
 21
385.881
  0
POLYLINE
  8
Layer2
  6
CONTINUOUS
 62
7
 66
1
 10
0
 20
0
 30
0
  0
VERTEX
  8
Layer2
 10
636.853
 20
381.881
  0
VERTEX
  8
Layer2
 10
628.853
 20
381.881
  0
SEQEND
  0
POLYLINE
  8
Layer2
  6
CONTINUOUS
 62
7
 66
1
 10
0
 20
0
 30
0
 70
1
  0
VERTEX
  8
Layer2
 10
632.717
 20
380.845
  0
VERTEX
  8
Layer2
 10
628.853
 20
381.881
  0
VERTEX
  8
Layer2
 10
632.717
 20
382.916
  0
SEQEND
  0
POLYLINE
  8
Layer2
  6
CONTINUOUS
 62
7
 66
1
 10
0
 20
0
 30
0
  0
VERTEX
  8
Layer2
 10
593.853
 20
381.881
  0
VERTEX
  8
Layer2
 10
618.853
 20
381.881
  0
SEQEND
  0
POLYLINE
  8
Layer2
  6
CONTINUOUS
 62
7
 66
1
 10
0
 20
0
 30
0
 70
1
  0
VERTEX
  8
Layer2
 10
597.717
 20
380.846
  0
VERTEX
  8
Layer2
 10
593.853
 20
381.881
  0
VERTEX
  8
Layer2
 10
597.717
 20
382.916
  0
SEQEND
  0
POLYLINE
  8
Layer2
  6
CONTINUOUS
 62
7
 66
1
 10
0
 20
0
 30
0
 70
1
  0
VERTEX
  8
Layer2
 10
614.99
 20
382.916
  0
VERTEX
  8
Layer2
 10
618.853
 20
381.881
  0
VERTEX
  8
Layer2
 10
614.99
 20
380.846
  0
SEQEND
  0
LINE
  8
Layer2
  6
CONTINUOUS
 62
7
 10
628.853
 20
381.881
 11
618.853
 21
381.881
  0
LINE
  8
Layer2
  6
CONTINUOUS
 62
7
 10
633.855
 20
388.533
 11
593.853
 21
388.533
  0
POLYLINE
  8
Layer2
  6
CONTINUOUS
 62
7
 66
1
 10
0
 20
0
 30
0
 70
1
  0
VERTEX
  8
Layer2
 10
629.991
 20
389.569
  0
VERTEX
  8
Layer2
 10
633.855
 20
388.533
  0
VERTEX
  8
Layer2
 10
629.991
 20
387.498
  0
SEQEND
  0
POLYLINE
  8
Layer2
  6
CONTINUOUS
 62
7
 66
1
 10
0
 20
0
 30
0
 70
1
  0
VERTEX
  8
Layer2
 10
597.717
 20
387.498
  0
VERTEX
  8
Layer2
 10
593.853
 20
388.533
  0
VERTEX
  8
Layer2
 10
597.717
 20
389.569
  0
SEQEND
  0
TEXT
  8
Layer2
 62
7
 10
558.014
 20
381.006
 73
3
 11
558.014
 21
381.006
 40
4
 41
1
 50
2e-013
  1
(ウレタン）
  0
POLYLINE
  8
Layer2
  6
CONTINUOUS
 62
7
 66
1
 10
0
 20
0
 30
0
  0
VERTEX
  8
Layer2
 10
595.296
 20
360.713
  0
VERTEX
  8
Layer2
 10
582.082
 20
382.422
  0
VERTEX
  8
Layer2
 10
582.082
 20
382.422
  0
SEQEND
  0
CIRCLE
  8
Layer2
  6
CONTINUOUS
 62
7
 10
595.296
 20
360.713
 40
1
  0
LINE
  8
Layer2
  6
CONTINUOUS
 62
7
 10
582.082
 20
382.422
 11
558.082
 21
382.422
  0
TEXT
  8
Layer2
 62
7
 10
558.082
 20
383.422
 40
4
 41
1
  1
ストリッパー
  0
CIRCLE
  8
Layer2
  6
CONTINUOUS
 62
7
 10
632.232
 20
338.63
 40
1
  0
CIRCLE
  8
Layer2
  6
CONTINUOUS
 62
7
 10
647.393
 20
350.137
 40
1
  0
POLYLINE
  8
Layer2
  6
CONTINUOUS
 62
7
 66
1
 10
0
 20
0
 30
0
  0
VERTEX
  8
Layer2
 10
647.393
 20
350.137
  0
VERTEX
  8
Layer2
 10
628.243
 20
315.982
  0
VERTEX
  8
Layer2
 10
628.243
 20
315.982
  0
SEQEND
  0
POLYLINE
  8
Layer2
  6
CONTINUOUS
 62
7
 66
1
 10
0
 20
0
 30
0
  0
VERTEX
  8
Layer2
 10
632.232
 20
338.63
  0
VERTEX
  8
Layer2
 10
618.771
 20
315.791
  0
VERTEX
  8
Layer2
 10
618.771
 20
315.791
  0
SEQEND
  0
TEXT
  8
Layer2
 62
7
 10
617.068
 20
312.901
 72
1
 73
2
 11
617.068
 21
312.901
 40
6
 41
1
  1
1
  0
CIRCLE
  8
Layer2
  6
CONTINUOUS
 62
7
 10
617.068
 20
312.901
 40
3.3541
  0
CIRCLE
  8
Layer2
  6
CONTINUOUS
 62
7
 10
626.602
 20
313.056
 40
3.3541
  0
TEXT
  8
Layer2
 62
7
 10
636.581
 20
312.995
 72
1
 73
2
 11
636.581
 21
312.995
 40
6
 41
1
  1
7
  0
POLYLINE
  8
Layer2
  6
CONTINUOUS
 62
7
 66
1
 10
0
 20
0
 30
0
  0
VERTEX
  8
Layer2
 10
651.746
 20
338.724
  0
VERTEX
  8
Layer2
 10
638.285
 20
315.885
  0
VERTEX
  8
Layer2
 10
638.285
 20
315.885
  0
SEQEND
  0
CIRCLE
  8
Layer2
  6
CONTINUOUS
 62
7
 10
651.746
 20
338.724
 40
1
  0
CIRCLE
  8
Layer2
  6
CONTINUOUS
 62
7
 10
693.024
 20
338.919
 40
1
  0
POLYLINE
  8
Layer2
  6
CONTINUOUS
 62
7
 66
1
 10
0
 20
0
 30
0
  0
VERTEX
  8
Layer2
 10
693.024
 20
338.919
  0
VERTEX
  8
Layer2
 10
679.563
 20
316.079
  0
VERTEX
  8
Layer2
 10
679.563
 20
316.079
  0
SEQEND
  0
CIRCLE
  8
Layer2
  6
CONTINUOUS
 62
7
 10
677.859
 20
313.19
 40
3.3541
  0
TEXT
  8
Layer2
 62
7
 10
677.859
 20
313.19
 72
1
 73
2
 11
677.859
 21
313.19
 40
6
 41
1
  1
5
  0
CIRCLE
  8
Layer2
  6
CONTINUOUS
 62
7
 10
636.581
 20
312.995
 40
3.3541
  0
TEXT
  8
Layer2
 62
7
 10
626.602
 20
313.056
 72
1
 73
2
 11
626.602
 21
313.056
 40
6
 41
1
  1
2
  0
CIRCLE
  8
Layer2
  6
CONTINUOUS
 62
7
 10
612.023
 20
357.241
 40
1
  0
CIRCLE
  8
Layer2
  6
CONTINUOUS
 62
7
 10
623.752
 20
360.068
 40
1
  0
POLYLINE
  8
Layer2
  6
CONTINUOUS
 62
7
 66
1
 10
0
 20
0
 30
0
  0
VERTEX
  8
Layer2
 10
623.752
 20
360.068
  0
VERTEX
  8
Layer2
 10
613.293
 20
340.689
  0
VERTEX
  8
Layer2
 10
613.293
 20
340.689
  0
SEQEND
  0
POLYLINE
  8
Layer2
  6
CONTINUOUS
 62
7
 66
1
 10
0
 20
0
 30
0
  0
VERTEX
  8
Layer2
 10
612.023
 20
357.241
  0
VERTEX
  8
Layer2
 10
602.392
 20
340.899
  0
VERTEX
  8
Layer2
 10
602.392
 20
340.899
  0
SEQEND
  0
CIRCLE
  8
Layer2
  6
CONTINUOUS
 62
7
 10
611.278
 20
336.955
 40
4.24264
  0
TEXT
  8
Layer2
 62
7
 10
611.278
 20
336.955
 72
1
 73
2
 11
611.278
 21
336.955
 40
6
 41
1
  1
11
  0
CIRCLE
  8
Layer2
  6
CONTINUOUS
 62
7
 10
600.237
 20
337.244
 40
4.24264
  0
TEXT
  8
Layer2
 62
7
 10
600.237
 20
337.244
 72
1
 73
2
 11
600.237
 21
337.244
 40
6
 41
1
  1
10
  0
LINE
  8
Layer2
  6
CONTINUOUS
 62
7
 10
593.853
 20
352.952
 11
593.853
 21
320.875
  0
LINE
  8
Layer2
  6
CONTINUOUS
 62
7
 10
583.853
 20
352.952
 11
583.853
 21
320.875
  0
POLYLINE
  8
Layer2
  6
CONTINUOUS
 62
7
 66
1
 10
0
 20
0
 30
0
  0
VERTEX
  8
Layer2
 10
593.853
 20
321.77
  0
VERTEX
  8
Layer2
 10
583.853
 20
321.77
  0
SEQEND
  0
POLYLINE
  8
Layer2
  6
CONTINUOUS
 62
7
 66
1
 10
0
 20
0
 30
0
 70
1
  0
VERTEX
  8
Layer2
 10
589.99
 20
322.805
  0
VERTEX
  8
Layer2
 10
593.853
 20
321.77
  0
VERTEX
  8
Layer2
 10
589.99
 20
320.735
  0
SEQEND
  0
POLYLINE
  8
Layer2
  6
CONTINUOUS
 62
7
 66
1
 10
0
 20
0
 30
0
 70
1
  0
VERTEX
  8
Layer2
 10
587.717
 20
320.735
  0
VERTEX
  8
Layer2
 10
583.853
 20
321.77
  0
VERTEX
  8
Layer2
 10
587.717
 20
322.805
  0
SEQEND
  0
TEXT
  8
Layer2
 62
7
 10
577.042
 20
319.745
 73
3
 11
577.042
 21
319.745
 40
4.14816
 41
1
 50
2.03555e-013
  1
10ストローク
  0
CIRCLE
  8
Layer2
  6
CONTINUOUS
 62
7
 10
647.392
 20
387.309
 40
1
  0
POLYLINE
  8
Layer2
  6
CONTINUOUS
 62
7
 66
1
 10
0
 20
0
 30
0
  0
VERTEX
  8
Layer2
 10
647.392
 20
387.309
  0
VERTEX
  8
Layer2
 10
637.064
 20
404.832
  0
VERTEX
  8
Layer2
 10
637.064
 20
404.832
  0
SEQEND
  0
CIRCLE
  8
Layer2
  6
CONTINUOUS
 62
7
 10
635.361
 20
407.721
 40
3.3541
  0
TEXT
  8
Layer2
 62
7
 10
635.361
 20
407.721
 72
1
 73
2
 11
635.361
 21
407.721
 40
6
 41
1
  1
8
  0
CIRCLE
  8
Layer2
  6
CONTINUOUS
 62
7
 10
700.419
 20
348.128
 40
1
  0
POLYLINE
  8
Layer2
  6
CONTINUOUS
 62
7
 66
1
 10
0
 20
0
 30
0
  0
VERTEX
  8
Layer2
 10
700.419
 20
348.128
  0
VERTEX
  8
Layer2
 10
717.93
 20
315.882
  0
VERTEX
  8
Layer2
 10
717.93
 20
315.882
  0
SEQEND
  0
TEXT
  8
Layer2
 62
7
 10
719.53
 20
312.934
 72
1
 73
2
 11
719.53
 21
312.934
 40
6
 41
1
  1
4
  0
CIRCLE
  8
Layer2
  6
CONTINUOUS
 62
7
 10
719.53
 20
312.934
 40
3.3541
  0
ENDSEC
  0
EOF
