  0
SECTION
  2
HEADER
  9
$EXTMIN
 10
0
 20
0
  9
$EXTMAX
 10
841
 20
594
  9
$LTSCALE
 40
1
  9
$LIMMIN
 10
0
 20
0
  9
$LIMMAX
 10
841
 20
594
  9
$DIMSCALE
 40
1
  0
ENDSEC
  0
SECTION
  2
TABLES
  0
TABLE
  2
LTYPE
 70
9
  0
LTYPE
  2
CONTINUOUS
 70
64
  3
----------
 72
65
 73
0
 40
0
  0
LTYPE
  2
DASHED1
 70
64
  3
--  --  --  --  --  --  --  --  
 72
65
 73
2
 40
2.5
 49
1.25
 49
-1.25
  0
LTYPE
  2
DASHED2
 70
64
  3
----    ----    ----    ----    
 72
65
 73
2
 40
5
 49
2.5
 49
-2.5
  0
LTYPE
  2
DASHED3
 70
64
  3
------  ------  ------  ------  
 72
65
 73
2
 40
5
 49
3.75
 49
-1.25
  0
LTYPE
  2
CENTER1
 70
64
  3
----- - ----- - ----- - ----- - 
 72
65
 73
4
 40
7.5
 49
3.75
 49
-1.25
 49
1.25
 49
-1.25
  0
LTYPE
  2
CENTER2
 70
64
  3
----------  --  ----------  --  
 72
65
 73
4
 40
13.75
 49
6.25
 49
-2.5
 49
2.5
 49
-2.5
  0
LTYPE
  2
PHANTOM1
 70
64
  3
--- - - --- - - --- - - --- - - 
 72
65
 73
6
 40
9.5
 49
3.25
 49
-1.25
 49
1.25
 49
-1.25
 49
1.25
 49
-1.25
  0
LTYPE
  2
PHANTOM2
 70
64
  3
--------  -  -  --------  -  -  
 72
65
 73
6
 40
18
 49
8
 49
-2.5
 49
1.25
 49
-2.5
 49
1.25
 49
-2.5
  0
LTYPE
  2
DOT
 70
64
  3
-   -   -   -   -   -   -   -   
 72
65
 73
2
 40
2.5
 49
0.625
 49
-1.875
  0
LTYPE
  2
HOJO
 70
64
  3
-   -   -   -   -   -   -   -   
 72
65
 73
2
 40
2.5
 49
0.625
 49
-1.875
  0
ENDTAB
  0
TABLE
  2
STYLE
 70
2
  0
STYLE
  2
STANDARD
 70
64
 40
0
 41
1
 42
0
 50
0
 71
0
  3
TXT
  4
BIGFONT
  0
STYLE
  2
TATEGAKI
 70
68
 40
0
 41
1
 42
0
 50
0
 71
0
  3
TXT
  4
EXTFONT
  0
ENDTAB
  0
TABLE
  2
LAYER
 70
1
  0
LAYER
  2
Layer1
 70
64
 62
7
  6
CONTINUOUS
  0
ENDTAB
  0
ENDSEC
  0
SECTION
  2
ENTITIES
  0
LINE
  8
Layer1
  6
CONTINUOUS
 62
7
 10
305.166
 20
106.126
 11
153.166
 21
106.126
  0
LINE
  8
Layer1
  6
CONTINUOUS
 62
7
 10
430.83
 20
106.126
 11
528.827
 21
106.126
  0
LINE
  8
Layer1
  6
CENTER2
 62
7
 10
229.166
 20
226.374
 11
229.166
 21
101.058
  0
LINE
  8
Layer1
  6
CONTINUOUS
 62
7
 10
153.166
 20
122.126
 11
168.166
 21
122.126
  0
LINE
  8
Layer1
  6
CONTINUOUS
 62
7
 10
305.166
 20
122.126
 11
290.166
 21
122.126
  0
LINE
  8
Layer1
  6
CENTER2
 62
7
 10
402.701
 20
391.854
 11
554.254
 21
391.854
  0
CIRCLE
  8
Layer1
  6
CONTINUOUS
 62
7
 10
519.827
 20
324.354
 40
7
  0
CIRCLE
  8
Layer1
  6
CONTINUOUS
 62
7
 10
519.827
 20
324.354
 40
4.5
  0
LINE
  8
Layer1
  6
CONTINUOUS
 62
7
 10
268.166
 20
164.125
 11
197.666
 21
164.125
  0
LINE
  8
Layer1
  6
CENTER1
 62
7
 10
172.504
 20
146.625
 11
281.55
 21
146.625
  0
LINE
  8
Layer1
  6
DASHED1
 62
7
 10
444.368
 20
160.625
 11
444.368
 21
154.625
  0
LINE
  8
Layer1
  6
CENTER1
 62
7
 10
522.827
 20
117.467
 11
522.827
 21
132.507
  0
LINE
  8
Layer1
  6
CENTER1
 62
7
 10
519.827
 20
333.15
 11
519.827
 21
312.051
  0
LINE
  8
Layer1
  6
CENTER1
 62
7
 10
453.483
 20
123.637
 11
492.829
 21
123.637
  0
LINE
  8
Layer1
  6
PHANTOM1
 62
7
 10
512.792
 20
109.615
 11
512.792
 21
113.621
  0
LINE
  8
Layer1
  6
CONTINUOUS
 62
7
 10
512.792
 20
125.637
 11
512.792
 21
109.615
  0
LINE
  8
Layer1
  6
DASHED1
 62
7
 10
500.068
 20
109.615
 11
502.13
 21
109.615
  0
LINE
  8
Layer1
  6
CONTINUOUS
 62
7
 10
512.792
 20
125.637
 11
511.072
 21
125.637
  0
LINE
  8
Layer1
  6
DASHED1
 62
7
 10
498.692
 20
121.637
 11
500.755
 21
121.637
  0
LINE
  8
Layer1
  6
DASHED1
 62
7
 10
500.068
 20
113.635
 11
502.13
 21
113.635
  0
LINE
  8
Layer1
  6
DASHED1
 62
7
 10
500.755
 20
125.637
 11
500.755
 21
121.637
  0
LINE
  8
Layer1
  6
DASHED1
 62
7
 10
498.692
 20
125.637
 11
498.692
 21
121.637
  0
LINE
  8
Layer1
  6
DASHED1
 62
7
 10
500.068
 20
113.635
 11
500.068
 21
109.615
  0
LINE
  8
Layer1
  6
DASHED1
 62
7
 10
502.13
 20
113.635
 11
502.13
 21
109.615
  0
LINE
  8
Layer1
  6
DASHED1
 62
7
 10
498.692
 20
121.637
 11
500.068
 21
113.635
  0
LINE
  8
Layer1
  6
DASHED1
 62
7
 10
500.755
 20
121.637
 11
502.13
 21
113.635
  0
LINE
  8
Layer1
  6
DASHED1
 62
7
 10
499.38
 20
117.635
 11
500.068
 21
109.615
  0
LINE
  8
Layer1
  6
DASHED1
 62
7
 10
500.928
 20
125.637
 11
501.443
 21
117.635
  0
LINE
  8
Layer1
  6
CONTINUOUS
 62
7
 10
504.195
 20
109.615
 11
506.257
 21
109.615
  0
LINE
  8
Layer1
  6
CONTINUOUS
 62
7
 10
504.882
 20
125.637
 11
502.818
 21
125.637
  0
LINE
  8
Layer1
  6
CONTINUOUS
 62
7
 10
502.818
 20
121.637
 11
504.882
 21
121.637
  0
LINE
  8
Layer1
  6
CONTINUOUS
 62
7
 10
504.195
 20
113.635
 11
506.257
 21
113.635
  0
LINE
  8
Layer1
  6
CONTINUOUS
 62
7
 10
504.882
 20
125.637
 11
504.882
 21
121.637
  0
LINE
  8
Layer1
  6
CONTINUOUS
 62
7
 10
502.818
 20
125.637
 11
502.818
 21
121.637
  0
LINE
  8
Layer1
  6
CONTINUOUS
 62
7
 10
504.195
 20
113.635
 11
504.195
 21
109.615
  0
LINE
  8
Layer1
  6
CONTINUOUS
 62
7
 10
506.257
 20
113.635
 11
506.257
 21
109.615
  0
LINE
  8
Layer1
  6
CONTINUOUS
 62
7
 10
502.818
 20
121.637
 11
504.195
 21
113.635
  0
LINE
  8
Layer1
  6
CONTINUOUS
 62
7
 10
504.882
 20
121.637
 11
506.257
 21
113.635
  0
LINE
  8
Layer1
  6
CONTINUOUS
 62
7
 10
503.507
 20
117.635
 11
504.195
 21
109.615
  0
LINE
  8
Layer1
  6
CONTINUOUS
 62
7
 10
505.055
 20
125.637
 11
505.57
 21
117.635
  0
LINE
  8
Layer1
  6
CONTINUOUS
 62
7
 10
508.322
 20
109.615
 11
510.385
 21
109.615
  0
LINE
  8
Layer1
  6
CONTINUOUS
 62
7
 10
509.009
 20
125.637
 11
506.945
 21
125.637
  0
LINE
  8
Layer1
  6
CONTINUOUS
 62
7
 10
506.945
 20
121.637
 11
509.009
 21
121.637
  0
LINE
  8
Layer1
  6
CONTINUOUS
 62
7
 10
508.322
 20
113.635
 11
510.385
 21
113.635
  0
LINE
  8
Layer1
  6
CONTINUOUS
 62
7
 10
509.009
 20
125.637
 11
509.009
 21
121.637
  0
LINE
  8
Layer1
  6
CONTINUOUS
 62
7
 10
506.945
 20
125.637
 11
506.945
 21
121.637
  0
LINE
  8
Layer1
  6
CONTINUOUS
 62
7
 10
508.322
 20
113.635
 11
508.322
 21
109.615
  0
LINE
  8
Layer1
  6
CONTINUOUS
 62
7
 10
510.385
 20
113.635
 11
510.385
 21
109.615
  0
LINE
  8
Layer1
  6
CONTINUOUS
 62
7
 10
506.945
 20
121.637
 11
508.322
 21
113.635
  0
LINE
  8
Layer1
  6
CONTINUOUS
 62
7
 10
509.009
 20
121.637
 11
510.385
 21
113.635
  0
LINE
  8
Layer1
  6
CONTINUOUS
 62
7
 10
507.634
 20
117.635
 11
508.322
 21
109.615
  0
LINE
  8
Layer1
  6
CONTINUOUS
 62
7
 10
509.18
 20
125.637
 11
509.697
 21
117.635
  0
LINE
  8
Layer1
  6
CONTINUOUS
 62
7
 10
512.447
 20
109.615
 11
512.792
 21
109.615
  0
LINE
  8
Layer1
  6
CONTINUOUS
 62
7
 10
511.072
 20
121.637
 11
512.792
 21
121.631
  0
LINE
  8
Layer1
  6
CONTINUOUS
 62
7
 10
512.447
 20
113.635
 11
512.792
 21
113.621
  0
LINE
  8
Layer1
  6
CONTINUOUS
 62
7
 10
511.072
 20
125.637
 11
511.072
 21
121.637
  0
LINE
  8
Layer1
  6
CONTINUOUS
 62
7
 10
512.447
 20
113.635
 11
512.447
 21
109.615
  0
LINE
  8
Layer1
  6
CONTINUOUS
 62
7
 10
511.072
 20
121.637
 11
512.447
 21
113.635
  0
LINE
  8
Layer1
  6
CONTINUOUS
 62
7
 10
511.76
 20
117.635
 11
512.447
 21
109.615
  0
LINE
  8
Layer1
  6
DASHED1
 62
7
 10
500.755
 20
125.637
 11
498.692
 21
125.637
  0
LINE
  8
Layer1
  6
DASHED1
 62
7
 10
496.628
 20
125.637
 11
494.565
 21
125.637
  0
LINE
  8
Layer1
  6
DASHED1
 62
7
 10
492.502
 20
125.637
 11
490.438
 21
125.637
  0
LINE
  8
Layer1
  6
DASHED1
 62
7
 10
491.813
 20
109.615
 11
493.878
 21
109.615
  0
LINE
  8
Layer1
  6
CONTINUOUS
 62
7
 10
492.502
 20
125.637
 11
490.438
 21
125.637
  0
LINE
  8
Layer1
  6
CONTINUOUS
 62
7
 10
490.438
 20
121.637
 11
492.502
 21
121.637
  0
LINE
  8
Layer1
  6
CONTINUOUS
 62
7
 10
491.813
 20
113.635
 11
493.878
 21
113.635
  0
LINE
  8
Layer1
  6
CONTINUOUS
 62
7
 10
492.502
 20
125.637
 11
492.502
 21
121.637
  0
LINE
  8
Layer1
  6
CONTINUOUS
 62
7
 10
490.438
 20
125.637
 11
490.438
 21
121.637
  0
LINE
  8
Layer1
  6
DASHED1
 62
7
 10
491.813
 20
113.635
 11
491.813
 21
109.615
  0
LINE
  8
Layer1
  6
DASHED1
 62
7
 10
493.878
 20
112.315
 11
493.878
 21
109.615
  0
LINE
  8
Layer1
  6
CONTINUOUS
 62
7
 10
490.438
 20
121.637
 11
491.611
 21
114.822
  0
LINE
  8
Layer1
  6
CONTINUOUS
 62
7
 10
492.502
 20
121.637
 11
493.878
 21
113.635
  0
LINE
  8
Layer1
  6
DASHED1
 62
7
 10
491.32
 20
115.384
 11
491.813
 21
109.615
  0
LINE
  8
Layer1
  6
CONTINUOUS
 62
7
 10
492.673
 20
125.637
 11
493.19
 21
117.635
  0
LINE
  8
Layer1
  6
DASHED1
 62
7
 10
495.94
 20
109.615
 11
498.005
 21
109.615
  0
LINE
  8
Layer1
  6
CONTINUOUS
 62
7
 10
500.068
 20
109.615
 11
502.13
 21
109.615
  0
LINE
  8
Layer1
  6
CONTINUOUS
 62
7
 10
500.755
 20
125.637
 11
498.692
 21
125.637
  0
LINE
  8
Layer1
  6
CONTINUOUS
 62
7
 10
498.692
 20
121.637
 11
500.755
 21
121.637
  0
LINE
  8
Layer1
  6
CONTINUOUS
 62
7
 10
500.068
 20
113.635
 11
502.13
 21
113.635
  0
LINE
  8
Layer1
  6
CONTINUOUS
 62
7
 10
500.755
 20
125.637
 11
500.755
 21
121.637
  0
LINE
  8
Layer1
  6
CONTINUOUS
 62
7
 10
498.692
 20
125.637
 11
498.692
 21
121.637
  0
LINE
  8
Layer1
  6
CONTINUOUS
 62
7
 10
500.068
 20
113.635
 11
500.068
 21
109.615
  0
LINE
  8
Layer1
  6
CONTINUOUS
 62
7
 10
502.13
 20
113.635
 11
502.13
 21
109.615
  0
LINE
  8
Layer1
  6
CONTINUOUS
 62
7
 10
498.692
 20
121.637
 11
500.068
 21
113.635
  0
LINE
  8
Layer1
  6
CONTINUOUS
 62
7
 10
500.755
 20
121.637
 11
502.13
 21
113.635
  0
LINE
  8
Layer1
  6
CONTINUOUS
 62
7
 10
499.38
 20
117.635
 11
500.068
 21
109.615
  0
LINE
  8
Layer1
  6
CONTINUOUS
 62
7
 10
500.928
 20
125.637
 11
501.443
 21
117.635
  0
LINE
  8
Layer1
  6
CONTINUOUS
 62
7
 10
493.878
 20
112.315
 11
493.878
 21
113.635
  0
LINE
  8
Layer1
  6
CONTINUOUS
 62
7
 10
491.32
 20
115.384
 11
491.127
 21
117.635
  0
LINE
  8
Layer1
  6
CONTINUOUS
 62
7
 10
491.611
 20
114.822
 11
491.813
 21
113.635
  0
LINE
  8
Layer1
  6
CONTINUOUS
 62
7
 10
496.628
 20
125.637
 11
494.565
 21
125.637
  0
LINE
  8
Layer1
  6
CONTINUOUS
 62
7
 10
494.565
 20
121.637
 11
496.628
 21
121.637
  0
LINE
  8
Layer1
  6
CONTINUOUS
 62
7
 10
495.94
 20
113.635
 11
498.005
 21
113.635
  0
LINE
  8
Layer1
  6
CONTINUOUS
 62
7
 10
496.628
 20
125.637
 11
496.628
 21
121.637
  0
LINE
  8
Layer1
  6
CONTINUOUS
 62
7
 10
494.565
 20
125.637
 11
494.565
 21
121.637
  0
LINE
  8
Layer1
  6
CONTINUOUS
 62
7
 10
495.94
 20
113.635
 11
495.94
 21
111.037
  0
LINE
  8
Layer1
  6
CONTINUOUS
 62
7
 10
498.005
 20
113.635
 11
498.005
 21
110.115
  0
LINE
  8
Layer1
  6
CONTINUOUS
 62
7
 10
494.565
 20
121.637
 11
495.94
 21
113.635
  0
LINE
  8
Layer1
  6
CONTINUOUS
 62
7
 10
496.628
 20
121.637
 11
498.005
 21
113.635
  0
LINE
  8
Layer1
  6
CONTINUOUS
 62
7
 10
495.253
 20
117.635
 11
495.813
 21
111.106
  0
LINE
  8
Layer1
  6
CONTINUOUS
 62
7
 10
496.801
 20
125.637
 11
497.317
 21
117.635
  0
LINE
  8
Layer1
  6
DASHED1
 62
7
 10
495.94
 20
109.615
 11
495.788
 21
111.403
  0
LINE
  8
Layer1
  6
DASHED1
 62
7
 10
495.94
 20
111.037
 11
495.94
 21
109.615
  0
LINE
  8
Layer1
  6
CONTINUOUS
 62
7
 10
498.005
 20
110.115
 11
498.005
 21
109.615
  0
LINE
  8
Layer1
  6
CONTINUOUS
 62
7
 10
493.217
 20
125.459
 11
493.217
 21
111.217
  0
LINE
  8
Layer1
  6
CENTER1
 62
7
 10
494.363
 20
111.626
 11
453.142
 21
111.626
  0
LINE
  8
Layer1
  6
CENTER1
 62
7
 10
518.24
 20
117.626
 11
449.974
 21
117.626
  0
LINE
  8
Layer1
  6
DASHED1
 62
7
 10
457.183
 20
109.635
 11
459.229
 21
109.635
  0
LINE
  8
Layer1
  6
DASHED1
 62
7
 10
457.866
 20
125.635
 11
455.82
 21
125.635
  0
LINE
  8
Layer1
  6
DASHED1
 62
7
 10
455.82
 20
121.641
 11
457.866
 21
121.641
  0
LINE
  8
Layer1
  6
DASHED1
 62
7
 10
457.183
 20
113.652
 11
459.229
 21
113.652
  0
LINE
  8
Layer1
  6
DASHED1
 62
7
 10
457.866
 20
125.635
 11
457.866
 21
121.641
  0
LINE
  8
Layer1
  6
DASHED1
 62
7
 10
455.82
 20
125.635
 11
455.82
 21
121.641
  0
LINE
  8
Layer1
  6
DASHED1
 62
7
 10
457.183
 20
113.652
 11
457.183
 21
109.635
  0
LINE
  8
Layer1
  6
DASHED1
 62
7
 10
459.229
 20
113.652
 11
459.229
 21
109.635
  0
LINE
  8
Layer1
  6
DASHED1
 62
7
 10
455.82
 20
121.641
 11
457.183
 21
113.652
  0
LINE
  8
Layer1
  6
DASHED1
 62
7
 10
457.866
 20
121.641
 11
459.229
 21
113.652
  0
LINE
  8
Layer1
  6
DASHED1
 62
7
 10
456.502
 20
117.647
 11
457.183
 21
109.635
  0
LINE
  8
Layer1
  6
DASHED1
 62
7
 10
458.036
 20
125.635
 11
458.548
 21
117.647
  0
LINE
  8
Layer1
  6
DASHED1
 62
7
 10
455.649
 20
109.635
 11
456.671
 21
109.635
  0
LINE
  8
Layer1
  6
DASHED1
 62
7
 10
456.671
 20
113.631
 11
455.649
 21
113.631
  0
LINE
  8
Layer1
  6
DASHED1
 62
7
 10
456.671
 20
109.635
 11
456.671
 21
113.631
  0
LINE
  8
Layer1
  6
DASHED1
 62
7
 10
456.671
 20
113.631
 11
455.99
 21
117.626
  0
LINE
  8
Layer1
  6
DASHED1
 62
7
 10
455.649
 20
109.635
 11
455.649
 21
117.626
  0
LINE
  8
Layer1
  6
DASHED1
 62
7
 10
455.99
 20
117.626
 11
455.649
 21
117.626
  0
LINE
  8
Layer1
  6
CONTINUOUS
 62
7
 10
478.339
 20
179.125
 11
465.305
 21
179.125
  0
LINE
  8
Layer1
  6
CONTINUOUS
 62
7
 10
526.827
 20
120.049
 11
518.827
 21
120.049
  0
LINE
  8
Layer1
  6
CONTINUOUS
 62
7
 10
517.827
 20
121.049
 11
517.827
 21
126.049
  0
LINE
  8
Layer1
  6
CONTINUOUS
 62
7
 10
527.827
 20
121.049
 11
527.827
 21
126.049
  0
LINE
  8
Layer1
  6
CONTINUOUS
 62
7
 10
517.827
 20
126.049
 11
527.827
 21
126.049
  0
LINE
  8
Layer1
  6
CONTINUOUS
 62
7
 10
518.827
 20
120.049
 11
517.827
 21
121.049
  0
LINE
  8
Layer1
  6
CONTINUOUS
 62
7
 10
526.827
 20
120.049
 11
527.827
 21
121.049
  0
LINE
  8
Layer1
  6
CONTINUOUS
 62
7
 10
517.827
 20
121.049
 11
527.827
 21
121.049
  0
LINE
  8
Layer1
  6
CONTINUOUS
 62
7
 10
517.827
 20
126.049
 11
517.827
 21
121.049
  0
LINE
  8
Layer1
  6
CONTINUOUS
 62
7
 10
527.827
 20
126.049
 11
527.827
 21
121.049
  0
LINE
  8
Layer1
  6
CONTINUOUS
 62
7
 10
518.327
 20
125.799
 11
518.327
 21
121.299
  0
LINE
  8
Layer1
  6
CONTINUOUS
 62
7
 10
519.327
 20
125.299
 11
519.327
 21
121.799
  0
LINE
  8
Layer1
  6
CONTINUOUS
 62
7
 10
520.327
 20
124.799
 11
520.327
 21
122.299
  0
LINE
  8
Layer1
  6
CONTINUOUS
 62
7
 10
528.827
 20
129.048
 11
528.827
 21
126.049
  0
LINE
  8
Layer1
  6
CONTINUOUS
 62
7
 10
512.827
 20
126.049
 11
512.827
 21
110.049
  0
LINE
  8
Layer1
  6
CONTINUOUS
 62
7
 10
515.827
 20
124.049
 11
515.827
 21
110.049
  0
LINE
  8
Layer1
  6
CONTINUOUS
 62
7
 10
528.827
 20
126.049
 11
517.827
 21
126.049
  0
ARC
  8
Layer1
  6
CONTINUOUS
 62
7
 10
517.827
 20
124.049
 40
2
 50
90
 51
180
  0
LINE
  8
Layer1
  6
CONTINUOUS
 62
7
 10
520.881
 20
129.048
 11
528.827
 21
129.048
  0
ARC
  8
Layer1
  6
CONTINUOUS
 62
7
 10
515.827
 20
126.049
 40
3
 50
90
 51
180
  0
LINE
  8
Layer1
  6
CONTINUOUS
 62
7
 10
512.827
 20
110.049
 11
515.827
 21
110.049
  0
CIRCLE
  8
Layer1
  6
CONTINUOUS
 62
7
 10
461.82
 20
391.854
 40
3.76681
  0
ARC
  8
Layer1
  6
CONTINUOUS
 62
7
 10
457.346
 20
391.889
 40
1
 50
140.711
 51
225
  0
LINE
  8
Layer1
  6
CONTINUOUS
 62
7
 10
466.33
 20
393.498
 11
468.592
 21
393.498
  0
LINE
  8
Layer1
  6
CONTINUOUS
 62
7
 10
466.33
 20
390.012
 11
468.592
 21
390.012
  0
LINE
  8
Layer1
  6
CONTINUOUS
 62
7
 10
468.592
 20
393.498
 11
468.592
 21
390.012
  0
ARC
  8
Layer1
  6
CONTINUOUS
 62
7
 10
461.82
 20
391.854
 40
4.80058
 50
20.031
 51
140.098
  0
ARC
  8
Layer1
  6
CONTINUOUS
 62
7
 10
461.82
 20
391.854
 40
4.80058
 50
218.056
 51
337.793
  0
ARC
  8
Layer1
  6
CONTINUOUS
 62
7
 10
448.926
 20
384.604
 40
10.1292
 50
24.1178
 51
40.4581
  0
ARC
  8
Layer1
  6
CONTINUOUS
 62
7
 10
448.866
 20
399.094
 40
10.1292
 50
319.542
 51
335.882
  0
ARC
  8
Layer1
  6
CONTINUOUS
 62
7
 10
467.462
 20
393.498
 40
0.542282
 50
0
 51
180
  0
ARC
  8
Layer1
  6
CONTINUOUS
 62
7
 10
467.462
 20
390.012
 40
0.657613
 50
180
 51
2.03555e-013
  0
LINE
  8
Layer1
  6
CENTER1
 62
7
 10
461.82
 20
383.751
 11
461.82
 21
400.697
  0
LINE
  8
Layer1
  6
CONTINUOUS
 62
7
 10
225.363
 20
186.012
 11
233.208
 21
186.012
  0
LINE
  8
Layer1
  6
CONTINUOUS
 62
7
 10
225.036
 20
185.409
 11
233.511
 21
185.409
  0
LINE
  8
Layer1
  6
CONTINUOUS
 62
7
 10
224.941
 20
182.029
 11
233.39
 21
182.029
  0
LINE
  8
Layer1
  6
CONTINUOUS
 62
7
 10
234.113
 20
181.304
 11
224.217
 21
181.304
  0
LINE
  8
Layer1
  6
CONTINUOUS
 62
7
 10
234.113
 20
181.304
 11
234.113
 21
179.434
  0
LINE
  8
Layer1
  6
CONTINUOUS
 62
7
 10
224.217
 20
181.304
 11
224.217
 21
179.434
  0
POLYLINE
  8
Layer1
  6
CONTINUOUS
 62
7
 66
1
 10
0
 20
0
 30
0
  0
VERTEX
  8
Layer1
 10
229.159
 20
183.225
  0
VERTEX
  8
Layer1
 10
229.094
 20
183.281
  0
VERTEX
  8
Layer1
 10
229.027
 20
183.338
  0
VERTEX
  8
Layer1
 10
228.958
 20
183.391
  0
VERTEX
  8
Layer1
 10
228.888
 20
183.443
  0
VERTEX
  8
Layer1
 10
228.818
 20
183.493
  0
VERTEX
  8
Layer1
 10
228.745
 20
183.541
  0
VERTEX
  8
Layer1
 10
228.673
 20
183.587
  0
VERTEX
  8
Layer1
 10
228.598
 20
183.631
  0
VERTEX
  8
Layer1
 10
228.523
 20
183.673
  0
VERTEX
  8
Layer1
 10
228.446
 20
183.714
  0
VERTEX
  8
Layer1
 10
228.368
 20
183.753
  0
VERTEX
  8
Layer1
 10
228.29
 20
183.789
  0
VERTEX
  8
Layer1
 10
228.209
 20
183.824
  0
VERTEX
  8
Layer1
 10
228.129
 20
183.856
  0
VERTEX
  8
Layer1
 10
228.048
 20
183.886
  0
VERTEX
  8
Layer1
 10
227.965
 20
183.914
  0
VERTEX
  8
Layer1
 10
227.882
 20
183.94
  0
VERTEX
  8
Layer1
 10
227.799
 20
183.964
  0
VERTEX
  8
Layer1
 10
227.715
 20
183.986
  0
VERTEX
  8
Layer1
 10
227.631
 20
184.005
  0
VERTEX
  8
Layer1
 10
227.547
 20
184.022
  0
VERTEX
  8
Layer1
 10
227.461
 20
184.036
  0
VERTEX
  8
Layer1
 10
227.375
 20
184.049
  0
VERTEX
  8
Layer1
 10
227.289
 20
184.06
  0
VERTEX
  8
Layer1
 10
227.202
 20
184.069
  0
VERTEX
  8
Layer1
 10
227.116
 20
184.075
  0
VERTEX
  8
Layer1
 10
227.03
 20
184.078
  0
VERTEX
  8
Layer1
 10
226.943
 20
184.081
  0
VERTEX
  8
Layer1
 10
226.856
 20
184.08
  0
VERTEX
  8
Layer1
 10
226.769
 20
184.077
  0
VERTEX
  8
Layer1
 10
226.683
 20
184.071
  0
VERTEX
  8
Layer1
 10
226.596
 20
184.065
  0
VERTEX
  8
Layer1
 10
226.511
 20
184.055
  0
VERTEX
  8
Layer1
 10
226.424
 20
184.043
  0
VERTEX
  8
Layer1
 10
226.339
 20
184.03
  0
VERTEX
  8
Layer1
 10
226.254
 20
184.013
  0
VERTEX
  8
Layer1
 10
226.168
 20
183.994
  0
VERTEX
  8
Layer1
 10
226.084
 20
183.975
  0
VERTEX
  8
Layer1
 10
226
 20
183.952
  0
VERTEX
  8
Layer1
 10
225.917
 20
183.927
  0
VERTEX
  8
Layer1
 10
225.836
 20
183.899
  0
VERTEX
  8
Layer1
 10
225.754
 20
183.87
  0
VERTEX
  8
Layer1
 10
225.673
 20
183.839
  0
VERTEX
  8
Layer1
 10
225.593
 20
183.805
  0
VERTEX
  8
Layer1
 10
225.513
 20
183.771
  0
VERTEX
  8
Layer1
 10
225.435
 20
183.732
  0
VERTEX
  8
Layer1
 10
225.358
 20
183.694
  0
VERTEX
  8
Layer1
 10
225.281
 20
183.653
  0
SEQEND
  0
POLYLINE
  8
Layer1
  6
CONTINUOUS
 62
7
 66
1
 10
0
 20
0
 30
0
  0
VERTEX
  8
Layer1
 10
233.511
 20
183.598
  0
VERTEX
  8
Layer1
 10
233.423
 20
183.632
  0
VERTEX
  8
Layer1
 10
233.336
 20
183.667
  0
VERTEX
  8
Layer1
 10
233.247
 20
183.699
  0
VERTEX
  8
Layer1
 10
233.158
 20
183.73
  0
VERTEX
  8
Layer1
 10
233.066
 20
183.757
  0
VERTEX
  8
Layer1
 10
232.976
 20
183.785
  0
VERTEX
  8
Layer1
 10
232.886
 20
183.809
  0
VERTEX
  8
Layer1
 10
232.793
 20
183.832
  0
VERTEX
  8
Layer1
 10
232.702
 20
183.854
  0
VERTEX
  8
Layer1
 10
232.61
 20
183.873
  0
VERTEX
  8
Layer1
 10
232.517
 20
183.89
  0
VERTEX
  8
Layer1
 10
232.423
 20
183.905
  0
VERTEX
  8
Layer1
 10
232.33
 20
183.92
  0
VERTEX
  8
Layer1
 10
232.237
 20
183.932
  0
VERTEX
  8
Layer1
 10
232.143
 20
183.941
  0
VERTEX
  8
Layer1
 10
232.048
 20
183.95
  0
VERTEX
  8
Layer1
 10
231.953
 20
183.956
  0
VERTEX
  8
Layer1
 10
231.86
 20
183.959
  0
VERTEX
  8
Layer1
 10
231.766
 20
183.963
  0
VERTEX
  8
Layer1
 10
231.671
 20
183.963
  0
VERTEX
  8
Layer1
 10
231.577
 20
183.962
  0
VERTEX
  8
Layer1
 10
231.482
 20
183.958
  0
VERTEX
  8
Layer1
 10
231.387
 20
183.953
  0
VERTEX
  8
Layer1
 10
231.293
 20
183.946
  0
VERTEX
  8
Layer1
 10
231.2
 20
183.938
  0
VERTEX
  8
Layer1
 10
231.106
 20
183.927
  0
VERTEX
  8
Layer1
 10
231.012
 20
183.915
  0
VERTEX
  8
Layer1
 10
230.918
 20
183.899
  0
VERTEX
  8
Layer1
 10
230.826
 20
183.884
  0
VERTEX
  8
Layer1
 10
230.733
 20
183.866
  0
VERTEX
  8
Layer1
 10
230.641
 20
183.845
  0
VERTEX
  8
Layer1
 10
230.548
 20
183.824
  0
VERTEX
  8
Layer1
 10
230.458
 20
183.799
  0
VERTEX
  8
Layer1
 10
230.367
 20
183.774
  0
VERTEX
  8
Layer1
 10
230.277
 20
183.747
  0
VERTEX
  8
Layer1
 10
230.187
 20
183.718
  0
VERTEX
  8
Layer1
 10
230.098
 20
183.687
  0
VERTEX
  8
Layer1
 10
230.009
 20
183.655
  0
VERTEX
  8
Layer1
 10
229.921
 20
183.619
  0
VERTEX
  8
Layer1
 10
229.833
 20
183.583
  0
VERTEX
  8
Layer1
 10
229.747
 20
183.546
  0
VERTEX
  8
Layer1
 10
229.661
 20
183.506
  0
VERTEX
  8
Layer1
 10
229.577
 20
183.464
  0
VERTEX
  8
Layer1
 10
229.493
 20
183.422
  0
VERTEX
  8
Layer1
 10
229.41
 20
183.376
  0
VERTEX
  8
Layer1
 10
229.327
 20
183.331
  0
VERTEX
  8
Layer1
 10
229.245
 20
183.283
  0
VERTEX
  8
Layer1
 10
229.166
 20
183.232
  0
SEQEND
  0
LINE
  8
Layer1
  6
CONTINUOUS
 62
7
 10
225.628
 20
183.821
 11
225.293
 21
183.631
  0
LINE
  8
Layer1
  6
CONTINUOUS
 62
7
 10
225.363
 20
186.012
 11
224.505
 21
184.428
  0
LINE
  8
Layer1
  6
CONTINUOUS
 62
7
 10
233.208
 20
186.012
 11
234.095
 21
184.196
  0
LINE
  8
Layer1
  6
CONTINUOUS
 62
7
 10
233.027
 20
183.742
 11
233.511
 21
183.598
  0
POLYLINE
  8
Layer1
  6
CONTINUOUS
 62
7
 66
1
 10
0
 20
0
 30
0
  0
VERTEX
  8
Layer1
 10
224.505
 20
184.428
  0
VERTEX
  8
Layer1
 10
224.489
 20
184.4
  0
VERTEX
  8
Layer1
 10
224.476
 20
184.372
  0
VERTEX
  8
Layer1
 10
224.464
 20
184.343
  0
VERTEX
  8
Layer1
 10
224.453
 20
184.313
  0
VERTEX
  8
Layer1
 10
224.445
 20
184.281
  0
VERTEX
  8
Layer1
 10
224.438
 20
184.251
  0
VERTEX
  8
Layer1
 10
224.432
 20
184.22
  0
VERTEX
  8
Layer1
 10
224.429
 20
184.189
  0
VERTEX
  8
Layer1
 10
224.427
 20
184.156
  0
VERTEX
  8
Layer1
 10
224.426
 20
184.125
  0
VERTEX
  8
Layer1
 10
224.428
 20
184.094
  0
VERTEX
  8
Layer1
 10
224.43
 20
184.063
  0
VERTEX
  8
Layer1
 10
224.435
 20
184.031
  0
VERTEX
  8
Layer1
 10
224.441
 20
184
  0
VERTEX
  8
Layer1
 10
224.451
 20
183.97
  0
VERTEX
  8
Layer1
 10
224.459
 20
183.94
  0
VERTEX
  8
Layer1
 10
224.471
 20
183.911
  0
VERTEX
  8
Layer1
 10
224.485
 20
183.881
  0
VERTEX
  8
Layer1
 10
224.5
 20
183.854
  0
VERTEX
  8
Layer1
 10
224.516
 20
183.826
  0
VERTEX
  8
Layer1
 10
224.533
 20
183.799
  0
VERTEX
  8
Layer1
 10
224.553
 20
183.774
  0
VERTEX
  8
Layer1
 10
224.572
 20
183.75
  0
VERTEX
  8
Layer1
 10
224.595
 20
183.727
  0
VERTEX
  8
Layer1
 10
224.617
 20
183.706
  0
VERTEX
  8
Layer1
 10
224.641
 20
183.685
  0
VERTEX
  8
Layer1
 10
224.667
 20
183.666
  0
VERTEX
  8
Layer1
 10
224.693
 20
183.648
  0
VERTEX
  8
Layer1
 10
224.72
 20
183.631
  0
VERTEX
  8
Layer1
 10
224.748
 20
183.617
  0
VERTEX
  8
Layer1
 10
224.775
 20
183.602
  0
VERTEX
  8
Layer1
 10
224.805
 20
183.592
  0
VERTEX
  8
Layer1
 10
224.836
 20
183.581
  0
VERTEX
  8
Layer1
 10
224.866
 20
183.572
  0
VERTEX
  8
Layer1
 10
224.897
 20
183.565
  0
VERTEX
  8
Layer1
 10
224.928
 20
183.56
  0
VERTEX
  8
Layer1
 10
224.959
 20
183.557
  0
VERTEX
  8
Layer1
 10
224.991
 20
183.555
  0
VERTEX
  8
Layer1
 10
225.023
 20
183.555
  0
VERTEX
  8
Layer1
 10
225.054
 20
183.557
  0
VERTEX
  8
Layer1
 10
225.086
 20
183.56
  0
VERTEX
  8
Layer1
 10
225.117
 20
183.565
  0
VERTEX
  8
Layer1
 10
225.148
 20
183.572
  0
VERTEX
  8
Layer1
 10
225.178
 20
183.581
  0
VERTEX
  8
Layer1
 10
225.208
 20
183.59
  0
VERTEX
  8
Layer1
 10
225.238
 20
183.602
  0
VERTEX
  8
Layer1
 10
225.266
 20
183.617
  0
VERTEX
  8
Layer1
 10
225.293
 20
183.631
  0
SEQEND
  0
POLYLINE
  8
Layer1
  6
CONTINUOUS
 62
7
 66
1
 10
0
 20
0
 30
0
  0
VERTEX
  8
Layer1
 10
233.511
 20
183.598
  0
VERTEX
  8
Layer1
 10
233.531
 20
183.592
  0
VERTEX
  8
Layer1
 10
233.553
 20
183.588
  0
VERTEX
  8
Layer1
 10
233.574
 20
183.583
  0
VERTEX
  8
Layer1
 10
233.595
 20
183.581
  0
VERTEX
  8
Layer1
 10
233.617
 20
183.578
  0
VERTEX
  8
Layer1
 10
233.637
 20
183.577
  0
VERTEX
  8
Layer1
 10
233.659
 20
183.577
  0
VERTEX
  8
Layer1
 10
233.68
 20
183.58
  0
VERTEX
  8
Layer1
 10
233.702
 20
183.582
  0
VERTEX
  8
Layer1
 10
233.723
 20
183.584
  0
VERTEX
  8
Layer1
 10
233.744
 20
183.589
  0
VERTEX
  8
Layer1
 10
233.765
 20
183.593
  0
VERTEX
  8
Layer1
 10
233.786
 20
183.599
  0
VERTEX
  8
Layer1
 10
233.805
 20
183.606
  0
VERTEX
  8
Layer1
 10
233.826
 20
183.613
  0
VERTEX
  8
Layer1
 10
233.845
 20
183.622
  0
VERTEX
  8
Layer1
 10
233.864
 20
183.631
  0
VERTEX
  8
Layer1
 10
233.884
 20
183.642
  0
VERTEX
  8
Layer1
 10
233.902
 20
183.653
  0
VERTEX
  8
Layer1
 10
233.92
 20
183.665
  0
VERTEX
  8
Layer1
 10
233.937
 20
183.678
  0
VERTEX
  8
Layer1
 10
233.952
 20
183.69
  0
VERTEX
  8
Layer1
 10
233.969
 20
183.706
  0
VERTEX
  8
Layer1
 10
233.985
 20
183.72
  0
VERTEX
  8
Layer1
 10
233.999
 20
183.736
  0
VERTEX
  8
Layer1
 10
234.012
 20
183.753
  0
VERTEX
  8
Layer1
 10
234.025
 20
183.769
  0
VERTEX
  8
Layer1
 10
234.039
 20
183.786
  0
VERTEX
  8
Layer1
 10
234.049
 20
183.804
  0
VERTEX
  8
Layer1
 10
234.06
 20
183.824
  0
VERTEX
  8
Layer1
 10
234.071
 20
183.843
  0
VERTEX
  8
Layer1
 10
234.08
 20
183.862
  0
VERTEX
  8
Layer1
 10
234.088
 20
183.881
  0
VERTEX
  8
Layer1
 10
234.095
 20
183.902
  0
VERTEX
  8
Layer1
 10
234.101
 20
183.922
  0
VERTEX
  8
Layer1
 10
234.107
 20
183.943
  0
VERTEX
  8
Layer1
 10
234.111
 20
183.964
  0
VERTEX
  8
Layer1
 10
234.114
 20
183.985
  0
VERTEX
  8
Layer1
 10
234.117
 20
184.006
  0
VERTEX
  8
Layer1
 10
234.119
 20
184.028
  0
VERTEX
  8
Layer1
 10
234.119
 20
184.048
  0
VERTEX
  8
Layer1
 10
234.119
 20
184.071
  0
VERTEX
  8
Layer1
 10
234.118
 20
184.092
  0
VERTEX
  8
Layer1
 10
234.114
 20
184.113
  0
VERTEX
  8
Layer1
 10
234.112
 20
184.134
  0
VERTEX
  8
Layer1
 10
234.107
 20
184.155
  0
VERTEX
  8
Layer1
 10
234.102
 20
184.176
  0
VERTEX
  8
Layer1
 10
234.095
 20
184.196
  0
SEQEND
  0
LINE
  8
Layer1
  6
CONTINUOUS
 62
7
 10
232.232
 20
183.932
 11
232.232
 21
182.029
  0
LINE
  8
Layer1
  6
CONTINUOUS
 62
7
 10
226.088
 20
183.975
 11
226.088
 21
182.029
  0
LINE
  8
Layer1
  6
CONTINUOUS
 62
7
 10
224.941
 20
182.029
 11
224.217
 21
181.304
  0
LINE
  8
Layer1
  6
CONTINUOUS
 62
7
 10
233.39
 20
182.029
 11
234.113
 21
181.304
  0
LINE
  8
Layer1
  6
CONTINUOUS
 62
7
 10
457.457
 20
188.296
 11
466.36
 21
188.296
  0
LINE
  8
Layer1
  6
CONTINUOUS
 62
7
 10
457.457
 20
185.981
 11
465.291
 21
185.981
  0
LINE
  8
Layer1
  6
CONTINUOUS
 62
7
 10
466.36
 20
188.296
 11
467.784
 21
186.634
  0
POLYLINE
  8
Layer1
  6
CONTINUOUS
 62
7
 66
1
 10
0
 20
0
 30
0
  0
VERTEX
  8
Layer1
 10
465.291
 20
185.981
  0
VERTEX
  8
Layer1
 10
465.293
 20
185.899
  0
VERTEX
  8
Layer1
 10
465.301
 20
185.816
  0
VERTEX
  8
Layer1
 10
465.313
 20
185.736
  0
VERTEX
  8
Layer1
 10
465.332
 20
185.655
  0
VERTEX
  8
Layer1
 10
465.354
 20
185.577
  0
VERTEX
  8
Layer1
 10
465.382
 20
185.5
  0
VERTEX
  8
Layer1
 10
465.416
 20
185.424
  0
VERTEX
  8
Layer1
 10
465.455
 20
185.352
  0
VERTEX
  8
Layer1
 10
465.498
 20
185.283
  0
VERTEX
  8
Layer1
 10
465.545
 20
185.215
  0
VERTEX
  8
Layer1
 10
465.596
 20
185.152
  0
VERTEX
  8
Layer1
 10
465.652
 20
185.092
  0
VERTEX
  8
Layer1
 10
465.712
 20
185.035
  0
VERTEX
  8
Layer1
 10
465.774
 20
184.982
  0
VERTEX
  8
Layer1
 10
465.842
 20
184.935
  0
VERTEX
  8
Layer1
 10
465.911
 20
184.891
  0
VERTEX
  8
Layer1
 10
465.983
 20
184.851
  0
VERTEX
  8
Layer1
 10
466.058
 20
184.818
  0
VERTEX
  8
Layer1
 10
466.135
 20
184.789
  0
VERTEX
  8
Layer1
 10
466.214
 20
184.765
  0
VERTEX
  8
Layer1
 10
466.293
 20
184.745
  0
VERTEX
  8
Layer1
 10
466.375
 20
184.732
  0
VERTEX
  8
Layer1
 10
466.455
 20
184.725
  0
VERTEX
  8
Layer1
 10
466.538
 20
184.721
  0
VERTEX
  8
Layer1
 10
466.62
 20
184.725
  0
VERTEX
  8
Layer1
 10
466.702
 20
184.732
  0
VERTEX
  8
Layer1
 10
466.783
 20
184.745
  0
VERTEX
  8
Layer1
 10
466.863
 20
184.765
  0
VERTEX
  8
Layer1
 10
466.942
 20
184.789
  0
VERTEX
  8
Layer1
 10
467.017
 20
184.818
  0
VERTEX
  8
Layer1
 10
467.092
 20
184.851
  0
VERTEX
  8
Layer1
 10
467.164
 20
184.891
  0
VERTEX
  8
Layer1
 10
467.235
 20
184.935
  0
VERTEX
  8
Layer1
 10
467.301
 20
184.982
  0
VERTEX
  8
Layer1
 10
467.365
 20
185.035
  0
VERTEX
  8
Layer1
 10
467.423
 20
185.092
  0
VERTEX
  8
Layer1
 10
467.479
 20
185.152
  0
VERTEX
  8
Layer1
 10
467.531
 20
185.215
  0
VERTEX
  8
Layer1
 10
467.579
 20
185.283
  0
VERTEX
  8
Layer1
 10
467.622
 20
185.352
  0
VERTEX
  8
Layer1
 10
467.659
 20
185.424
  0
VERTEX
  8
Layer1
 10
467.693
 20
185.5
  0
VERTEX
  8
Layer1
 10
467.721
 20
185.577
  0
VERTEX
  8
Layer1
 10
467.745
 20
185.655
  0
VERTEX
  8
Layer1
 10
467.762
 20
185.736
  0
VERTEX
  8
Layer1
 10
467.776
 20
185.816
  0
VERTEX
  8
Layer1
 10
467.783
 20
185.899
  0
VERTEX
  8
Layer1
 10
467.784
 20
185.981
  0
SEQEND
  0
LINE
  8
Layer1
  6
CONTINUOUS
 62
7
 10
457.457
 20
188.296
 11
455.043
 21
185.768
  0
LINE
  8
Layer1
  6
CONTINUOUS
 62
7
 10
457.457
 20
185.981
 11
456.033
 21
184.735
  0
POLYLINE
  8
Layer1
  6
CONTINUOUS
 62
7
 66
1
 10
0
 20
0
 30
0
  0
VERTEX
  8
Layer1
 10
455.043
 20
185.768
  0
VERTEX
  8
Layer1
 10
455.014
 20
185.733
  0
VERTEX
  8
Layer1
 10
454.986
 20
185.697
  0
VERTEX
  8
Layer1
 10
454.959
 20
185.66
  0
VERTEX
  8
Layer1
 10
454.935
 20
185.62
  0
VERTEX
  8
Layer1
 10
454.916
 20
185.581
  0
VERTEX
  8
Layer1
 10
454.897
 20
185.539
  0
VERTEX
  8
Layer1
 10
454.882
 20
185.497
  0
VERTEX
  8
Layer1
 10
454.868
 20
185.452
  0
VERTEX
  8
Layer1
 10
454.858
 20
185.408
  0
VERTEX
  8
Layer1
 10
454.851
 20
185.363
  0
VERTEX
  8
Layer1
 10
454.848
 20
185.318
  0
VERTEX
  8
Layer1
 10
454.846
 20
185.273
  0
VERTEX
  8
Layer1
 10
454.848
 20
185.226
  0
VERTEX
  8
Layer1
 10
454.851
 20
185.182
  0
VERTEX
  8
Layer1
 10
454.858
 20
185.137
  0
VERTEX
  8
Layer1
 10
454.868
 20
185.093
  0
VERTEX
  8
Layer1
 10
454.882
 20
185.048
  0
VERTEX
  8
Layer1
 10
454.897
 20
185.006
  0
VERTEX
  8
Layer1
 10
454.916
 20
184.964
  0
VERTEX
  8
Layer1
 10
454.937
 20
184.923
  0
VERTEX
  8
Layer1
 10
454.959
 20
184.885
  0
VERTEX
  8
Layer1
 10
454.986
 20
184.848
  0
VERTEX
  8
Layer1
 10
455.015
 20
184.812
  0
VERTEX
  8
Layer1
 10
455.045
 20
184.778
  0
VERTEX
  8
Layer1
 10
455.077
 20
184.747
  0
VERTEX
  8
Layer1
 10
455.111
 20
184.717
  0
VERTEX
  8
Layer1
 10
455.147
 20
184.689
  0
VERTEX
  8
Layer1
 10
455.185
 20
184.664
  0
VERTEX
  8
Layer1
 10
455.226
 20
184.642
  0
VERTEX
  8
Layer1
 10
455.265
 20
184.622
  0
VERTEX
  8
Layer1
 10
455.308
 20
184.604
  0
VERTEX
  8
Layer1
 10
455.351
 20
184.589
  0
VERTEX
  8
Layer1
 10
455.394
 20
184.577
  0
VERTEX
  8
Layer1
 10
455.44
 20
184.568
  0
VERTEX
  8
Layer1
 10
455.485
 20
184.562
  0
VERTEX
  8
Layer1
 10
455.529
 20
184.558
  0
VERTEX
  8
Layer1
 10
455.575
 20
184.558
  0
VERTEX
  8
Layer1
 10
455.62
 20
184.56
  0
VERTEX
  8
Layer1
 10
455.666
 20
184.565
  0
VERTEX
  8
Layer1
 10
455.711
 20
184.572
  0
VERTEX
  8
Layer1
 10
455.755
 20
184.583
  0
VERTEX
  8
Layer1
 10
455.798
 20
184.598
  0
VERTEX
  8
Layer1
 10
455.841
 20
184.613
  0
VERTEX
  8
Layer1
 10
455.882
 20
184.634
  0
VERTEX
  8
Layer1
 10
455.921
 20
184.655
  0
VERTEX
  8
Layer1
 10
455.961
 20
184.679
  0
VERTEX
  8
Layer1
 10
455.998
 20
184.706
  0
VERTEX
  8
Layer1
 10
456.033
 20
184.735
  0
SEQEND
  0
LINE
  8
Layer1
  6
CONTINUOUS
 62
7
 10
458.777
 20
185.981
 11
458.777
 21
182.857
  0
LINE
  8
Layer1
  6
CONTINUOUS
 62
7
 10
464.688
 20
185.981
 11
464.688
 21
182.857
  0
LINE
  8
Layer1
  6
CONTINUOUS
 62
7
 10
466.89
 20
179.125
 11
466.89
 21
182.213
  0
LINE
  8
Layer1
  6
CONTINUOUS
 62
7
 10
466.89
 20
182.213
 11
465.771
 21
182.857
  0
LINE
  8
Layer1
  6
CONTINUOUS
 62
7
 10
465.771
 20
182.857
 11
457.868
 21
182.857
  0
LINE
  8
Layer1
  6
CONTINUOUS
 62
7
 10
457.868
 20
182.857
 11
456.75
 21
182.213
  0
LINE
  8
Layer1
  6
CONTINUOUS
 62
7
 10
456.75
 20
182.213
 11
456.75
 21
179.125
  0
LINE
  8
Layer1
  6
CONTINUOUS
 62
7
 10
464.354
 20
179.125
 11
464.354
 21
182.213
  0
LINE
  8
Layer1
  6
CONTINUOUS
 62
7
 10
459.286
 20
179.125
 11
459.286
 21
182.213
  0
POLYLINE
  8
Layer1
  6
CONTINUOUS
 62
7
 66
1
 10
0
 20
0
 30
0
  0
VERTEX
  8
Layer1
 10
464.354
 20
182.213
  0
VERTEX
  8
Layer1
 10
464.252
 20
182.244
  0
VERTEX
  8
Layer1
 10
464.149
 20
182.274
  0
VERTEX
  8
Layer1
 10
464.046
 20
182.304
  0
VERTEX
  8
Layer1
 10
463.942
 20
182.332
  0
VERTEX
  8
Layer1
 10
463.837
 20
182.357
  0
VERTEX
  8
Layer1
 10
463.733
 20
182.382
  0
VERTEX
  8
Layer1
 10
463.63
 20
182.406
  0
VERTEX
  8
Layer1
 10
463.524
 20
182.429
  0
VERTEX
  8
Layer1
 10
463.418
 20
182.451
  0
VERTEX
  8
Layer1
 10
463.313
 20
182.47
  0
VERTEX
  8
Layer1
 10
463.207
 20
182.488
  0
VERTEX
  8
Layer1
 10
463.101
 20
182.506
  0
VERTEX
  8
Layer1
 10
462.995
 20
182.522
  0
VERTEX
  8
Layer1
 10
462.89
 20
182.536
  0
VERTEX
  8
Layer1
 10
462.783
 20
182.548
  0
VERTEX
  8
Layer1
 10
462.676
 20
182.56
  0
VERTEX
  8
Layer1
 10
462.57
 20
182.571
  0
VERTEX
  8
Layer1
 10
462.462
 20
182.58
  0
VERTEX
  8
Layer1
 10
462.356
 20
182.588
  0
VERTEX
  8
Layer1
 10
462.248
 20
182.594
  0
VERTEX
  8
Layer1
 10
462.142
 20
182.598
  0
VERTEX
  8
Layer1
 10
462.034
 20
182.601
  0
VERTEX
  8
Layer1
 10
461.926
 20
182.604
  0
VERTEX
  8
Layer1
 10
461.82
 20
182.605
  0
VERTEX
  8
Layer1
 10
461.712
 20
182.604
  0
VERTEX
  8
Layer1
 10
461.604
 20
182.601
  0
VERTEX
  8
Layer1
 10
461.498
 20
182.598
  0
VERTEX
  8
Layer1
 10
461.39
 20
182.594
  0
VERTEX
  8
Layer1
 10
461.284
 20
182.588
  0
VERTEX
  8
Layer1
 10
461.176
 20
182.58
  0
VERTEX
  8
Layer1
 10
461.07
 20
182.571
  0
VERTEX
  8
Layer1
 10
460.962
 20
182.56
  0
VERTEX
  8
Layer1
 10
460.856
 20
182.548
  0
VERTEX
  8
Layer1
 10
460.75
 20
182.536
  0
VERTEX
  8
Layer1
 10
460.644
 20
182.522
  0
VERTEX
  8
Layer1
 10
460.536
 20
182.506
  0
VERTEX
  8
Layer1
 10
460.432
 20
182.488
  0
VERTEX
  8
Layer1
 10
460.325
 20
182.47
  0
VERTEX
  8
Layer1
 10
460.219
 20
182.451
  0
VERTEX
  8
Layer1
 10
460.115
 20
182.429
  0
VERTEX
  8
Layer1
 10
460.01
 20
182.406
  0
VERTEX
  8
Layer1
 10
459.906
 20
182.382
  0
VERTEX
  8
Layer1
 10
459.801
 20
182.357
  0
VERTEX
  8
Layer1
 10
459.697
 20
182.332
  0
VERTEX
  8
Layer1
 10
459.594
 20
182.304
  0
VERTEX
  8
Layer1
 10
459.491
 20
182.274
  0
VERTEX
  8
Layer1
 10
459.387
 20
182.244
  0
VERTEX
  8
Layer1
 10
459.284
 20
182.213
  0
SEQEND
  0
POLYLINE
  8
Layer1
  6
CONTINUOUS
 62
7
 66
1
 10
0
 20
0
 30
0
  0
VERTEX
  8
Layer1
 10
466.889
 20
182.212
  0
VERTEX
  8
Layer1
 10
466.842
 20
182.244
  0
VERTEX
  8
Layer1
 10
466.795
 20
182.274
  0
VERTEX
  8
Layer1
 10
466.747
 20
182.302
  0
VERTEX
  8
Layer1
 10
466.697
 20
182.33
  0
VERTEX
  8
Layer1
 10
466.649
 20
182.356
  0
VERTEX
  8
Layer1
 10
466.598
 20
182.381
  0
VERTEX
  8
Layer1
 10
466.546
 20
182.405
  0
VERTEX
  8
Layer1
 10
466.495
 20
182.427
  0
VERTEX
  8
Layer1
 10
466.443
 20
182.449
  0
VERTEX
  8
Layer1
 10
466.392
 20
182.469
  0
VERTEX
  8
Layer1
 10
466.339
 20
182.487
  0
VERTEX
  8
Layer1
 10
466.284
 20
182.504
  0
VERTEX
  8
Layer1
 10
466.231
 20
182.519
  0
VERTEX
  8
Layer1
 10
466.176
 20
182.535
  0
VERTEX
  8
Layer1
 10
466.123
 20
182.548
  0
VERTEX
  8
Layer1
 10
466.068
 20
182.56
  0
VERTEX
  8
Layer1
 10
466.012
 20
182.57
  0
VERTEX
  8
Layer1
 10
465.957
 20
182.578
  0
VERTEX
  8
Layer1
 10
465.902
 20
182.587
  0
VERTEX
  8
Layer1
 10
465.846
 20
182.593
  0
VERTEX
  8
Layer1
 10
465.789
 20
182.598
  0
VERTEX
  8
Layer1
 10
465.733
 20
182.601
  0
VERTEX
  8
Layer1
 10
465.678
 20
182.604
  0
VERTEX
  8
Layer1
 10
465.622
 20
182.605
  0
VERTEX
  8
Layer1
 10
465.565
 20
182.604
  0
VERTEX
  8
Layer1
 10
465.51
 20
182.601
  0
VERTEX
  8
Layer1
 10
465.454
 20
182.598
  0
VERTEX
  8
Layer1
 10
465.397
 20
182.593
  0
VERTEX
  8
Layer1
 10
465.342
 20
182.587
  0
VERTEX
  8
Layer1
 10
465.286
 20
182.578
  0
VERTEX
  8
Layer1
 10
465.231
 20
182.57
  0
VERTEX
  8
Layer1
 10
465.176
 20
182.56
  0
VERTEX
  8
Layer1
 10
465.12
 20
182.548
  0
VERTEX
  8
Layer1
 10
465.065
 20
182.535
  0
VERTEX
  8
Layer1
 10
465.012
 20
182.519
  0
VERTEX
  8
Layer1
 10
464.957
 20
182.504
  0
VERTEX
  8
Layer1
 10
464.904
 20
182.487
  0
VERTEX
  8
Layer1
 10
464.851
 20
182.469
  0
VERTEX
  8
Layer1
 10
464.8
 20
182.449
  0
VERTEX
  8
Layer1
 10
464.748
 20
182.427
  0
VERTEX
  8
Layer1
 10
464.695
 20
182.405
  0
VERTEX
  8
Layer1
 10
464.644
 20
182.381
  0
VERTEX
  8
Layer1
 10
464.594
 20
182.356
  0
VERTEX
  8
Layer1
 10
464.546
 20
182.33
  0
VERTEX
  8
Layer1
 10
464.497
 20
182.302
  0
VERTEX
  8
Layer1
 10
464.447
 20
182.274
  0
VERTEX
  8
Layer1
 10
464.401
 20
182.244
  0
VERTEX
  8
Layer1
 10
464.354
 20
182.212
  0
SEQEND
  0
POLYLINE
  8
Layer1
  6
CONTINUOUS
 62
7
 66
1
 10
0
 20
0
 30
0
  0
VERTEX
  8
Layer1
 10
459.286
 20
182.212
  0
VERTEX
  8
Layer1
 10
459.238
 20
182.244
  0
VERTEX
  8
Layer1
 10
459.19
 20
182.274
  0
VERTEX
  8
Layer1
 10
459.142
 20
182.302
  0
VERTEX
  8
Layer1
 10
459.094
 20
182.33
  0
VERTEX
  8
Layer1
 10
459.045
 20
182.356
  0
VERTEX
  8
Layer1
 10
458.993
 20
182.381
  0
VERTEX
  8
Layer1
 10
458.943
 20
182.405
  0
VERTEX
  8
Layer1
 10
458.892
 20
182.427
  0
VERTEX
  8
Layer1
 10
458.839
 20
182.449
  0
VERTEX
  8
Layer1
 10
458.788
 20
182.469
  0
VERTEX
  8
Layer1
 10
458.735
 20
182.487
  0
VERTEX
  8
Layer1
 10
458.68
 20
182.504
  0
VERTEX
  8
Layer1
 10
458.628
 20
182.519
  0
VERTEX
  8
Layer1
 10
458.572
 20
182.535
  0
VERTEX
  8
Layer1
 10
458.519
 20
182.548
  0
VERTEX
  8
Layer1
 10
458.464
 20
182.56
  0
VERTEX
  8
Layer1
 10
458.409
 20
182.57
  0
VERTEX
  8
Layer1
 10
458.354
 20
182.578
  0
VERTEX
  8
Layer1
 10
458.298
 20
182.587
  0
VERTEX
  8
Layer1
 10
458.241
 20
182.593
  0
VERTEX
  8
Layer1
 10
458.185
 20
182.598
  0
VERTEX
  8
Layer1
 10
458.13
 20
182.601
  0
VERTEX
  8
Layer1
 10
458.074
 20
182.604
  0
VERTEX
  8
Layer1
 10
458.017
 20
182.605
  0
VERTEX
  8
Layer1
 10
457.962
 20
182.604
  0
VERTEX
  8
Layer1
 10
457.906
 20
182.601
  0
VERTEX
  8
Layer1
 10
457.849
 20
182.598
  0
VERTEX
  8
Layer1
 10
457.793
 20
182.593
  0
VERTEX
  8
Layer1
 10
457.738
 20
182.587
  0
VERTEX
  8
Layer1
 10
457.683
 20
182.578
  0
VERTEX
  8
Layer1
 10
457.627
 20
182.57
  0
VERTEX
  8
Layer1
 10
457.572
 20
182.56
  0
VERTEX
  8
Layer1
 10
457.517
 20
182.548
  0
VERTEX
  8
Layer1
 10
457.462
 20
182.535
  0
VERTEX
  8
Layer1
 10
457.408
 20
182.519
  0
VERTEX
  8
Layer1
 10
457.354
 20
182.504
  0
VERTEX
  8
Layer1
 10
457.301
 20
182.487
  0
VERTEX
  8
Layer1
 10
457.248
 20
182.469
  0
VERTEX
  8
Layer1
 10
457.195
 20
182.449
  0
VERTEX
  8
Layer1
 10
457.144
 20
182.427
  0
VERTEX
  8
Layer1
 10
457.092
 20
182.405
  0
VERTEX
  8
Layer1
 10
457.041
 20
182.381
  0
VERTEX
  8
Layer1
 10
456.991
 20
182.356
  0
VERTEX
  8
Layer1
 10
456.942
 20
182.33
  0
VERTEX
  8
Layer1
 10
456.892
 20
182.302
  0
VERTEX
  8
Layer1
 10
456.844
 20
182.274
  0
VERTEX
  8
Layer1
 10
456.796
 20
182.244
  0
VERTEX
  8
Layer1
 10
456.75
 20
182.212
  0
SEQEND
  0
POLYLINE
  8
Layer1
  6
CONTINUOUS
 62
7
 66
1
 10
0
 20
0
 30
0
 70
1
  0
VERTEX
  8
Layer1
 10
467.084
 20
185.968
  0
VERTEX
  8
Layer1
 10
467.08
 20
186.04
  0
VERTEX
  8
Layer1
 10
467.065
 20
186.11
  0
VERTEX
  8
Layer1
 10
467.043
 20
186.177
  0
VERTEX
  8
Layer1
 10
467.01
 20
186.241
  0
VERTEX
  8
Layer1
 10
466.971
 20
186.301
  0
VERTEX
  8
Layer1
 10
466.923
 20
186.355
  0
VERTEX
  8
Layer1
 10
466.87
 20
186.402
  0
VERTEX
  8
Layer1
 10
466.81
 20
186.44
  0
VERTEX
  8
Layer1
 10
466.747
 20
186.473
  0
VERTEX
  8
Layer1
 10
466.68
 20
186.495
  0
VERTEX
  8
Layer1
 10
466.61
 20
186.51
  0
VERTEX
  8
Layer1
 10
466.538
 20
186.513
  0
VERTEX
  8
Layer1
 10
466.467
 20
186.51
  0
VERTEX
  8
Layer1
 10
466.397
 20
186.495
  0
VERTEX
  8
Layer1
 10
466.329
 20
186.473
  0
VERTEX
  8
Layer1
 10
466.265
 20
186.44
  0
VERTEX
  8
Layer1
 10
466.205
 20
186.402
  0
VERTEX
  8
Layer1
 10
466.152
 20
186.355
  0
VERTEX
  8
Layer1
 10
466.104
 20
186.301
  0
VERTEX
  8
Layer1
 10
466.065
 20
186.241
  0
VERTEX
  8
Layer1
 10
466.034
 20
186.177
  0
VERTEX
  8
Layer1
 10
466.01
 20
186.11
  0
VERTEX
  8
Layer1
 10
465.997
 20
186.04
  0
VERTEX
  8
Layer1
 10
465.991
 20
185.968
  0
VERTEX
  8
Layer1
 10
465.997
 20
185.897
  0
VERTEX
  8
Layer1
 10
466.01
 20
185.827
  0
VERTEX
  8
Layer1
 10
466.034
 20
185.759
  0
VERTEX
  8
Layer1
 10
466.065
 20
185.695
  0
VERTEX
  8
Layer1
 10
466.104
 20
185.636
  0
VERTEX
  8
Layer1
 10
466.152
 20
185.582
  0
VERTEX
  8
Layer1
 10
466.205
 20
185.535
  0
VERTEX
  8
Layer1
 10
466.265
 20
185.495
  0
VERTEX
  8
Layer1
 10
466.329
 20
185.464
  0
VERTEX
  8
Layer1
 10
466.397
 20
185.44
  0
VERTEX
  8
Layer1
 10
466.467
 20
185.427
  0
VERTEX
  8
Layer1
 10
466.538
 20
185.422
  0
VERTEX
  8
Layer1
 10
466.61
 20
185.427
  0
VERTEX
  8
Layer1
 10
466.68
 20
185.44
  0
VERTEX
  8
Layer1
 10
466.747
 20
185.464
  0
VERTEX
  8
Layer1
 10
466.81
 20
185.495
  0
VERTEX
  8
Layer1
 10
466.87
 20
185.535
  0
VERTEX
  8
Layer1
 10
466.923
 20
185.582
  0
VERTEX
  8
Layer1
 10
466.971
 20
185.636
  0
VERTEX
  8
Layer1
 10
467.01
 20
185.695
  0
VERTEX
  8
Layer1
 10
467.043
 20
185.759
  0
VERTEX
  8
Layer1
 10
467.065
 20
185.827
  0
VERTEX
  8
Layer1
 10
467.08
 20
185.897
  0
SEQEND
  0
LINE
  8
Layer1
  6
CONTINUOUS
 62
7
 10
458.777
 20
171.093
 11
458.777
 21
179.125
  0
LINE
  8
Layer1
  6
CONTINUOUS
 62
7
 10
464.777
 20
171.125
 11
464.777
 21
179.125
  0
LINE
  8
Layer1
  6
DASHED1
 62
7
 10
456.75
 20
179.125
 11
466.89
 21
179.125
  0
LINE
  8
Layer1
  6
CONTINUOUS
 62
7
 10
286.166
 20
164.125
 11
172.166
 21
164.125
  0
LINE
  8
Layer1
  6
CONTINUOUS
 62
7
 10
269.166
 20
129.125
 11
189.166
 21
129.125
  0
LINE
  8
Layer1
  6
CONTINUOUS
 62
7
 10
269.166
 20
219.926
 11
189.166
 21
219.926
  0
LINE
  8
Layer1
  6
DASHED1
 62
7
 10
188.166
 20
152.926
 11
188.166
 21
191.125
  0
LINE
  8
Layer1
  6
DASHED1
 62
7
 10
270.166
 20
152.926
 11
270.166
 21
191.125
  0
LINE
  8
Layer1
  6
DASHED1
 62
7
 10
270.166
 20
152.926
 11
268.166
 21
150.926
  0
LINE
  8
Layer1
  6
DASHED1
 62
7
 10
190.166
 20
150.926
 11
188.166
 21
152.926
  0
LINE
  8
Layer1
  6
DASHED1
 62
7
 10
190.166
 20
150.926
 11
268.166
 21
150.926
  0
LINE
  8
Layer1
  6
CENTER1
 62
7
 10
195.666
 20
126.215
 11
195.666
 21
143.114
  0
LINE
  8
Layer1
  6
CENTER1
 62
7
 10
187.367
 20
135.625
 11
204.375
 21
135.625
  0
LINE
  8
Layer1
  6
CENTER1
 62
7
 10
255.223
 20
157.625
 11
269.166
 21
157.625
  0
LINE
  8
Layer1
  6
CENTER1
 62
7
 10
262.666
 20
150.926
 11
262.666
 21
166.601
  0
CIRCLE
  8
Layer1
  6
CONTINUOUS
 62
7
 10
262.666
 20
157.625
 40
5
  0
CIRCLE
  8
Layer1
  6
CONTINUOUS
 62
7
 10
195.666
 20
135.625
 40
5
  0
POLYLINE
  8
Layer1
  6
CONTINUOUS
 62
7
 66
1
 10
0
 20
0
 30
0
 70
1
  0
VERTEX
  8
Layer1
 10
262.666
 20
160.486
  0
VERTEX
  8
Layer1
 10
260.188
 20
159.055
  0
VERTEX
  8
Layer1
 10
260.188
 20
156.196
  0
VERTEX
  8
Layer1
 10
262.666
 20
154.766
  0
VERTEX
  8
Layer1
 10
265.142
 20
156.196
  0
VERTEX
  8
Layer1
 10
265.142
 20
159.055
  0
SEQEND
  0
POLYLINE
  8
Layer1
  6
CONTINUOUS
 62
7
 66
1
 10
0
 20
0
 30
0
 70
1
  0
VERTEX
  8
Layer1
 10
195.666
 20
138.486
  0
VERTEX
  8
Layer1
 10
193.189
 20
137.055
  0
VERTEX
  8
Layer1
 10
193.189
 20
134.196
  0
VERTEX
  8
Layer1
 10
195.666
 20
132.766
  0
VERTEX
  8
Layer1
 10
198.143
 20
134.196
  0
VERTEX
  8
Layer1
 10
198.143
 20
137.055
  0
SEQEND
  0
LINE
  8
Layer1
  6
CONTINUOUS
 62
7
 10
286.166
 20
179.125
 11
172.166
 21
179.125
  0
LINE
  8
Layer1
  6
CONTINUOUS
 62
7
 10
286.166
 20
191.125
 11
172.166
 21
191.125
  0
LINE
  8
Layer1
  6
CONTINUOUS
 62
7
 10
188.166
 20
218.926
 11
188.166
 21
191.125
  0
LINE
  8
Layer1
  6
CONTINUOUS
 62
7
 10
270.166
 20
218.926
 11
270.166
 21
191.125
  0
LINE
  8
Layer1
  6
CENTER1
 62
7
 10
161.666
 20
103.217
 11
161.666
 21
128.143
  0
LINE
  8
Layer1
  6
CENTER1
 62
7
 10
296.666
 20
100.887
 11
296.666
 21
128.156
  0
LINE
  8
Layer1
  6
CONTINUOUS
 62
7
 10
528.827
 20
219.926
 11
490.827
 21
219.926
  0
LINE
  8
Layer1
  6
CONTINUOUS
 62
7
 10
483.827
 20
191.125
 11
488.827
 21
191.125
  0
LINE
  8
Layer1
  6
CONTINUOUS
 62
7
 10
429.827
 20
122.126
 11
488.574
 21
122.126
  0
LINE
  8
Layer1
  6
CONTINUOUS
 62
7
 10
428.82
 20
164.125
 11
410.827
 21
164.125
  0
LINE
  8
Layer1
  6
CONTINUOUS
 62
7
 10
428.82
 20
129.125
 11
410.827
 21
129.125
  0
LINE
  8
Layer1
  6
CONTINUOUS
 62
7
 10
409.827
 20
130.125
 11
409.827
 21
163.125
  0
LINE
  8
Layer1
  6
CONTINUOUS
 62
7
 10
410.827
 20
164.125
 11
409.827
 21
163.125
  0
LINE
  8
Layer1
  6
CONTINUOUS
 62
7
 10
409.827
 20
130.125
 11
410.827
 21
129.125
  0
LINE
  8
Layer1
  6
CONTINUOUS
 62
7
 10
429.818
 20
163.125
 11
428.818
 21
164.125
  0
LINE
  8
Layer1
  6
CONTINUOUS
 62
7
 10
429.818
 20
130.125
 11
428.818
 21
129.125
  0
LINE
  8
Layer1
  6
CENTER1
 62
7
 10
406.257
 20
157.625
 11
452.855
 21
157.625
  0
LINE
  8
Layer1
  6
CENTER1
 62
7
 10
406.046
 20
135.625
 11
436.255
 21
135.625
  0
LINE
  8
Layer1
  6
CONTINUOUS
 62
7
 10
529.827
 20
218.926
 11
529.827
 21
107.126
  0
LINE
  8
Layer1
  6
CONTINUOUS
 62
7
 10
519.827
 20
150.926
 11
529.827
 21
150.926
  0
LINE
  8
Layer1
  6
CONTINUOUS
 62
7
 10
489.827
 20
218.926
 11
489.827
 21
186.679
  0
LINE
  8
Layer1
  6
CONTINUOUS
 62
7
 10
529.827
 20
139.007
 11
489.827
 21
186.679
  0
LINE
  8
Layer1
  6
CONTINUOUS
 62
7
 10
430.818
 20
179.125
 11
479.827
 21
179.125
  0
LINE
  8
Layer1
  6
CONTINUOUS
 62
7
 10
488.827
 20
164.125
 11
430.818
 21
164.125
  0
LINE
  8
Layer1
  6
CONTINUOUS
 62
7
 10
429.82
 20
165.125
 11
430.818
 21
164.125
  0
LINE
  8
Layer1
  6
DASHED1
 62
7
 10
502.827
 20
219.926
 11
502.827
 21
188.926
  0
LINE
  8
Layer1
  6
DASHED1
 62
7
 10
516.827
 20
219.926
 11
516.827
 21
188.926
  0
LINE
  8
Layer1
  6
CONTINUOUS
 62
7
 10
482.827
 20
190.125
 11
482.827
 21
182.125
  0
LINE
  8
Layer1
  6
CONTINUOUS
 62
7
 10
489.827
 20
190.125
 11
489.827
 21
165.125
  0
LINE
  8
Layer1
  6
DASHED1
 62
7
 10
502.827
 20
183.926
 11
516.827
 21
183.926
  0
LINE
  8
Layer1
  6
CONTINUOUS
 62
7
 10
525.827
 20
219.926
 11
525.827
 21
178.926
  0
LINE
  8
Layer1
  6
CONTINUOUS
 62
7
 10
525.827
 20
178.926
 11
529.827
 21
178.926
  0
LINE
  8
Layer1
  6
DASHED1
 62
7
 10
516.827
 20
183.926
 11
509.827
 21
179.885
  0
LINE
  8
Layer1
  6
DASHED1
 62
7
 10
509.827
 20
179.885
 11
502.827
 21
183.926
  0
LINE
  8
Layer1
  6
CONTINUOUS
 62
7
 10
544.827
 20
119.126
 11
544.827
 21
190.125
  0
CIRCLE
  8
Layer1
  6
DASHED1
 62
7
 10
209.166
 20
117.626
 40
8
  0
LINE
  8
Layer1
  6
DASHED1
 62
7
 10
455.82
 20
125.626
 11
486.267
 21
125.626
  0
LINE
  8
Layer1
  6
DASHED1
 62
7
 10
455.82
 20
109.626
 11
491.813
 21
109.615
  0
LINE
  8
Layer1
  6
CONTINUOUS
 62
7
 10
455.82
 20
109.626
 11
455.82
 21
125.626
  0
LINE
  8
Layer1
  6
CONTINUOUS
 62
7
 10
483.372
 20
129.125
 11
529.827
 21
129.125
  0
POLYLINE
  8
Layer1
  6
CONTINUOUS
 62
7
 66
1
 10
0
 20
0
 30
0
  0
VERTEX
  8
Layer1
 10
500.176
 20
106.126
  0
VERTEX
  8
Layer1
 10
499.89
 20
106.871
  0
VERTEX
  8
Layer1
 10
499.584
 20
107.594
  0
VERTEX
  8
Layer1
 10
499.243
 20
108.271
  0
VERTEX
  8
Layer1
 10
498.844
 20
108.879
  0
VERTEX
  8
Layer1
 10
498.37
 20
109.397
  0
VERTEX
  8
Layer1
 10
497.805
 20
109.799
  0
VERTEX
  8
Layer1
 10
497.142
 20
110.087
  0
VERTEX
  8
Layer1
 10
496.414
 20
110.292
  0
VERTEX
  8
Layer1
 10
495.652
 20
110.453
  0
VERTEX
  8
Layer1
 10
494.892
 20
110.609
  0
VERTEX
  8
Layer1
 10
494.166
 20
110.801
  0
VERTEX
  8
Layer1
 10
493.51
 20
111.066
  0
VERTEX
  8
Layer1
 10
492.952
 20
111.444
  0
VERTEX
  8
Layer1
 10
492.515
 20
111.955
  0
VERTEX
  8
Layer1
 10
492.173
 20
112.576
  0
VERTEX
  8
Layer1
 10
491.904
 20
113.278
  0
VERTEX
  8
Layer1
 10
491.68
 20
114.031
  0
VERTEX
  8
Layer1
 10
491.474
 20
114.805
  0
VERTEX
  8
Layer1
 10
491.264
 20
115.576
  0
VERTEX
  8
Layer1
 10
491.036
 20
116.329
  0
VERTEX
  8
Layer1
 10
490.795
 20
117.068
  0
VERTEX
  8
Layer1
 10
490.538
 20
117.79
  0
VERTEX
  8
Layer1
 10
490.267
 20
118.499
  0
VERTEX
  8
Layer1
 10
489.981
 20
119.193
  0
VERTEX
  8
Layer1
 10
489.683
 20
119.873
  0
VERTEX
  8
Layer1
 10
489.37
 20
120.54
  0
VERTEX
  8
Layer1
 10
489.046
 20
121.196
  0
VERTEX
  8
Layer1
 10
488.709
 20
121.839
  0
VERTEX
  8
Layer1
 10
488.358
 20
122.47
  0
VERTEX
  8
Layer1
 10
487.998
 20
123.091
  0
VERTEX
  8
Layer1
 10
487.625
 20
123.701
  0
VERTEX
  8
Layer1
 10
487.241
 20
124.301
  0
VERTEX
  8
Layer1
 10
486.846
 20
124.891
  0
VERTEX
  8
Layer1
 10
486.442
 20
125.475
  0
VERTEX
  8
Layer1
 10
486.027
 20
126.049
  0
VERTEX
  8
Layer1
 10
485.604
 20
126.615
  0
VERTEX
  8
Layer1
 10
485.171
 20
127.174
  0
VERTEX
  8
Layer1
 10
484.729
 20
127.726
  0
VERTEX
  8
Layer1
 10
484.279
 20
128.271
  0
VERTEX
  8
Layer1
 10
483.82
 20
128.81
  0
VERTEX
  8
Layer1
 10
483.354
 20
129.343
  0
VERTEX
  8
Layer1
 10
482.88
 20
129.87
  0
VERTEX
  8
Layer1
 10
482.397
 20
130.393
  0
VERTEX
  8
Layer1
 10
481.909
 20
130.911
  0
VERTEX
  8
Layer1
 10
481.414
 20
131.423
  0
VERTEX
  8
Layer1
 10
480.911
 20
131.933
  0
VERTEX
  8
Layer1
 10
480.404
 20
132.438
  0
VERTEX
  8
Layer1
 10
479.889
 20
132.939
  0
VERTEX
  8
Layer1
 10
479.37
 20
133.437
  0
VERTEX
  8
Layer1
 10
478.844
 20
133.933
  0
VERTEX
  8
Layer1
 10
478.313
 20
134.426
  0
VERTEX
  8
Layer1
 10
477.779
 20
134.917
  0
VERTEX
  8
Layer1
 10
477.24
 20
135.406
  0
VERTEX
  8
Layer1
 10
476.695
 20
135.894
  0
VERTEX
  8
Layer1
 10
476.149
 20
136.381
  0
VERTEX
  8
Layer1
 10
475.598
 20
136.868
  0
VERTEX
  8
Layer1
 10
475.043
 20
137.354
  0
VERTEX
  8
Layer1
 10
474.486
 20
137.839
  0
VERTEX
  8
Layer1
 10
473.925
 20
138.326
  0
VERTEX
  8
Layer1
 10
473.363
 20
138.814
  0
VERTEX
  8
Layer1
 10
472.798
 20
139.302
  0
VERTEX
  8
Layer1
 10
472.231
 20
139.791
  0
VERTEX
  8
Layer1
 10
471.663
 20
140.283
  0
VERTEX
  8
Layer1
 10
471.094
 20
140.775
  0
VERTEX
  8
Layer1
 10
470.524
 20
141.272
  0
VERTEX
  8
Layer1
 10
469.952
 20
141.771
  0
VERTEX
  8
Layer1
 10
469.38
 20
142.273
  0
VERTEX
  8
Layer1
 10
468.808
 20
142.779
  0
VERTEX
  8
Layer1
 10
468.238
 20
143.287
  0
VERTEX
  8
Layer1
 10
467.666
 20
143.802
  0
VERTEX
  8
Layer1
 10
467.096
 20
144.32
  0
VERTEX
  8
Layer1
 10
466.527
 20
144.844
  0
VERTEX
  8
Layer1
 10
465.959
 20
145.372
  0
VERTEX
  8
Layer1
 10
465.394
 20
145.905
  0
VERTEX
  8
Layer1
 10
464.832
 20
146.446
  0
VERTEX
  8
Layer1
 10
464.274
 20
146.992
  0
VERTEX
  8
Layer1
 10
463.724
 20
147.545
  0
VERTEX
  8
Layer1
 10
463.183
 20
148.104
  0
VERTEX
  8
Layer1
 10
462.651
 20
148.67
  0
VERTEX
  8
Layer1
 10
462.132
 20
149.244
  0
VERTEX
  8
Layer1
 10
461.627
 20
149.825
  0
VERTEX
  8
Layer1
 10
461.137
 20
150.414
  0
VERTEX
  8
Layer1
 10
460.666
 20
151.01
  0
VERTEX
  8
Layer1
 10
460.212
 20
151.614
  0
VERTEX
  8
Layer1
 10
459.781
 20
152.229
  0
VERTEX
  8
Layer1
 10
459.372
 20
152.851
  0
VERTEX
  8
Layer1
 10
458.986
 20
153.482
  0
VERTEX
  8
Layer1
 10
458.628
 20
154.123
  0
VERTEX
  8
Layer1
 10
458.296
 20
154.774
  0
VERTEX
  8
Layer1
 10
457.995
 20
155.434
  0
VERTEX
  8
Layer1
 10
457.726
 20
156.105
  0
VERTEX
  8
Layer1
 10
457.49
 20
156.785
  0
VERTEX
  8
Layer1
 10
457.288
 20
157.476
  0
VERTEX
  8
Layer1
 10
457.123
 20
158.179
  0
VERTEX
  8
Layer1
 10
456.995
 20
158.893
  0
VERTEX
  8
Layer1
 10
456.909
 20
159.618
  0
VERTEX
  8
Layer1
 10
456.865
 20
160.355
  0
VERTEX
  8
Layer1
 10
456.854
 20
161.101
  0
VERTEX
  8
Layer1
 10
456.873
 20
161.854
  0
VERTEX
  8
Layer1
 10
456.914
 20
162.612
  0
VERTEX
  8
Layer1
 10
456.969
 20
163.372
  0
VERTEX
  8
Layer1
 10
457.031
 20
164.131
  0
VERTEX
  8
Layer1
 10
457.092
 20
164.887
  0
VERTEX
  8
Layer1
 10
457.146
 20
165.637
  0
VERTEX
  8
Layer1
 10
457.185
 20
166.381
  0
VERTEX
  8
Layer1
 10
457.202
 20
167.113
  0
VERTEX
  8
Layer1
 10
457.188
 20
167.832
  0
VERTEX
  8
Layer1
 10
457.14
 20
168.535
  0
VERTEX
  8
Layer1
 10
457.046
 20
169.22
  0
VERTEX
  8
Layer1
 10
456.902
 20
169.885
  0
VERTEX
  8
Layer1
 10
456.7
 20
170.525
  0
VERTEX
  8
Layer1
 10
456.443
 20
171.146
  0
VERTEX
  8
Layer1
 10
456.135
 20
171.744
  0
VERTEX
  8
Layer1
 10
455.777
 20
172.325
  0
VERTEX
  8
Layer1
 10
455.375
 20
172.886
  0
VERTEX
  8
Layer1
 10
454.93
 20
173.43
  0
VERTEX
  8
Layer1
 10
454.447
 20
173.959
  0
VERTEX
  8
Layer1
 10
453.926
 20
174.475
  0
VERTEX
  8
Layer1
 10
453.375
 20
174.976
  0
VERTEX
  8
Layer1
 10
452.793
 20
175.467
  0
VERTEX
  8
Layer1
 10
452.185
 20
175.946
  0
VERTEX
  8
Layer1
 10
451.555
 20
176.417
  0
VERTEX
  8
Layer1
 10
450.906
 20
176.881
  0
VERTEX
  8
Layer1
 10
450.238
 20
177.338
  0
VERTEX
  8
Layer1
 10
449.56
 20
177.79
  0
VERTEX
  8
Layer1
 10
448.872
 20
178.237
  0
VERTEX
  8
Layer1
 10
448.176
 20
178.682
  0
VERTEX
  8
Layer1
 10
447.478
 20
179.125
  0
SEQEND
  0
LINE
  8
Layer1
  6
DASHED1
 62
7
 10
430.818
 20
129.125
 11
483.372
 21
129.125
  0
LINE
  8
Layer1
  6
CONTINUOUS
 62
7
 10
429.818
 20
130.125
 11
430.818
 21
129.125
  0
LINE
  8
Layer1
  6
CONTINUOUS
 62
7
 10
430.818
 20
164.125
 11
429.818
 21
163.125
  0
LINE
  8
Layer1
  6
CONTINUOUS
 62
7
 10
489.827
 20
165.125
 11
488.827
 21
164.125
  0
LINE
  8
Layer1
  6
CONTINUOUS
 62
7
 10
489.827
 20
190.125
 11
488.827
 21
191.125
  0
LINE
  8
Layer1
  6
CONTINUOUS
 62
7
 10
483.827
 20
191.125
 11
482.827
 21
190.125
  0
ARC
  8
Layer1
  6
CONTINUOUS
 62
7
 10
479.827
 20
182.125
 40
3
 50
270
 51
2.03555e-013
  0
LINE
  8
Layer1
  6
CONTINUOUS
 62
7
 10
485.349
 20
164.125
 11
508.752
 21
164.125
  0
LINE
  8
Layer1
  6
CONTINUOUS
 62
7
 10
530.827
 20
118.126
 11
543.827
 21
118.126
  0
LINE
  8
Layer1
  6
CONTINUOUS
 62
7
 10
530.827
 20
191.125
 11
543.827
 21
191.125
  0
LINE
  8
Layer1
  6
CONTINUOUS
 62
7
 10
543.827
 20
191.125
 11
544.827
 21
190.125
  0
LINE
  8
Layer1
  6
CONTINUOUS
 62
7
 10
543.827
 20
118.126
 11
544.827
 21
119.126
  0
LINE
  8
Layer1
  6
CONTINUOUS
 62
7
 10
529.827
 20
190.125
 11
530.827
 21
191.125
  0
LINE
  8
Layer1
  6
CONTINUOUS
 62
7
 10
529.827
 20
119.126
 11
530.827
 21
118.126
  0
LINE
  8
Layer1
  6
CONTINUOUS
 62
7
 10
529.827
 20
107.126
 11
528.827
 21
106.126
  0
LINE
  8
Layer1
  6
CENTER1
 62
7
 10
525.792
 20
134.125
 11
547.039
 21
134.125
  0
LINE
  8
Layer1
  6
DASHED1
 62
7
 10
529.827
 20
137.125
 11
544.827
 21
137.125
  0
LINE
  8
Layer1
  6
DASHED1
 62
7
 10
529.827
 20
137.625
 11
544.827
 21
137.625
  0
LINE
  8
Layer1
  6
DASHED1
 62
7
 10
530.562
 20
131.125
 11
542.562
 21
131.125
  0
LINE
  8
Layer1
  6
DASHED1
 62
7
 10
529.827
 20
130.625
 11
544.827
 21
130.625
  0
LINE
  8
Layer1
  6
CENTER1
 62
7
 10
525.971
 20
183.125
 11
560.545
 21
183.125
  0
LINE
  8
Layer1
  6
CENTER1
 62
7
 10
526.985
 20
181.125
 11
558.283
 21
181.125
  0
LINE
  8
Layer1
  6
CENTER1
 62
7
 10
525.845
 20
156.125
 11
558.099
 21
156.125
  0
LINE
  8
Layer1
  6
CENTER1
 62
7
 10
526.403
 20
131.125
 11
557.433
 21
131.125
  0
LINE
  8
Layer1
  6
CONTINUOUS
 62
7
 10
490.827
 20
219.926
 11
489.827
 21
218.926
  0
LINE
  8
Layer1
  6
CONTINUOUS
 62
7
 10
528.827
 20
219.926
 11
529.827
 21
218.926
  0
LINE
  8
Layer1
  6
CENTER1
 62
7
 10
439.827
 20
161.242
 11
439.827
 21
181.01
  0
LINE
  8
Layer1
  6
CENTER1
 62
7
 10
461.82
 20
159.625
 11
461.82
 21
193.658
  0
LINE
  8
Layer1
  6
CONTINUOUS
 62
7
 10
471.82
 20
168.125
 11
471.82
 21
164.125
  0
LINE
  8
Layer1
  6
DASHED1
 62
7
 10
451.82
 20
168.125
 11
451.82
 21
164.125
  0
LINE
  8
Layer1
  6
CONTINUOUS
 62
7
 10
456.372
 20
171.125
 11
468.82
 21
171.125
  0
ARC
  8
Layer1
  6
DASHED1
 62
7
 10
454.82
 20
168.125
 40
3
 50
90
 51
180
  0
ARC
  8
Layer1
  6
CONTINUOUS
 62
7
 10
468.82
 20
168.125
 40
3
 50
0
 51
90
  0
LINE
  8
Layer1
  6
DASHED1
 62
7
 10
456.372
 20
171.125
 11
454.82
 21
171.125
  0
LINE
  8
Layer1
  6
CONTINUOUS
 62
7
 10
409.825
 20
352.854
 11
409.825
 21
430.854
  0
LINE
  8
Layer1
  6
CONTINUOUS
 62
7
 10
429.827
 20
319.854
 11
429.827
 21
360.354
  0
LINE
  8
Layer1
  6
CONTINUOUS
 62
7
 10
482.827
 20
334.854
 11
482.827
 21
448.854
  0
LINE
  8
Layer1
  6
CONTINUOUS
 62
7
 10
529.827
 20
319.854
 11
529.827
 21
360.354
  0
LINE
  8
Layer1
  6
CONTINUOUS
 62
7
 10
529.827
 20
437.854
 11
529.827
 21
433.854
  0
LINE
  8
Layer1
  6
CONTINUOUS
 62
7
 10
529.827
 20
435.854
 11
529.827
 21
360.354
  0
LINE
  8
Layer1
  6
CONTINUOUS
 62
7
 10
429.827
 20
463.854
 11
429.827
 21
423.354
  0
LINE
  8
Layer1
  6
CONTINUOUS
 62
7
 10
429.827
 20
448.854
 11
429.827
 21
352.854
  0
LINE
  8
Layer1
  6
CENTER1
 62
7
 10
404.012
 20
425.354
 11
437.178
 21
425.354
  0
LINE
  8
Layer1
  6
CENTER1
 62
7
 10
404.406
 20
358.354
 11
436.784
 21
358.354
  0
LINE
  8
Layer1
  6
CONTINUOUS
 62
7
 10
489.827
 20
334.854
 11
489.827
 21
448.854
  0
LINE
  8
Layer1
  6
CONTINUOUS
 62
7
 10
529.827
 20
433.854
 11
529.827
 21
463.854
  0
LINE
  8
Layer1
  6
CONTINUOUS
 62
7
 10
529.827
 20
334.854
 11
529.827
 21
349.854
  0
LINE
  8
Layer1
  6
DASHED1
 62
7
 10
502.327
 20
392.854
 11
489.827
 21
392.854
  0
LINE
  8
Layer1
  6
DASHED1
 62
7
 10
502.327
 20
390.854
 11
489.827
 21
390.854
  0
LINE
  8
Layer1
  6
DASHED1
 62
7
 10
517.327
 20
390.854
 11
524.827
 21
390.854
  0
LINE
  8
Layer1
  6
DASHED1
 62
7
 10
517.327
 20
392.854
 11
524.827
 21
392.854
  0
CIRCLE
  8
Layer1
  6
CONTINUOUS
 62
7
 10
439.827
 20
324.354
 40
7
  0
CIRCLE
  8
Layer1
  6
CONTINUOUS
 62
7
 10
439.827
 20
324.354
 40
4.5
  0
LINE
  8
Layer1
  6
CENTER1
 62
7
 10
439.827
 20
332.301
 11
439.827
 21
315.129
  0
LINE
  8
Layer1
  6
CENTER1
 62
7
 10
430.98
 20
324.354
 11
449.145
 21
324.354
  0
CIRCLE
  8
Layer1
  6
CONTINUOUS
 62
7
 10
439.827
 20
459.354
 40
7
  0
CIRCLE
  8
Layer1
  6
CONTINUOUS
 62
7
 10
439.827
 20
459.354
 40
4.5
  0
LINE
  8
Layer1
  6
CENTER1
 62
7
 10
439.827
 20
471.265
 11
439.827
 21
447.574
  0
LINE
  8
Layer1
  6
CENTER1
 62
7
 10
430.939
 20
459.354
 11
450.574
 21
459.354
  0
CIRCLE
  8
Layer1
  6
CONTINUOUS
 62
7
 10
519.827
 20
459.354
 40
7
  0
CIRCLE
  8
Layer1
  6
CONTINUOUS
 62
7
 10
519.827
 20
459.354
 40
4.5
  0
LINE
  8
Layer1
  6
CENTER1
 62
7
 10
519.827
 20
474.625
 11
519.827
 21
450.869
  0
LINE
  8
Layer1
  6
CENTER1
 62
7
 10
509.536
 20
459.354
 11
533.865
 21
459.354
  0
POLYLINE
  8
Layer1
  6
CONTINUOUS
 62
7
 66
1
 10
0
 20
0
 30
0
  0
VERTEX
  8
Layer1
 10
409.827
 20
146.625
  0
VERTEX
  8
Layer1
 10
410.154
 20
146.863
  0
VERTEX
  8
Layer1
 10
410.479
 20
147.098
  0
VERTEX
  8
Layer1
 10
410.805
 20
147.33
  0
VERTEX
  8
Layer1
 10
411.132
 20
147.555
  0
VERTEX
  8
Layer1
 10
411.459
 20
147.774
  0
VERTEX
  8
Layer1
 10
411.784
 20
147.982
  0
VERTEX
  8
Layer1
 10
412.111
 20
148.179
  0
VERTEX
  8
Layer1
 10
412.437
 20
148.363
  0
VERTEX
  8
Layer1
 10
412.762
 20
148.531
  0
VERTEX
  8
Layer1
 10
413.089
 20
148.684
  0
VERTEX
  8
Layer1
 10
413.414
 20
148.816
  0
VERTEX
  8
Layer1
 10
413.741
 20
148.928
  0
VERTEX
  8
Layer1
 10
414.067
 20
149.017
  0
VERTEX
  8
Layer1
 10
414.392
 20
149.082
  0
VERTEX
  8
Layer1
 10
414.719
 20
149.119
  0
VERTEX
  8
Layer1
 10
415.045
 20
149.129
  0
VERTEX
  8
Layer1
 10
415.372
 20
149.107
  0
VERTEX
  8
Layer1
 10
415.697
 20
149.054
  0
VERTEX
  8
Layer1
 10
416.024
 20
148.967
  0
VERTEX
  8
Layer1
 10
416.349
 20
148.849
  0
VERTEX
  8
Layer1
 10
416.676
 20
148.705
  0
VERTEX
  8
Layer1
 10
417
 20
148.539
  0
VERTEX
  8
Layer1
 10
417.325
 20
148.357
  0
VERTEX
  8
Layer1
 10
417.647
 20
148.162
  0
VERTEX
  8
Layer1
 10
417.969
 20
147.962
  0
VERTEX
  8
Layer1
 10
418.289
 20
147.757
  0
VERTEX
  8
Layer1
 10
418.608
 20
147.558
  0
VERTEX
  8
Layer1
 10
418.925
 20
147.363
  0
VERTEX
  8
Layer1
 10
419.238
 20
147.183
  0
VERTEX
  8
Layer1
 10
419.551
 20
147.018
  0
VERTEX
  8
Layer1
 10
419.86
 20
146.875
  0
VERTEX
  8
Layer1
 10
420.166
 20
146.759
  0
VERTEX
  8
Layer1
 10
420.469
 20
146.673
  0
VERTEX
  8
Layer1
 10
420.767
 20
146.625
  0
VERTEX
  8
Layer1
 10
421.063
 20
146.616
  0
VERTEX
  8
Layer1
 10
421.356
 20
146.643
  0
VERTEX
  8
Layer1
 10
421.647
 20
146.708
  0
VERTEX
  8
Layer1
 10
421.935
 20
146.804
  0
VERTEX
  8
Layer1
 10
422.219
 20
146.929
  0
VERTEX
  8
Layer1
 10
422.503
 20
147.082
  0
VERTEX
  8
Layer1
 10
422.786
 20
147.259
  0
VERTEX
  8
Layer1
 10
423.068
 20
147.458
  0
VERTEX
  8
Layer1
 10
423.349
 20
147.674
  0
VERTEX
  8
Layer1
 10
423.63
 20
147.909
  0
VERTEX
  8
Layer1
 10
423.911
 20
148.155
  0
VERTEX
  8
Layer1
 10
424.193
 20
148.412
  0
VERTEX
  8
Layer1
 10
424.478
 20
148.678
  0
VERTEX
  8
Layer1
 10
424.762
 20
148.947
  0
VERTEX
  8
Layer1
 10
425.05
 20
149.22
  0
VERTEX
  8
Layer1
 10
425.339
 20
149.493
  0
VERTEX
  8
Layer1
 10
425.63
 20
149.762
  0
VERTEX
  8
Layer1
 10
425.925
 20
150.025
  0
VERTEX
  8
Layer1
 10
426.224
 20
150.28
  0
VERTEX
  8
Layer1
 10
426.526
 20
150.524
  0
VERTEX
  8
Layer1
 10
426.832
 20
150.755
  0
VERTEX
  8
Layer1
 10
427.144
 20
150.968
  0
VERTEX
  8
Layer1
 10
427.459
 20
151.161
  0
VERTEX
  8
Layer1
 10
427.781
 20
151.333
  0
VERTEX
  8
Layer1
 10
428.11
 20
151.479
  0
VERTEX
  8
Layer1
 10
428.443
 20
151.599
  0
VERTEX
  8
Layer1
 10
428.783
 20
151.693
  0
VERTEX
  8
Layer1
 10
429.127
 20
151.768
  0
VERTEX
  8
Layer1
 10
429.474
 20
151.831
  0
VERTEX
  8
Layer1
 10
429.82
 20
151.887
  0
SEQEND
  0
LINE
  8
Layer1
  6
DASHED1
 62
7
 10
440.825
 20
160.125
 11
447.926
 21
160.125
  0
LINE
  8
Layer1
  6
DASHED1
 62
7
 10
440.825
 20
155.125
 11
447.926
 21
155.125
  0
LINE
  8
Layer1
  6
DASHED1
 62
7
 10
447.926
 20
160.125
 11
447.926
 21
155.125
  0
LINE
  8
Layer1
  6
DASHED1
 62
7
 10
447.926
 20
155.125
 11
447.926
 21
155.446
  0
LINE
  8
Layer1
  6
DASHED1
 62
7
 10
444.368
 20
154.625
 11
444.368
 21
155.75
  0
LINE
  8
Layer1
  6
DASHED1
 62
7
 10
447.926
 20
160.125
 11
449.368
 21
157.625
  0
LINE
  8
Layer1
  6
DASHED1
 62
7
 10
449.368
 20
157.625
 11
447.926
 21
155.125
  0
LINE
  8
Layer1
  6
CONTINUOUS
 62
7
 10
410.827
 20
153.625
 11
410.827
 21
161.625
  0
LINE
  8
Layer1
  6
CONTINUOUS
 62
7
 10
411.827
 20
162.625
 11
416.827
 21
162.625
  0
LINE
  8
Layer1
  6
CONTINUOUS
 62
7
 10
411.827
 20
152.625
 11
416.827
 21
152.625
  0
LINE
  8
Layer1
  6
CONTINUOUS
 62
7
 10
416.825
 20
163.125
 11
416.825
 21
152.125
  0
LINE
  8
Layer1
  6
DASHED1
 62
7
 10
444.368
 20
154.625
 11
429.82
 21
154.625
  0
LINE
  8
Layer1
  6
CONTINUOUS
 62
7
 10
416.825
 20
160.125
 11
429.82
 21
160.125
  0
LINE
  8
Layer1
  6
CONTINUOUS
 62
7
 10
416.825
 20
155.125
 11
429.82
 21
155.125
  0
LINE
  8
Layer1
  6
DASHED1
 62
7
 10
440.825
 20
160.625
 11
441.825
 21
159.625
  0
LINE
  8
Layer1
  6
DASHED1
 62
7
 10
441.825
 20
155.625
 11
440.825
 21
154.625
  0
LINE
  8
Layer1
  6
CONTINUOUS
 62
7
 10
410.827
 20
153.625
 11
411.827
 21
152.625
  0
LINE
  8
Layer1
  6
CONTINUOUS
 62
7
 10
416.827
 20
163.125
 11
409.827
 21
163.125
  0
LINE
  8
Layer1
  6
CONTINUOUS
 62
7
 10
416.827
 20
152.125
 11
409.827
 21
152.125
  0
LINE
  8
Layer1
  6
DASHED1
 62
7
 10
444.368
 20
160.625
 11
429.818
 21
160.625
  0
LINE
  8
Layer1
  6
DASHED1
 62
7
 10
444.368
 20
160.625
 11
445.235
 21
160.125
  0
LINE
  8
Layer1
  6
DASHED1
 62
7
 10
444.368
 20
154.625
 11
445.235
 21
155.125
  0
LINE
  8
Layer1
  6
DASHED1
 62
7
 10
445.235
 20
160.125
 11
445.235
 21
155.125
  0
LINE
  8
Layer1
  6
CONTINUOUS
 62
7
 10
411.827
 20
162.625
 11
411.827
 21
152.625
  0
LINE
  8
Layer1
  6
CONTINUOUS
 62
7
 10
429.818
 20
160.625
 11
416.825
 21
160.625
  0
LINE
  8
Layer1
  6
DASHED1
 62
7
 10
429.82
 20
160.125
 11
447.926
 21
160.125
  0
LINE
  8
Layer1
  6
DASHED1
 62
7
 10
429.818
 20
155.125
 11
447.926
 21
155.125
  0
LINE
  8
Layer1
  6
CONTINUOUS
 62
7
 10
429.82
 20
154.625
 11
416.825
 21
154.625
  0
LINE
  8
Layer1
  6
CONTINUOUS
 62
7
 10
411.827
 20
162.625
 11
416.827
 21
162.625
  0
LINE
  8
Layer1
  6
CONTINUOUS
 62
7
 10
410.827
 20
161.625
 11
411.827
 21
162.625
  0
LINE
  8
Layer1
  6
CONTINUOUS
 62
7
 10
416.827
 20
162.625
 11
411.827
 21
162.625
  0
LINE
  8
Layer1
  6
CONTINUOUS
 62
7
 10
416.577
 20
162.125
 11
412.077
 21
162.125
  0
LINE
  8
Layer1
  6
CONTINUOUS
 62
7
 10
416.077
 20
161.125
 11
412.577
 21
161.125
  0
LINE
  8
Layer1
  6
CONTINUOUS
 62
7
 10
415.577
 20
160.125
 11
413.077
 21
160.125
  0
LINE
  8
Layer1
  6
DASHED1
 62
7
 10
441.825
 20
159.625
 11
441.825
 21
155.625
  0
LINE
  8
Layer1
  6
DASHED1
 62
7
 10
440.825
 20
160.625
 11
440.825
 21
154.625
  0
LINE
  8
Layer1
  6
CONTINUOUS
 62
7
 10
269.166
 20
163.125
 11
269.166
 21
129.125
  0
LINE
  8
Layer1
  6
CONTINUOUS
 62
7
 10
189.166
 20
129.125
 11
189.166
 21
163.125
  0
LINE
  8
Layer1
  6
CONTINUOUS
 62
7
 10
306.166
 20
107.126
 11
306.166
 21
121.126
  0
LINE
  8
Layer1
  6
CONTINUOUS
 62
7
 10
152.166
 20
107.126
 11
152.166
 21
121.126
  0
LINE
  8
Layer1
  6
CONTINUOUS
 62
7
 10
171.166
 20
163.125
 11
171.166
 21
125.126
  0
LINE
  8
Layer1
  6
CONTINUOUS
 62
7
 10
287.166
 20
163.125
 11
287.166
 21
125.126
  0
ARC
  8
Layer1
  6
CONTINUOUS
 62
7
 10
168.166
 20
125.126
 40
3
 50
270
 51
2.03555e-013
  0
ARC
  8
Layer1
  6
CONTINUOUS
 62
7
 10
290.166
 20
125.126
 40
3
 50
180
 51
270
  0
LINE
  8
Layer1
  6
CONTINUOUS
 62
7
 10
190.166
 20
164.125
 11
189.166
 21
163.125
  0
LINE
  8
Layer1
  6
CONTINUOUS
 62
7
 10
189.166
 20
130.125
 11
190.166
 21
129.125
  0
LINE
  8
Layer1
  6
CONTINUOUS
 62
7
 10
268.166
 20
129.125
 11
269.166
 21
130.125
  0
LINE
  8
Layer1
  6
CONTINUOUS
 62
7
 10
269.166
 20
163.125
 11
268.166
 21
164.125
  0
LINE
  8
Layer1
  6
CONTINUOUS
 62
7
 10
171.166
 20
163.125
 11
172.166
 21
164.125
  0
LINE
  8
Layer1
  6
CONTINUOUS
 62
7
 10
286.166
 20
164.125
 11
287.166
 21
163.125
  0
LINE
  8
Layer1
  6
CONTINUOUS
 62
7
 10
171.166
 20
190.125
 11
171.166
 21
165.125
  0
LINE
  8
Layer1
  6
CONTINUOUS
 62
7
 10
286.166
 20
164.125
 11
172.166
 21
164.125
  0
LINE
  8
Layer1
  6
CONTINUOUS
 62
7
 10
287.166
 20
190.125
 11
287.166
 21
165.125
  0
LINE
  8
Layer1
  6
CONTINUOUS
 62
7
 10
172.166
 20
191.125
 11
171.166
 21
190.125
  0
LINE
  8
Layer1
  6
CONTINUOUS
 62
7
 10
171.166
 20
165.125
 11
172.166
 21
164.125
  0
LINE
  8
Layer1
  6
CONTINUOUS
 62
7
 10
286.166
 20
164.125
 11
287.166
 21
165.125
  0
LINE
  8
Layer1
  6
CONTINUOUS
 62
7
 10
287.166
 20
190.125
 11
286.166
 21
191.125
  0
LINE
  8
Layer1
  6
CONTINUOUS
 62
7
 10
172.166
 20
179.125
 11
171.166
 21
178.125
  0
LINE
  8
Layer1
  6
CONTINUOUS
 62
7
 10
286.166
 20
179.125
 11
287.166
 21
178.125
  0
LINE
  8
Layer1
  6
CENTER1
 62
7
 10
262.666
 20
126.215
 11
262.666
 21
143.114
  0
LINE
  8
Layer1
  6
CENTER1
 62
7
 10
254.367
 20
135.625
 11
271.375
 21
135.625
  0
CIRCLE
  8
Layer1
  6
CONTINUOUS
 62
7
 10
262.666
 20
135.625
 40
5
  0
POLYLINE
  8
Layer1
  6
CONTINUOUS
 62
7
 66
1
 10
0
 20
0
 30
0
 70
1
  0
VERTEX
  8
Layer1
 10
262.666
 20
138.486
  0
VERTEX
  8
Layer1
 10
260.188
 20
137.055
  0
VERTEX
  8
Layer1
 10
260.188
 20
134.196
  0
VERTEX
  8
Layer1
 10
262.666
 20
132.766
  0
VERTEX
  8
Layer1
 10
265.142
 20
134.196
  0
VERTEX
  8
Layer1
 10
265.142
 20
137.055
  0
SEQEND
  0
LINE
  8
Layer1
  6
CENTER1
 62
7
 10
195.666
 20
148.214
 11
195.666
 21
165.114
  0
LINE
  8
Layer1
  6
CENTER1
 62
7
 10
187.367
 20
157.625
 11
204.375
 21
157.625
  0
CIRCLE
  8
Layer1
  6
CONTINUOUS
 62
7
 10
195.666
 20
157.625
 40
5
  0
POLYLINE
  8
Layer1
  6
CONTINUOUS
 62
7
 66
1
 10
0
 20
0
 30
0
 70
1
  0
VERTEX
  8
Layer1
 10
195.666
 20
160.486
  0
VERTEX
  8
Layer1
 10
193.189
 20
159.055
  0
VERTEX
  8
Layer1
 10
193.189
 20
156.196
  0
VERTEX
  8
Layer1
 10
195.666
 20
154.766
  0
VERTEX
  8
Layer1
 10
198.143
 20
156.196
  0
VERTEX
  8
Layer1
 10
198.143
 20
159.055
  0
SEQEND
  0
LINE
  8
Layer1
  6
CENTER1
 62
7
 10
179.666
 20
185.552
 11
179.666
 21
150.834
  0
LINE
  8
Layer1
  6
CENTER1
 62
7
 10
278.666
 20
184.762
 11
278.666
 21
151.624
  0
LINE
  8
Layer1
  6
CONTINUOUS
 62
7
 10
153.166
 20
122.126
 11
152.166
 21
121.126
  0
LINE
  8
Layer1
  6
CONTINUOUS
 62
7
 10
152.166
 20
107.126
 11
153.166
 21
106.126
  0
LINE
  8
Layer1
  6
CONTINUOUS
 62
7
 10
305.166
 20
122.126
 11
306.166
 21
121.126
  0
LINE
  8
Layer1
  6
CONTINUOUS
 62
7
 10
306.166
 20
107.126
 11
305.166
 21
106.126
  0
LINE
  8
Layer1
  6
CONTINUOUS
 62
7
 10
188.166
 20
218.926
 11
189.166
 21
219.926
  0
LINE
  8
Layer1
  6
CONTINUOUS
 62
7
 10
269.166
 20
219.926
 11
270.166
 21
218.926
  0
LINE
  8
Layer1
  6
CONTINUOUS
 62
7
 10
544.827
 20
190.631
 11
550.602
 21
190.631
  0
LINE
  8
Layer1
  6
CONTINUOUS
 62
7
 10
550.602
 20
190.631
 11
551.327
 21
189.375
  0
LINE
  8
Layer1
  6
CONTINUOUS
 62
7
 10
551.327
 20
189.375
 11
551.327
 21
176.875
  0
LINE
  8
Layer1
  6
CONTINUOUS
 62
7
 10
551.327
 20
176.875
 11
550.602
 21
175.619
  0
LINE
  8
Layer1
  6
CONTINUOUS
 62
7
 10
550.602
 20
175.619
 11
544.827
 21
175.619
  0
LINE
  8
Layer1
  6
CONTINUOUS
 62
7
 10
544.827
 20
186.879
 11
550.602
 21
186.879
  0
LINE
  8
Layer1
  6
CONTINUOUS
 62
7
 10
544.827
 20
179.373
 11
550.602
 21
179.373
  0
LINE
  8
Layer1
  6
CONTINUOUS
 62
7
 10
551.827
 20
185.926
 11
551.827
 21
180.326
  0
LINE
  8
Layer1
  6
CONTINUOUS
 62
7
 10
551.327
 20
186.426
 11
551.827
 21
185.926
  0
LINE
  8
Layer1
  6
CONTINUOUS
 62
7
 10
551.327
 20
179.826
 11
551.827
 21
180.326
  0
ARC
  8
Layer1
  6
CONTINUOUS
 62
7
 10
538.764
 20
183.125
 40
12.419
 50
342.412
 51
17.588
  0
ARC
  8
Layer1
  6
CONTINUOUS
 62
7
 10
547.861
 20
188.755
 40
3.323
 50
325.616
 51
34.384
  0
ARC
  8
Layer1
  6
CONTINUOUS
 62
7
 10
547.861
 20
177.497
 40
3.323
 50
325.616
 51
34.384
  0
LINE
  8
Layer1
  6
CONTINUOUS
 62
7
 10
544.827
 20
190.631
 11
544.827
 21
175.619
  0
LINE
  8
Layer1
  6
DASHED1
 62
7
 10
544.827
 20
189.125
 11
544.827
 21
173.125
  0
LINE
  8
Layer1
  6
DASHED1
 62
7
 10
544.827
 20
189.125
 11
554.227
 21
189.125
  0
LINE
  8
Layer1
  6
DASHED1
 62
7
 10
544.827
 20
173.125
 11
554.227
 21
173.125
  0
LINE
  8
Layer1
  6
DASHED1
 62
7
 10
554.227
 20
189.125
 11
554.227
 21
173.125
  0
LINE
  8
Layer1
  6
DASHED1
 62
7
 10
554.827
 20
188.525
 11
554.827
 21
173.726
  0
LINE
  8
Layer1
  6
DASHED1
 62
7
 10
554.227
 20
189.125
 11
554.827
 21
188.525
  0
LINE
  8
Layer1
  6
DASHED1
 62
7
 10
554.227
 20
173.125
 11
554.827
 21
173.726
  0
LINE
  8
Layer1
  6
DASHED1
 62
7
 10
545.415
 20
188.125
 11
553.64
 21
188.125
  0
LINE
  8
Layer1
  6
DASHED1
 62
7
 10
546.003
 20
187.125
 11
553.053
 21
187.125
  0
LINE
  8
Layer1
  6
DASHED1
 62
7
 10
546.591
 20
186.125
 11
552.466
 21
186.125
  0
LINE
  8
Layer1
  6
DASHED1
 62
7
 10
547.178
 20
185.125
 11
551.878
 21
185.125
  0
LINE
  8
Layer1
  6
DASHED1
 62
7
 10
547.765
 20
184.125
 11
551.29
 21
184.125
  0
LINE
  8
Layer1
  6
DASHED1
 62
7
 10
548.352
 20
183.125
 11
550.702
 21
183.125
  0
LINE
  8
Layer1
  6
CONTINUOUS
 62
7
 10
544.827
 20
164.125
 11
544.827
 21
148.125
  0
LINE
  8
Layer1
  6
CONTINUOUS
 62
7
 10
544.827
 20
164.125
 11
554.227
 21
164.125
  0
LINE
  8
Layer1
  6
CONTINUOUS
 62
7
 10
544.827
 20
148.125
 11
554.227
 21
148.125
  0
LINE
  8
Layer1
  6
CONTINUOUS
 62
7
 10
554.227
 20
164.125
 11
554.227
 21
148.125
  0
LINE
  8
Layer1
  6
CONTINUOUS
 62
7
 10
554.827
 20
163.525
 11
554.827
 21
148.726
  0
LINE
  8
Layer1
  6
CONTINUOUS
 62
7
 10
554.227
 20
164.125
 11
554.827
 21
163.525
  0
LINE
  8
Layer1
  6
CONTINUOUS
 62
7
 10
554.227
 20
148.125
 11
554.827
 21
148.726
  0
LINE
  8
Layer1
  6
CONTINUOUS
 62
7
 10
545.415
 20
163.125
 11
553.64
 21
163.125
  0
LINE
  8
Layer1
  6
CONTINUOUS
 62
7
 10
546.003
 20
162.125
 11
553.053
 21
162.125
  0
LINE
  8
Layer1
  6
CONTINUOUS
 62
7
 10
546.591
 20
161.125
 11
552.466
 21
161.125
  0
LINE
  8
Layer1
  6
CONTINUOUS
 62
7
 10
547.178
 20
160.125
 11
551.878
 21
160.125
  0
LINE
  8
Layer1
  6
CONTINUOUS
 62
7
 10
547.765
 20
159.125
 11
551.29
 21
159.125
  0
LINE
  8
Layer1
  6
CONTINUOUS
 62
7
 10
548.352
 20
158.125
 11
550.702
 21
158.125
  0
LINE
  8
Layer1
  6
CONTINUOUS
 62
7
 10
544.827
 20
139.125
 11
544.827
 21
123.126
  0
LINE
  8
Layer1
  6
CONTINUOUS
 62
7
 10
544.827
 20
139.125
 11
554.227
 21
139.125
  0
LINE
  8
Layer1
  6
CONTINUOUS
 62
7
 10
544.827
 20
123.126
 11
554.227
 21
123.126
  0
LINE
  8
Layer1
  6
CONTINUOUS
 62
7
 10
554.227
 20
139.125
 11
554.227
 21
123.126
  0
LINE
  8
Layer1
  6
CONTINUOUS
 62
7
 10
554.827
 20
138.525
 11
554.827
 21
123.726
  0
LINE
  8
Layer1
  6
CONTINUOUS
 62
7
 10
554.227
 20
139.125
 11
554.827
 21
138.525
  0
LINE
  8
Layer1
  6
CONTINUOUS
 62
7
 10
554.227
 20
123.126
 11
554.827
 21
123.726
  0
LINE
  8
Layer1
  6
CONTINUOUS
 62
7
 10
545.415
 20
138.125
 11
553.64
 21
138.125
  0
LINE
  8
Layer1
  6
CONTINUOUS
 62
7
 10
546.003
 20
137.125
 11
553.053
 21
137.125
  0
LINE
  8
Layer1
  6
CONTINUOUS
 62
7
 10
546.591
 20
136.125
 11
552.466
 21
136.125
  0
LINE
  8
Layer1
  6
CONTINUOUS
 62
7
 10
547.178
 20
135.125
 11
551.878
 21
135.125
  0
LINE
  8
Layer1
  6
CONTINUOUS
 62
7
 10
547.765
 20
134.125
 11
551.29
 21
134.125
  0
LINE
  8
Layer1
  6
CONTINUOUS
 62
7
 10
548.352
 20
133.125
 11
550.702
 21
133.125
  0
LINE
  8
Layer1
  6
CONTINUOUS
 62
7
 10
524.827
 20
468.854
 11
434.827
 21
468.854
  0
LINE
  8
Layer1
  6
CONTINUOUS
 62
7
 10
434.827
 20
314.854
 11
524.827
 21
314.854
  0
LINE
  8
Layer1
  6
CONTINUOUS
 62
7
 10
410.825
 20
431.854
 11
428.827
 21
431.854
  0
LINE
  8
Layer1
  6
CONTINUOUS
 62
7
 10
528.827
 20
432.854
 11
490.827
 21
432.854
  0
LINE
  8
Layer1
  6
CONTINUOUS
 62
7
 10
428.827
 20
351.854
 11
410.825
 21
351.854
  0
LINE
  8
Layer1
  6
CONTINUOUS
 62
7
 10
528.827
 20
350.854
 11
490.827
 21
350.854
  0
LINE
  8
Layer1
  6
CONTINUOUS
 62
7
 10
483.827
 20
333.854
 11
429.827
 21
333.854
  0
LINE
  8
Layer1
  6
CONTINUOUS
 62
7
 10
430.827
 20
449.854
 11
483.827
 21
449.854
  0
LINE
  8
Layer1
  6
CONTINUOUS
 62
7
 10
429.827
 20
463.854
 11
434.827
 21
468.854
  0
LINE
  8
Layer1
  6
CONTINUOUS
 62
7
 10
524.827
 20
468.854
 11
529.827
 21
463.854
  0
LINE
  8
Layer1
  6
CONTINUOUS
 62
7
 10
529.827
 20
319.854
 11
524.827
 21
314.854
  0
LINE
  8
Layer1
  6
CONTINUOUS
 62
7
 10
429.827
 20
319.854
 11
434.827
 21
314.854
  0
LINE
  8
Layer1
  6
CONTINUOUS
 62
7
 10
529.827
 20
179.125
 11
528.172
 21
179.125
  0
LINE
  8
Layer1
  6
CONTINUOUS
 62
7
 10
529.827
 20
187.125
 11
528.172
 21
187.125
  0
LINE
  8
Layer1
  6
CONTINUOUS
 62
7
 10
528.172
 20
179.125
 11
528.172
 21
187.125
  0
LINE
  8
Layer1
  6
CONTINUOUS
 62
7
 10
526.971
 20
180.326
 11
526.971
 21
185.926
  0
LINE
  8
Layer1
  6
CONTINUOUS
 62
7
 10
528.172
 20
179.125
 11
526.971
 21
180.326
  0
LINE
  8
Layer1
  6
CONTINUOUS
 62
7
 10
528.172
 20
187.125
 11
526.971
 21
185.926
  0
LINE
  8
Layer1
  6
CONTINUOUS
 62
7
 10
529.827
 20
179.726
 11
527.572
 21
179.726
  0
LINE
  8
Layer1
  6
CONTINUOUS
 62
7
 10
529.827
 20
186.525
 11
527.572
 21
186.525
  0
LINE
  8
Layer1
  6
DASHED1
 62
7
 10
430.827
 20
431.854
 11
529.827
 21
431.854
  0
LINE
  8
Layer1
  6
DASHED1
 62
7
 10
430.827
 20
351.854
 11
529.827
 21
351.854
  0
LINE
  8
Layer1
  6
CONTINUOUS
 62
7
 10
429.827
 20
430.854
 11
428.827
 21
431.854
  0
LINE
  8
Layer1
  6
CONTINUOUS
 62
7
 10
410.825
 20
431.854
 11
409.825
 21
430.854
  0
LINE
  8
Layer1
  6
CONTINUOUS
 62
7
 10
410.825
 20
351.854
 11
409.825
 21
352.854
  0
LINE
  8
Layer1
  6
CONTINUOUS
 62
7
 10
428.827
 20
351.854
 11
429.827
 21
352.854
  0
LINE
  8
Layer1
  6
CONTINUOUS
 62
7
 10
430.827
 20
431.854
 11
429.827
 21
430.854
  0
LINE
  8
Layer1
  6
CONTINUOUS
 62
7
 10
429.827
 20
352.854
 11
430.827
 21
351.854
  0
LINE
  8
Layer1
  6
CONTINUOUS
 62
7
 10
490.827
 20
432.854
 11
489.827
 21
431.854
  0
LINE
  8
Layer1
  6
CONTINUOUS
 62
7
 10
489.827
 20
351.854
 11
490.827
 21
350.854
  0
LINE
  8
Layer1
  6
CONTINUOUS
 62
7
 10
488.827
 20
449.854
 11
483.827
 21
449.854
  0
LINE
  8
Layer1
  6
CONTINUOUS
 62
7
 10
528.827
 20
449.854
 11
490.827
 21
449.854
  0
LINE
  8
Layer1
  6
CONTINUOUS
 62
7
 10
488.827
 20
333.854
 11
483.827
 21
333.854
  0
LINE
  8
Layer1
  6
CONTINUOUS
 62
7
 10
528.827
 20
333.854
 11
490.827
 21
333.854
  0
LINE
  8
Layer1
  6
CONTINUOUS
 62
7
 10
430.827
 20
449.854
 11
429.827
 21
448.854
  0
LINE
  8
Layer1
  6
CONTINUOUS
 62
7
 10
482.827
 20
448.854
 11
483.827
 21
449.854
  0
LINE
  8
Layer1
  6
CONTINUOUS
 62
7
 10
482.827
 20
334.854
 11
483.827
 21
333.854
  0
LINE
  8
Layer1
  6
CONTINUOUS
 62
7
 10
490.827
 20
449.854
 11
489.827
 21
448.854
  0
LINE
  8
Layer1
  6
CONTINUOUS
 62
7
 10
489.827
 20
448.854
 11
488.827
 21
449.854
  0
LINE
  8
Layer1
  6
CONTINUOUS
 62
7
 10
489.827
 20
334.854
 11
490.827
 21
333.854
  0
LINE
  8
Layer1
  6
CONTINUOUS
 62
7
 10
489.827
 20
334.854
 11
488.827
 21
333.854
  0
LINE
  8
Layer1
  6
CONTINUOUS
 62
7
 10
529.827
 20
431.854
 11
528.827
 21
432.854
  0
LINE
  8
Layer1
  6
CONTINUOUS
 62
7
 10
528.827
 20
350.854
 11
529.827
 21
351.854
  0
LINE
  8
Layer1
  6
CONTINUOUS
 62
7
 10
544.827
 20
333.854
 11
544.827
 21
449.854
  0
LINE
  8
Layer1
  6
CONTINUOUS
 62
7
 10
530.827
 20
332.854
 11
543.827
 21
332.854
  0
LINE
  8
Layer1
  6
CONTINUOUS
 62
7
 10
530.827
 20
450.854
 11
543.827
 21
450.854
  0
LINE
  8
Layer1
  6
CONTINUOUS
 62
7
 10
543.827
 20
450.854
 11
544.827
 21
449.854
  0
LINE
  8
Layer1
  6
CONTINUOUS
 62
7
 10
544.827
 20
333.854
 11
543.827
 21
332.854
  0
LINE
  8
Layer1
  6
CONTINUOUS
 62
7
 10
529.827
 20
333.854
 11
530.827
 21
332.854
  0
LINE
  8
Layer1
  6
CONTINUOUS
 62
7
 10
529.827
 20
449.854
 11
530.827
 21
450.854
  0
LINE
  8
Layer1
  6
CONTINUOUS
 62
7
 10
544.827
 20
399.36
 11
550.602
 21
399.36
  0
LINE
  8
Layer1
  6
CONTINUOUS
 62
7
 10
550.602
 20
399.36
 11
551.327
 21
398.104
  0
LINE
  8
Layer1
  6
CONTINUOUS
 62
7
 10
551.327
 20
398.104
 11
551.327
 21
385.604
  0
LINE
  8
Layer1
  6
CONTINUOUS
 62
7
 10
551.327
 20
385.604
 11
550.602
 21
384.348
  0
LINE
  8
Layer1
  6
CONTINUOUS
 62
7
 10
550.602
 20
384.348
 11
544.827
 21
384.348
  0
LINE
  8
Layer1
  6
CONTINUOUS
 62
7
 10
544.827
 20
395.606
 11
550.602
 21
395.606
  0
LINE
  8
Layer1
  6
CONTINUOUS
 62
7
 10
544.827
 20
388.101
 11
550.602
 21
388.101
  0
LINE
  8
Layer1
  6
CONTINUOUS
 62
7
 10
551.827
 20
394.654
 11
551.827
 21
389.053
  0
LINE
  8
Layer1
  6
CONTINUOUS
 62
7
 10
551.327
 20
395.154
 11
551.827
 21
394.654
  0
LINE
  8
Layer1
  6
CONTINUOUS
 62
7
 10
551.327
 20
388.553
 11
551.827
 21
389.053
  0
ARC
  8
Layer1
  6
CONTINUOUS
 62
7
 10
538.764
 20
391.854
 40
12.419
 50
342.412
 51
17.588
  0
ARC
  8
Layer1
  6
CONTINUOUS
 62
7
 10
547.861
 20
397.483
 40
3.323
 50
325.616
 51
34.384
  0
ARC
  8
Layer1
  6
CONTINUOUS
 62
7
 10
547.861
 20
386.224
 40
3.323
 50
325.616
 51
34.384
  0
LINE
  8
Layer1
  6
CONTINUOUS
 62
7
 10
544.827
 20
399.36
 11
544.827
 21
384.348
  0
LINE
  8
Layer1
  6
CONTINUOUS
 62
7
 10
544.827
 20
449.354
 11
544.827
 21
433.354
  0
LINE
  8
Layer1
  6
CONTINUOUS
 62
7
 10
544.827
 20
449.354
 11
554.227
 21
449.354
  0
LINE
  8
Layer1
  6
CONTINUOUS
 62
7
 10
544.827
 20
433.354
 11
554.227
 21
433.354
  0
LINE
  8
Layer1
  6
CONTINUOUS
 62
7
 10
554.227
 20
449.354
 11
554.227
 21
433.354
  0
LINE
  8
Layer1
  6
CONTINUOUS
 62
7
 10
554.827
 20
448.753
 11
554.827
 21
433.954
  0
LINE
  8
Layer1
  6
CONTINUOUS
 62
7
 10
554.227
 20
449.354
 11
554.827
 21
448.753
  0
LINE
  8
Layer1
  6
CONTINUOUS
 62
7
 10
554.227
 20
433.354
 11
554.827
 21
433.954
  0
LINE
  8
Layer1
  6
CONTINUOUS
 62
7
 10
545.415
 20
448.354
 11
553.64
 21
448.354
  0
LINE
  8
Layer1
  6
CONTINUOUS
 62
7
 10
546.003
 20
447.354
 11
553.053
 21
447.354
  0
LINE
  8
Layer1
  6
CONTINUOUS
 62
7
 10
546.591
 20
446.354
 11
552.466
 21
446.354
  0
LINE
  8
Layer1
  6
CONTINUOUS
 62
7
 10
547.178
 20
445.354
 11
551.878
 21
445.354
  0
LINE
  8
Layer1
  6
CONTINUOUS
 62
7
 10
547.765
 20
444.354
 11
551.29
 21
444.354
  0
LINE
  8
Layer1
  6
CONTINUOUS
 62
7
 10
548.352
 20
443.354
 11
550.702
 21
443.354
  0
LINE
  8
Layer1
  6
CONTINUOUS
 62
7
 10
544.827
 20
350.354
 11
544.827
 21
334.354
  0
LINE
  8
Layer1
  6
CONTINUOUS
 62
7
 10
544.827
 20
350.354
 11
554.227
 21
350.354
  0
LINE
  8
Layer1
  6
CONTINUOUS
 62
7
 10
544.827
 20
334.354
 11
554.227
 21
334.354
  0
LINE
  8
Layer1
  6
CONTINUOUS
 62
7
 10
554.227
 20
350.354
 11
554.227
 21
334.354
  0
LINE
  8
Layer1
  6
CONTINUOUS
 62
7
 10
554.827
 20
349.753
 11
554.827
 21
334.954
  0
LINE
  8
Layer1
  6
CONTINUOUS
 62
7
 10
554.227
 20
350.354
 11
554.827
 21
349.753
  0
LINE
  8
Layer1
  6
CONTINUOUS
 62
7
 10
554.227
 20
334.354
 11
554.827
 21
334.954
  0
LINE
  8
Layer1
  6
CONTINUOUS
 62
7
 10
545.415
 20
349.354
 11
553.64
 21
349.354
  0
LINE
  8
Layer1
  6
CONTINUOUS
 62
7
 10
546.003
 20
348.354
 11
553.053
 21
348.354
  0
LINE
  8
Layer1
  6
CONTINUOUS
 62
7
 10
546.591
 20
347.354
 11
552.466
 21
347.354
  0
LINE
  8
Layer1
  6
CONTINUOUS
 62
7
 10
547.178
 20
346.354
 11
551.878
 21
346.354
  0
LINE
  8
Layer1
  6
CONTINUOUS
 62
7
 10
547.765
 20
345.354
 11
551.29
 21
345.354
  0
LINE
  8
Layer1
  6
CONTINUOUS
 62
7
 10
548.352
 20
344.354
 11
550.702
 21
344.354
  0
LINE
  8
Layer1
  6
CONTINUOUS
 62
7
 10
529.827
 20
396.354
 11
524.827
 21
396.354
  0
LINE
  8
Layer1
  6
CONTINUOUS
 62
7
 10
529.827
 20
387.354
 11
524.827
 21
387.354
  0
LINE
  8
Layer1
  6
CONTINUOUS
 62
7
 10
524.827
 20
387.354
 11
524.827
 21
396.354
  0
LINE
  8
Layer1
  6
CONTINUOUS
 62
7
 10
529.827
 20
387.854
 11
527.028
 21
387.854
  0
LINE
  8
Layer1
  6
CONTINUOUS
 62
7
 10
529.827
 20
395.854
 11
527.028
 21
395.854
  0
LINE
  8
Layer1
  6
CONTINUOUS
 62
7
 10
527.028
 20
387.854
 11
527.028
 21
395.854
  0
LINE
  8
Layer1
  6
CONTINUOUS
 62
7
 10
525.827
 20
389.053
 11
525.827
 21
394.654
  0
LINE
  8
Layer1
  6
CONTINUOUS
 62
7
 10
527.028
 20
387.854
 11
525.827
 21
389.053
  0
LINE
  8
Layer1
  6
CONTINUOUS
 62
7
 10
527.028
 20
395.854
 11
525.827
 21
394.654
  0
LINE
  8
Layer1
  6
CONTINUOUS
 62
7
 10
529.827
 20
388.454
 11
526.428
 21
388.454
  0
LINE
  8
Layer1
  6
CONTINUOUS
 62
7
 10
529.827
 20
395.253
 11
526.428
 21
395.253
  0
LINE
  8
Layer1
  6
CENTER1
 62
7
 10
508.598
 20
324.354
 11
536.572
 21
324.354
  0
LINE
  8
Layer1
  6
CENTER1
 62
7
 10
523.486
 20
342.354
 11
556.909
 21
342.354
  0
LINE
  8
Layer1
  6
CENTER1
 62
7
 10
524.67
 20
441.354
 11
559.175
 21
441.354
  0
CIRCLE
  8
Layer1
  6
CONTINUOUS
 62
7
 10
471.827
 20
441.354
 40
6.5
  0
POLYLINE
  8
Layer1
  6
CONTINUOUS
 62
7
 66
1
 10
0
 20
0
 30
0
 70
1
  0
VERTEX
  8
Layer1
 10
471.827
 20
444.784
  0
VERTEX
  8
Layer1
 10
468.858
 20
443.068
  0
VERTEX
  8
Layer1
 10
468.858
 20
439.639
  0
VERTEX
  8
Layer1
 10
471.827
 20
437.923
  0
VERTEX
  8
Layer1
 10
474.798
 20
439.639
  0
VERTEX
  8
Layer1
 10
474.798
 20
443.068
  0
SEQEND
  0
CIRCLE
  8
Layer1
  6
CONTINUOUS
 62
7
 10
471.827
 20
441.354
 40
3.43
  0
LINE
  8
Layer1
  6
CENTER1
 62
7
 10
439.827
 20
432.5
 11
439.827
 21
451.125
  0
LINE
  8
Layer1
  6
CENTER1
 62
7
 10
471.827
 20
433.161
 11
471.827
 21
451.068
  0
LINE
  8
Layer1
  6
CENTER1
 62
7
 10
439.827
 20
349.363
 11
439.827
 21
331.354
  0
LINE
  8
Layer1
  6
CENTER1
 62
7
 10
471.827
 20
351.914
 11
471.827
 21
334.961
  0
CIRCLE
  8
Layer1
  6
CONTINUOUS
 62
7
 10
439.827
 20
441.354
 40
6.5
  0
POLYLINE
  8
Layer1
  6
CONTINUOUS
 62
7
 66
1
 10
0
 20
0
 30
0
 70
1
  0
VERTEX
  8
Layer1
 10
439.827
 20
444.784
  0
VERTEX
  8
Layer1
 10
436.858
 20
443.068
  0
VERTEX
  8
Layer1
 10
436.858
 20
439.639
  0
VERTEX
  8
Layer1
 10
439.827
 20
437.923
  0
VERTEX
  8
Layer1
 10
442.798
 20
439.639
  0
VERTEX
  8
Layer1
 10
442.798
 20
443.068
  0
SEQEND
  0
CIRCLE
  8
Layer1
  6
CONTINUOUS
 62
7
 10
439.827
 20
441.354
 40
3.43
  0
LINE
  8
Layer1
  6
CENTER1
 62
7
 10
463.327
 20
441.354
 11
480.839
 21
441.354
  0
LINE
  8
Layer1
  6
CENTER1
 62
7
 10
428.503
 20
441.354
 11
448.801
 21
441.354
  0
CIRCLE
  8
Layer1
  6
CONTINUOUS
 62
7
 10
471.827
 20
342.354
 40
6.5
  0
POLYLINE
  8
Layer1
  6
CONTINUOUS
 62
7
 66
1
 10
0
 20
0
 30
0
 70
1
  0
VERTEX
  8
Layer1
 10
471.827
 20
345.784
  0
VERTEX
  8
Layer1
 10
468.858
 20
344.068
  0
VERTEX
  8
Layer1
 10
468.858
 20
340.639
  0
VERTEX
  8
Layer1
 10
471.827
 20
338.923
  0
VERTEX
  8
Layer1
 10
474.798
 20
340.639
  0
VERTEX
  8
Layer1
 10
474.798
 20
344.068
  0
SEQEND
  0
CIRCLE
  8
Layer1
  6
CONTINUOUS
 62
7
 10
471.827
 20
342.354
 40
3.43
  0
CIRCLE
  8
Layer1
  6
CONTINUOUS
 62
7
 10
439.827
 20
342.354
 40
6.5
  0
POLYLINE
  8
Layer1
  6
CONTINUOUS
 62
7
 66
1
 10
0
 20
0
 30
0
 70
1
  0
VERTEX
  8
Layer1
 10
439.827
 20
345.784
  0
VERTEX
  8
Layer1
 10
436.858
 20
344.068
  0
VERTEX
  8
Layer1
 10
436.858
 20
340.639
  0
VERTEX
  8
Layer1
 10
439.827
 20
338.923
  0
VERTEX
  8
Layer1
 10
442.798
 20
340.639
  0
VERTEX
  8
Layer1
 10
442.798
 20
344.068
  0
SEQEND
  0
CIRCLE
  8
Layer1
  6
CONTINUOUS
 62
7
 10
439.827
 20
342.354
 40
3.43
  0
LINE
  8
Layer1
  6
CENTER1
 62
7
 10
463.327
 20
342.354
 11
480.839
 21
342.354
  0
LINE
  8
Layer1
  6
CENTER1
 62
7
 10
429.695
 20
342.354
 11
448.801
 21
342.354
  0
LINE
  8
Layer1
  6
CONTINUOUS
 62
7
 10
529.827
 20
349.854
 11
528.827
 21
350.854
  0
LINE
  8
Layer1
  6
CONTINUOUS
 62
7
 10
529.827
 20
334.854
 11
528.827
 21
333.854
  0
LINE
  8
Layer1
  6
CONTINUOUS
 62
7
 10
528.827
 20
449.854
 11
529.827
 21
448.854
  0
LINE
  8
Layer1
  6
CONTINUOUS
 62
7
 10
528.827
 20
432.854
 11
529.827
 21
433.854
  0
LINE
  8
Layer1
  6
CENTER1
 62
7
 10
479.827
 20
471.265
 11
479.827
 21
450.62
  0
CIRCLE
  8
Layer1
  6
CONTINUOUS
 62
7
 10
479.827
 20
459.354
 40
7
  0
CIRCLE
  8
Layer1
  6
CONTINUOUS
 62
7
 10
479.827
 20
459.354
 40
4.5
  0
LINE
  8
Layer1
  6
CENTER1
 62
7
 10
470.485
 20
459.354
 11
490.011
 21
459.354
  0
CIRCLE
  8
Layer1
  6
CONTINUOUS
 62
7
 10
479.827
 20
324.354
 40
7
  0
CIRCLE
  8
Layer1
  6
CONTINUOUS
 62
7
 10
479.827
 20
324.354
 40
4.5
  0
LINE
  8
Layer1
  6
CENTER1
 62
7
 10
469.646
 20
324.354
 11
488.776
 21
324.354
  0
LINE
  8
Layer1
  6
CENTER1
 62
7
 10
479.827
 20
335.625
 11
479.827
 21
315.606
  0
LINE
  8
Layer1
  6
CONTINUOUS
 62
7
 10
517.327
 20
403.854
 11
517.327
 21
379.854
  0
LINE
  8
Layer1
  6
CONTINUOUS
 62
7
 10
502.327
 20
403.854
 11
502.327
 21
379.854
  0
LINE
  8
Layer1
  6
CONTINUOUS
 62
7
 10
505.327
 20
406.854
 11
514.327
 21
406.854
  0
LINE
  8
Layer1
  6
CONTINUOUS
 62
7
 10
505.327
 20
376.854
 11
514.327
 21
376.854
  0
ARC
  8
Layer1
  6
CONTINUOUS
 62
7
 10
505.327
 20
403.854
 40
3
 50
90
 51
180
  0
ARC
  8
Layer1
  6
CONTINUOUS
 62
7
 10
514.327
 20
403.854
 40
3
 50
0
 51
90
  0
ARC
  8
Layer1
  6
CONTINUOUS
 62
7
 10
514.327
 20
379.854
 40
3
 50
270
 51
2.03555e-013
  0
ARC
  8
Layer1
  6
CONTINUOUS
 62
7
 10
505.327
 20
379.854
 40
3
 50
180
 51
270
  0
CIRCLE
  8
Layer1
  6
DASHED1
 62
7
 10
249.166
 20
117.488
 40
8
  0
LINE
  8
Layer1
  6
CONTINUOUS
 62
7
 10
305.166
 20
106.126
 11
320.178
 21
106.126
  0
TEXT
  8
Layer1
 62
7
 10
296.666
 20
146.625
 72
1
 11
296.666
 21
146.625
 40
6
 41
1
 50
90
  1
 22 
  0
LINE
  8
Layer1
  6
CONTINUOUS
 62
7
 10
271.375
 20
135.625
 11
298.666
 21
135.625
  0
LINE
  8
Layer1
  6
CONTINUOUS
 62
7
 10
267.666
 20
157.625
 11
298.666
 21
157.625
  0
POLYLINE
  8
Layer1
  6
CONTINUOUS
 62
7
 66
1
 10
0
 20
0
 30
0
  0
VERTEX
  8
Layer1
 10
296.666
 20
135.625
  0
VERTEX
  8
Layer1
 10
296.666
 20
157.625
  0
SEQEND
  0
POLYLINE
  8
Layer1
  6
CONTINUOUS
 62
7
 66
1
 10
0
 20
0
 30
0
 70
1
  0
VERTEX
  8
Layer1
 10
297.7
 20
139.489
  0
VERTEX
  8
Layer1
 10
296.666
 20
135.625
  0
VERTEX
  8
Layer1
 10
295.63
 20
139.489
  0
SEQEND
  0
POLYLINE
  8
Layer1
  6
CONTINUOUS
 62
7
 66
1
 10
0
 20
0
 30
0
 70
1
  0
VERTEX
  8
Layer1
 10
295.63
 20
153.762
  0
VERTEX
  8
Layer1
 10
296.666
 20
157.625
  0
VERTEX
  8
Layer1
 10
297.7
 20
153.762
  0
SEQEND
  0
TEXT
  8
Layer1
 62
7
 10
309.269
 20
146.625
 72
1
 11
309.269
 21
146.625
 40
6
 41
1
 50
90
  1
 35 
  0
LINE
  8
Layer1
  6
CONTINUOUS
 62
7
 10
268.166
 20
164.125
 11
311.269
 21
164.125
  0
LINE
  8
Layer1
  6
CONTINUOUS
 62
7
 10
268.166
 20
129.125
 11
311.269
 21
129.125
  0
POLYLINE
  8
Layer1
  6
CONTINUOUS
 62
7
 66
1
 10
0
 20
0
 30
0
  0
VERTEX
  8
Layer1
 10
309.269
 20
164.125
  0
VERTEX
  8
Layer1
 10
309.269
 20
129.125
  0
SEQEND
  0
POLYLINE
  8
Layer1
  6
CONTINUOUS
 62
7
 66
1
 10
0
 20
0
 30
0
 70
1
  0
VERTEX
  8
Layer1
 10
308.233
 20
160.262
  0
VERTEX
  8
Layer1
 10
309.269
 20
164.125
  0
VERTEX
  8
Layer1
 10
310.305
 20
160.262
  0
SEQEND
  0
POLYLINE
  8
Layer1
  6
CONTINUOUS
 62
7
 66
1
 10
0
 20
0
 30
0
 70
1
  0
VERTEX
  8
Layer1
 10
310.305
 20
132.989
  0
VERTEX
  8
Layer1
 10
309.269
 20
129.125
  0
VERTEX
  8
Layer1
 10
308.233
 20
132.989
  0
SEQEND
  0
TEXT
  8
Layer1
 62
7
 10
333.197
 20
126.376
 72
1
 11
333.197
 21
126.376
 40
6
 41
1
 50
90
  1
 40.5 
  0
LINE
  8
Layer1
  6
CONTINUOUS
 62
7
 10
281.55
 20
146.625
 11
335.197
 21
146.625
  0
LINE
  8
Layer1
  6
CONTINUOUS
 62
7
 10
305.166
 20
106.126
 11
335.197
 21
106.126
  0
POLYLINE
  8
Layer1
  6
CONTINUOUS
 62
7
 66
1
 10
0
 20
0
 30
0
  0
VERTEX
  8
Layer1
 10
333.197
 20
146.625
  0
VERTEX
  8
Layer1
 10
333.197
 20
106.126
  0
SEQEND
  0
POLYLINE
  8
Layer1
  6
CONTINUOUS
 62
7
 66
1
 10
0
 20
0
 30
0
 70
1
  0
VERTEX
  8
Layer1
 10
332.161
 20
142.762
  0
VERTEX
  8
Layer1
 10
333.197
 20
146.625
  0
VERTEX
  8
Layer1
 10
334.233
 20
142.762
  0
SEQEND
  0
POLYLINE
  8
Layer1
  6
CONTINUOUS
 62
7
 66
1
 10
0
 20
0
 30
0
 70
1
  0
VERTEX
  8
Layer1
 10
334.233
 20
109.99
  0
VERTEX
  8
Layer1
 10
333.197
 20
106.126
  0
VERTEX
  8
Layer1
 10
332.161
 20
109.99
  0
SEQEND
  0
TEXT
  8
Layer1
 62
7
 10
348.469
 20
142.625
 72
1
 11
348.469
 21
142.625
 40
6
 41
1
 50
90
  1
 73 
  0
LINE
  8
Layer1
  6
CONTINUOUS
 62
7
 10
283.62
 20
179.125
 11
350.469
 21
179.125
  0
LINE
  8
Layer1
  6
CONTINUOUS
 62
7
 10
333.197
 20
106.126
 11
350.469
 21
106.126
  0
POLYLINE
  8
Layer1
  6
CONTINUOUS
 62
7
 66
1
 10
0
 20
0
 30
0
  0
VERTEX
  8
Layer1
 10
348.469
 20
179.125
  0
VERTEX
  8
Layer1
 10
348.469
 20
106.126
  0
SEQEND
  0
POLYLINE
  8
Layer1
  6
CONTINUOUS
 62
7
 66
1
 10
0
 20
0
 30
0
 70
1
  0
VERTEX
  8
Layer1
 10
347.435
 20
175.262
  0
VERTEX
  8
Layer1
 10
348.469
 20
179.125
  0
VERTEX
  8
Layer1
 10
349.505
 20
175.262
  0
SEQEND
  0
POLYLINE
  8
Layer1
  6
CONTINUOUS
 62
7
 66
1
 10
0
 20
0
 30
0
 70
1
  0
VERTEX
  8
Layer1
 10
349.505
 20
109.99
  0
VERTEX
  8
Layer1
 10
348.469
 20
106.126
  0
VERTEX
  8
Layer1
 10
347.435
 20
109.99
  0
SEQEND
  0
TEXT
  8
Layer1
 62
7
 10
339.437
 20
125.626
 72
1
 11
339.437
 21
125.626
 40
6
 41
1
 50
90
  1
(中心間距離）
  0
TEXT
  8
Layer1
 62
7
 10
229.166
 20
92.4655
 72
1
 11
229.166
 21
92.4655
 40
6
 41
1
  1
 67 
  0
LINE
  8
Layer1
  6
CONTINUOUS
 62
7
 10
195.666
 20
126.215
 11
195.666
 21
90.4655
  0
LINE
  8
Layer1
  6
CONTINUOUS
 62
7
 10
262.666
 20
126.215
 11
262.666
 21
90.4655
  0
POLYLINE
  8
Layer1
  6
CONTINUOUS
 62
7
 66
1
 10
0
 20
0
 30
0
  0
VERTEX
  8
Layer1
 10
195.666
 20
92.4655
  0
VERTEX
  8
Layer1
 10
262.666
 20
92.4655
  0
SEQEND
  0
POLYLINE
  8
Layer1
  6
CONTINUOUS
 62
7
 66
1
 10
0
 20
0
 30
0
 70
1
  0
VERTEX
  8
Layer1
 10
199.53
 20
91.4305
  0
VERTEX
  8
Layer1
 10
195.666
 20
92.4655
  0
VERTEX
  8
Layer1
 10
199.53
 20
93.5015
  0
SEQEND
  0
POLYLINE
  8
Layer1
  6
CONTINUOUS
 62
7
 66
1
 10
0
 20
0
 30
0
 70
1
  0
VERTEX
  8
Layer1
 10
258.801
 20
93.5015
  0
VERTEX
  8
Layer1
 10
262.666
 20
92.4655
  0
VERTEX
  8
Layer1
 10
258.801
 20
91.4305
  0
SEQEND
  0
TEXT
  8
Layer1
 62
7
 10
229.166
 20
79.7385
 72
1
 11
229.166
 21
79.7385
 40
6
 41
1
  1
 80 
  0
LINE
  8
Layer1
  6
CONTINUOUS
 62
7
 10
189.166
 20
132.893
 11
189.166
 21
77.7385
  0
LINE
  8
Layer1
  6
CONTINUOUS
 62
7
 10
269.166
 20
132.607
 11
269.166
 21
77.7385
  0
POLYLINE
  8
Layer1
  6
CONTINUOUS
 62
7
 66
1
 10
0
 20
0
 30
0
  0
VERTEX
  8
Layer1
 10
189.166
 20
79.7385
  0
VERTEX
  8
Layer1
 10
269.166
 20
79.7385
  0
SEQEND
  0
POLYLINE
  8
Layer1
  6
CONTINUOUS
 62
7
 66
1
 10
0
 20
0
 30
0
 70
1
  0
VERTEX
  8
Layer1
 10
193.03
 20
78.7035
  0
VERTEX
  8
Layer1
 10
189.166
 20
79.7385
  0
VERTEX
  8
Layer1
 10
193.03
 20
80.7735
  0
SEQEND
  0
POLYLINE
  8
Layer1
  6
CONTINUOUS
 62
7
 66
1
 10
0
 20
0
 30
0
 70
1
  0
VERTEX
  8
Layer1
 10
265.301
 20
80.7735
  0
VERTEX
  8
Layer1
 10
269.166
 20
79.7385
  0
VERTEX
  8
Layer1
 10
265.301
 20
78.7035
  0
SEQEND
  0
LINE
  8
Layer1
  6
DASHED1
 62
7
 10
489.825
 20
186.926
 11
502.827
 21
186.926
  0
LINE
  8
Layer1
  6
DASHED1
 62
7
 10
516.568
 20
186.926
 11
525.827
 21
186.926
  0
LINE
  8
Layer1
  6
DASHED1
 62
7
 10
502.827
 20
186.926
 11
502.827
 21
183.926
  0
LINE
  8
Layer1
  6
DASHED1
 62
7
 10
516.827
 20
186.926
 11
516.827
 21
183.926
  0
LINE
  8
Layer1
  6
DASHED1
 62
7
 10
489.822
 20
188.926
 11
502.827
 21
188.926
  0
LINE
  8
Layer1
  6
DASHED1
 62
7
 10
516.827
 20
188.926
 11
525.827
 21
188.926
  0
LINE
  8
Layer1
  6
CONTINUOUS
 62
7
 10
519.019
 20
188.926
 11
519.019
 21
186.926
  0
LINE
  8
Layer1
  6
CONTINUOUS
 62
7
 10
494.709
 20
188.926
 11
494.709
 21
186.926
  0
LINE
  8
Layer1
  6
PHANTOM1
 62
7
 10
528.827
 20
196.125
 11
490.827
 21
196.125
  0
LINE
  8
Layer1
  6
PHANTOM1
 62
7
 10
490.827
 20
196.125
 11
489.827
 21
195.125
  0
LINE
  8
Layer1
  6
PHANTOM1
 62
7
 10
528.827
 20
196.125
 11
529.827
 21
195.125
  0
LINE
  8
Layer1
  6
PHANTOM1
 62
7
 10
509.827
 20
139.007
 11
488.752
 21
164.125
  0
LINE
  8
Layer1
  6
PHANTOM1
 62
7
 10
509.827
 20
139.007
 11
509.827
 21
129.125
  0
TEXT
  8
Layer1
 62
7
 10
517.593
 20
172.624
 72
1
 11
517.593
 21
172.624
 40
6
 41
1
 50
20
  1
 40°
  0
ARC
  8
Layer1
  6
CONTINUOUS
 62
7
 10
529.827
 20
139.007
 40
35.7725
 50
90
 51
130
  0
LINE
  8
Layer1
  6
CONTINUOUS
 62
7
 10
529.827
 20
150.926
 11
529.827
 21
162.453
  0
LINE
  8
Layer1
  6
CONTINUOUS
 62
7
 10
528.827
 20
106.126
 11
583.942
 21
106.126
  0
LINE
  8
Layer1
  6
CONTINUOUS
 62
7
 10
472.46
 20
179.094
 11
487.428
 21
164.125
  0
LINE
  8
Layer1
  6
CONTINUOUS
 62
7
 10
480.419
 20
179.136
 11
489.827
 21
169.726
  0
LINE
  8
Layer1
  6
CONTINUOUS
 62
7
 10
482.827
 20
184.726
 11
489.827
 21
177.726
  0
LINE
  8
Layer1
  6
CONTINUOUS
 62
7
 10
484.428
 20
191.125
 11
489.827
 21
185.726
  0
LINE
  8
Layer1
  6
CONTINUOUS
 62
7
 10
464.837
 20
178.717
 11
479.428
 21
164.125
  0
LINE
  8
Layer1
  6
CONTINUOUS
 62
7
 10
450.068
 20
179.239
 11
458.204
 21
171.105
  0
TEXT
  8
Layer1
 62
7
 10
624.947
 20
163.025
 72
1
 11
624.947
 21
163.025
 40
6
 41
1
 50
90
  1
 113.8 
  0
LINE
  8
Layer1
  6
CONTINUOUS
 62
7
 10
528.827
 20
219.926
 11
626.947
 21
219.926
  0
LINE
  8
Layer1
  6
CONTINUOUS
 62
7
 10
528.827
 20
106.126
 11
626.947
 21
106.126
  0
POLYLINE
  8
Layer1
  6
CONTINUOUS
 62
7
 66
1
 10
0
 20
0
 30
0
  0
VERTEX
  8
Layer1
 10
624.947
 20
219.926
  0
VERTEX
  8
Layer1
 10
624.947
 20
106.126
  0
SEQEND
  0
POLYLINE
  8
Layer1
  6
CONTINUOUS
 62
7
 66
1
 10
0
 20
0
 30
0
 70
1
  0
VERTEX
  8
Layer1
 10
623.91
 20
216.062
  0
VERTEX
  8
Layer1
 10
624.947
 20
219.926
  0
VERTEX
  8
Layer1
 10
625.981
 20
216.062
  0
SEQEND
  0
POLYLINE
  8
Layer1
  6
CONTINUOUS
 62
7
 66
1
 10
0
 20
0
 30
0
 70
1
  0
VERTEX
  8
Layer1
 10
625.981
 20
109.99
  0
VERTEX
  8
Layer1
 10
624.947
 20
106.126
  0
VERTEX
  8
Layer1
 10
623.91
 20
109.99
  0
SEQEND
  0
TEXT
  8
Layer1
 62
7
 10
603.573
 20
151.125
 72
1
 11
603.573
 21
151.125
 40
6
 41
1
 50
90
  1
 90 
  0
POLYLINE
  8
Layer1
  6
CONTINUOUS
 62
7
 66
1
 10
0
 20
0
 30
0
  0
VERTEX
  8
Layer1
 10
603.573
 20
196.125
  0
VERTEX
  8
Layer1
 10
603.573
 20
106.126
  0
SEQEND
  0
POLYLINE
  8
Layer1
  6
CONTINUOUS
 62
7
 66
1
 10
0
 20
0
 30
0
 70
1
  0
VERTEX
  8
Layer1
 10
602.539
 20
192.262
  0
VERTEX
  8
Layer1
 10
603.573
 20
196.125
  0
VERTEX
  8
Layer1
 10
604.61
 20
192.262
  0
SEQEND
  0
POLYLINE
  8
Layer1
  6
CONTINUOUS
 62
7
 66
1
 10
0
 20
0
 30
0
 70
1
  0
VERTEX
  8
Layer1
 10
604.61
 20
109.99
  0
VERTEX
  8
Layer1
 10
603.573
 20
106.126
  0
VERTEX
  8
Layer1
 10
602.539
 20
109.99
  0
SEQEND
  0
TEXT
  8
Layer1
 62
7
 10
419.83
 20
186.296
 72
1
 11
419.83
 21
186.296
 40
6
 41
1
  1
 20 
  0
LINE
  8
Layer1
  6
CONTINUOUS
 62
7
 10
409.827
 20
163.125
 11
409.827
 21
188.296
  0
LINE
  8
Layer1
  6
CONTINUOUS
 62
7
 10
429.83
 20
176.125
 11
429.83
 21
188.296
  0
POLYLINE
  8
Layer1
  6
CONTINUOUS
 62
7
 66
1
 10
0
 20
0
 30
0
  0
VERTEX
  8
Layer1
 10
409.827
 20
186.296
  0
VERTEX
  8
Layer1
 10
429.83
 20
186.296
  0
SEQEND
  0
POLYLINE
  8
Layer1
  6
CONTINUOUS
 62
7
 66
1
 10
0
 20
0
 30
0
 70
1
  0
VERTEX
  8
Layer1
 10
413.692
 20
185.261
  0
VERTEX
  8
Layer1
 10
409.827
 20
186.296
  0
VERTEX
  8
Layer1
 10
413.692
 20
187.331
  0
SEQEND
  0
POLYLINE
  8
Layer1
  6
CONTINUOUS
 62
7
 66
1
 10
0
 20
0
 30
0
 70
1
  0
VERTEX
  8
Layer1
 10
425.967
 20
187.331
  0
VERTEX
  8
Layer1
 10
429.83
 20
186.296
  0
VERTEX
  8
Layer1
 10
425.967
 20
185.261
  0
SEQEND
  0
LINE
  8
Layer1
  6
PHANTOM1
 62
7
 10
408.82
 20
164.125
 11
390.827
 21
164.125
  0
LINE
  8
Layer1
  6
PHANTOM1
 62
7
 10
408.82
 20
129.125
 11
390.827
 21
129.125
  0
LINE
  8
Layer1
  6
PHANTOM1
 62
7
 10
389.827
 20
130.125
 11
389.827
 21
163.125
  0
LINE
  8
Layer1
  6
PHANTOM1
 62
7
 10
390.827
 20
164.125
 11
389.827
 21
163.125
  0
LINE
  8
Layer1
  6
PHANTOM1
 62
7
 10
389.827
 20
130.125
 11
390.827
 21
129.125
  0
TEXT
  8
Layer1
 62
7
 10
399.986
 20
106.152
 72
1
 11
399.986
 21
106.152
 40
6
 41
1
  1
20
  0
LINE
  8
Layer1
  6
CONTINUOUS
 62
7
 10
389.827
 20
130.125
 11
389.827
 21
104.126
  0
LINE
  8
Layer1
  6
CONTINUOUS
 62
7
 10
409.827
 20
130.125
 11
409.827
 21
104.126
  0
POLYLINE
  8
Layer1
  6
CONTINUOUS
 62
7
 66
1
 10
0
 20
0
 30
0
  0
VERTEX
  8
Layer1
 10
389.827
 20
106.126
  0
VERTEX
  8
Layer1
 10
409.827
 20
106.126
  0
SEQEND
  0
POLYLINE
  8
Layer1
  6
CONTINUOUS
 62
7
 66
1
 10
0
 20
0
 30
0
 70
1
  0
VERTEX
  8
Layer1
 10
393.692
 20
105.091
  0
VERTEX
  8
Layer1
 10
389.827
 20
106.126
  0
VERTEX
  8
Layer1
 10
393.692
 20
107.161
  0
SEQEND
  0
POLYLINE
  8
Layer1
  6
CONTINUOUS
 62
7
 66
1
 10
0
 20
0
 30
0
 70
1
  0
VERTEX
  8
Layer1
 10
405.964
 20
107.161
  0
VERTEX
  8
Layer1
 10
409.827
 20
106.126
  0
VERTEX
  8
Layer1
 10
405.964
 20
105.091
  0
SEQEND
  0
TEXT
  8
Layer1
 62
7
 10
624.947
 20
133.348
 73
3
 11
624.947
 21
133.348
 40
6
 41
1
 50
90
  1
（オープンハイト）
  0
TEXT
  8
Layer1
 62
7
 10
603.573
 20
123.288
 73
3
 11
603.573
 21
123.288
 40
6
 41
1
 50
90
  1
（シャットハイト）
  0
TEXT
  8
Layer1
 62
7
 10
564.74
 20
391.854
 72
1
 11
564.74
 21
391.854
 40
6
 41
1
 50
90
  1
 82 
  0
LINE
  8
Layer1
  6
CONTINUOUS
 62
7
 10
528.827
 20
350.854
 11
566.74
 21
350.854
  0
LINE
  8
Layer1
  6
CONTINUOUS
 62
7
 10
528.827
 20
432.854
 11
566.74
 21
432.854
  0
POLYLINE
  8
Layer1
  6
CONTINUOUS
 62
7
 66
1
 10
0
 20
0
 30
0
  0
VERTEX
  8
Layer1
 10
564.74
 20
350.854
  0
VERTEX
  8
Layer1
 10
564.74
 20
432.854
  0
SEQEND
  0
POLYLINE
  8
Layer1
  6
CONTINUOUS
 62
7
 66
1
 10
0
 20
0
 30
0
 70
1
  0
VERTEX
  8
Layer1
 10
565.774
 20
354.717
  0
VERTEX
  8
Layer1
 10
564.74
 20
350.854
  0
VERTEX
  8
Layer1
 10
563.703
 20
354.717
  0
SEQEND
  0
POLYLINE
  8
Layer1
  6
CONTINUOUS
 62
7
 66
1
 10
0
 20
0
 30
0
 70
1
  0
VERTEX
  8
Layer1
 10
563.703
 20
428.991
  0
VERTEX
  8
Layer1
 10
564.74
 20
432.854
  0
VERTEX
  8
Layer1
 10
565.774
 20
428.991
  0
SEQEND
  0
TEXT
  8
Layer1
 62
7
 10
576.467
 20
391.854
 72
1
 11
576.467
 21
391.854
 40
6
 41
1
 50
90
  1
 99 
  0
LINE
  8
Layer1
  6
CONTINUOUS
 62
7
 10
559.175
 20
441.354
 11
578.467
 21
441.354
  0
LINE
  8
Layer1
  6
CONTINUOUS
 62
7
 10
556.909
 20
342.354
 11
578.467
 21
342.354
  0
POLYLINE
  8
Layer1
  6
CONTINUOUS
 62
7
 66
1
 10
0
 20
0
 30
0
  0
VERTEX
  8
Layer1
 10
576.467
 20
441.354
  0
VERTEX
  8
Layer1
 10
576.467
 20
342.354
  0
SEQEND
  0
POLYLINE
  8
Layer1
  6
CONTINUOUS
 62
7
 66
1
 10
0
 20
0
 30
0
 70
1
  0
VERTEX
  8
Layer1
 10
575.433
 20
437.491
  0
VERTEX
  8
Layer1
 10
576.467
 20
441.354
  0
VERTEX
  8
Layer1
 10
577.504
 20
437.491
  0
SEQEND
  0
POLYLINE
  8
Layer1
  6
CONTINUOUS
 62
7
 66
1
 10
0
 20
0
 30
0
 70
1
  0
VERTEX
  8
Layer1
 10
577.504
 20
346.217
  0
VERTEX
  8
Layer1
 10
576.467
 20
342.354
  0
VERTEX
  8
Layer1
 10
575.433
 20
346.217
  0
SEQEND
  0
TEXT
  8
Layer1
 62
7
 10
606.181
 20
391.854
 72
1
 11
606.181
 21
391.854
 40
6
 41
1
 50
90
  1
 135 
  0
LINE
  8
Layer1
  6
CONTINUOUS
 62
7
 10
533.865
 20
459.354
 11
608.181
 21
459.354
  0
LINE
  8
Layer1
  6
CONTINUOUS
 62
7
 10
536.572
 20
324.354
 11
608.181
 21
324.354
  0
POLYLINE
  8
Layer1
  6
CONTINUOUS
 62
7
 66
1
 10
0
 20
0
 30
0
  0
VERTEX
  8
Layer1
 10
606.181
 20
459.354
  0
VERTEX
  8
Layer1
 10
606.181
 20
324.354
  0
SEQEND
  0
POLYLINE
  8
Layer1
  6
CONTINUOUS
 62
7
 66
1
 10
0
 20
0
 30
0
 70
1
  0
VERTEX
  8
Layer1
 10
605.145
 20
455.491
  0
VERTEX
  8
Layer1
 10
606.181
 20
459.354
  0
VERTEX
  8
Layer1
 10
607.216
 20
455.491
  0
SEQEND
  0
POLYLINE
  8
Layer1
  6
CONTINUOUS
 62
7
 66
1
 10
0
 20
0
 30
0
 70
1
  0
VERTEX
  8
Layer1
 10
607.216
 20
328.217
  0
VERTEX
  8
Layer1
 10
606.181
 20
324.354
  0
VERTEX
  8
Layer1
 10
605.145
 20
328.217
  0
SEQEND
  0
TEXT
  8
Layer1
 62
7
 10
619.212
 20
391.854
 72
1
 11
619.212
 21
391.854
 40
6
 41
1
 50
90
  1
 154 
  0
LINE
  8
Layer1
  6
CONTINUOUS
 62
7
 10
524.827
 20
468.854
 11
621.212
 21
468.854
  0
LINE
  8
Layer1
  6
CONTINUOUS
 62
7
 10
524.827
 20
314.854
 11
621.212
 21
314.854
  0
POLYLINE
  8
Layer1
  6
CONTINUOUS
 62
7
 66
1
 10
0
 20
0
 30
0
  0
VERTEX
  8
Layer1
 10
619.212
 20
468.854
  0
VERTEX
  8
Layer1
 10
619.212
 20
314.854
  0
SEQEND
  0
POLYLINE
  8
Layer1
  6
CONTINUOUS
 62
7
 66
1
 10
0
 20
0
 30
0
 70
1
  0
VERTEX
  8
Layer1
 10
618.177
 20
464.991
  0
VERTEX
  8
Layer1
 10
619.212
 20
468.854
  0
VERTEX
  8
Layer1
 10
620.247
 20
464.991
  0
SEQEND
  0
POLYLINE
  8
Layer1
  6
CONTINUOUS
 62
7
 66
1
 10
0
 20
0
 30
0
 70
1
  0
VERTEX
  8
Layer1
 10
620.247
 20
318.717
  0
VERTEX
  8
Layer1
 10
619.212
 20
314.854
  0
VERTEX
  8
Layer1
 10
618.177
 20
318.717
  0
SEQEND
  0
TEXT
  8
Layer1
 62
7
 10
390.373
 20
391.854
 72
1
 11
390.373
 21
391.854
 40
6
 41
1
 50
90
  1
 116 
  0
LINE
  8
Layer1
  6
CONTINUOUS
 62
7
 10
430.827
 20
449.854
 11
388.373
 21
449.854
  0
LINE
  8
Layer1
  6
CONTINUOUS
 62
7
 10
429.827
 20
333.854
 11
388.373
 21
333.854
  0
POLYLINE
  8
Layer1
  6
CONTINUOUS
 62
7
 66
1
 10
0
 20
0
 30
0
  0
VERTEX
  8
Layer1
 10
390.373
 20
449.854
  0
VERTEX
  8
Layer1
 10
390.373
 20
333.854
  0
SEQEND
  0
POLYLINE
  8
Layer1
  6
CONTINUOUS
 62
7
 66
1
 10
0
 20
0
 30
0
 70
1
  0
VERTEX
  8
Layer1
 10
389.339
 20
445.991
  0
VERTEX
  8
Layer1
 10
390.373
 20
449.854
  0
VERTEX
  8
Layer1
 10
391.409
 20
445.991
  0
SEQEND
  0
POLYLINE
  8
Layer1
  6
CONTINUOUS
 62
7
 66
1
 10
0
 20
0
 30
0
 70
1
  0
VERTEX
  8
Layer1
 10
391.409
 20
337.717
  0
VERTEX
  8
Layer1
 10
390.373
 20
333.854
  0
VERTEX
  8
Layer1
 10
389.339
 20
337.717
  0
SEQEND
  0
TEXT
  8
Layer1
 62
7
 10
509.827
 20
286.601
 72
1
 11
509.827
 21
286.601
 40
6
 41
1
  1
 40 
  0
LINE
  8
Layer1
  6
CONTINUOUS
 62
7
 10
489.827
 20
351.854
 11
489.827
 21
284.601
  0
LINE
  8
Layer1
  6
CONTINUOUS
 62
7
 10
529.827
 20
360.354
 11
529.827
 21
284.601
  0
POLYLINE
  8
Layer1
  6
CONTINUOUS
 62
7
 66
1
 10
0
 20
0
 30
0
  0
VERTEX
  8
Layer1
 10
489.827
 20
286.601
  0
VERTEX
  8
Layer1
 10
529.827
 20
286.601
  0
SEQEND
  0
POLYLINE
  8
Layer1
  6
CONTINUOUS
 62
7
 66
1
 10
0
 20
0
 30
0
 70
1
  0
VERTEX
  8
Layer1
 10
493.692
 20
285.567
  0
VERTEX
  8
Layer1
 10
489.827
 20
286.601
  0
VERTEX
  8
Layer1
 10
493.692
 20
287.637
  0
SEQEND
  0
POLYLINE
  8
Layer1
  6
CONTINUOUS
 62
7
 66
1
 10
0
 20
0
 30
0
 70
1
  0
VERTEX
  8
Layer1
 10
525.965
 20
287.637
  0
VERTEX
  8
Layer1
 10
529.827
 20
286.601
  0
VERTEX
  8
Layer1
 10
525.965
 20
285.567
  0
SEQEND
  0
TEXT
  8
Layer1
 62
7
 10
479.827
 20
505.536
 72
1
 11
479.827
 21
505.536
 40
6
 41
1
  1
 100 
  0
LINE
  8
Layer1
  6
CONTINUOUS
 62
7
 10
429.827
 20
463.854
 11
429.827
 21
507.536
  0
LINE
  8
Layer1
  6
CONTINUOUS
 62
7
 10
529.827
 20
463.854
 11
529.827
 21
507.536
  0
POLYLINE
  8
Layer1
  6
CONTINUOUS
 62
7
 66
1
 10
0
 20
0
 30
0
  0
VERTEX
  8
Layer1
 10
429.827
 20
505.536
  0
VERTEX
  8
Layer1
 10
529.827
 20
505.536
  0
SEQEND
  0
POLYLINE
  8
Layer1
  6
CONTINUOUS
 62
7
 66
1
 10
0
 20
0
 30
0
 70
1
  0
VERTEX
  8
Layer1
 10
433.692
 20
504.5
  0
VERTEX
  8
Layer1
 10
429.827
 20
505.536
  0
VERTEX
  8
Layer1
 10
433.692
 20
506.57
  0
SEQEND
  0
POLYLINE
  8
Layer1
  6
CONTINUOUS
 62
7
 66
1
 10
0
 20
0
 30
0
 70
1
  0
VERTEX
  8
Layer1
 10
525.965
 20
506.57
  0
VERTEX
  8
Layer1
 10
529.827
 20
505.536
  0
VERTEX
  8
Layer1
 10
525.965
 20
504.5
  0
SEQEND
  0
TEXT
  8
Layer1
 62
7
 10
434.827
 20
486.248
 72
1
 11
434.827
 21
486.248
 40
6
 41
1
  1
 10 
  0
LINE
  8
Layer1
  6
CONTINUOUS
 62
7
 10
439.827
 20
468.854
 11
439.827
 21
488.248
  0
POLYLINE
  8
Layer1
  6
CONTINUOUS
 62
7
 66
1
 10
0
 20
0
 30
0
  0
VERTEX
  8
Layer1
 10
449.827
 20
486.248
  0
VERTEX
  8
Layer1
 10
439.827
 20
486.248
  0
SEQEND
  0
POLYLINE
  8
Layer1
  6
CONTINUOUS
 62
7
 66
1
 10
0
 20
0
 30
0
 70
1
  0
VERTEX
  8
Layer1
 10
443.692
 20
485.214
  0
VERTEX
  8
Layer1
 10
439.827
 20
486.248
  0
VERTEX
  8
Layer1
 10
443.692
 20
487.284
  0
SEQEND
  0
POLYLINE
  8
Layer1
  6
CONTINUOUS
 62
7
 66
1
 10
0
 20
0
 30
0
  0
VERTEX
  8
Layer1
 10
419.827
 20
486.248
  0
VERTEX
  8
Layer1
 10
429.827
 20
486.248
  0
SEQEND
  0
POLYLINE
  8
Layer1
  6
CONTINUOUS
 62
7
 66
1
 10
0
 20
0
 30
0
 70
1
  0
VERTEX
  8
Layer1
 10
425.964
 20
487.284
  0
VERTEX
  8
Layer1
 10
429.827
 20
486.248
  0
VERTEX
  8
Layer1
 10
425.964
 20
485.214
  0
SEQEND
  0
LINE
  8
Layer1
  6
CONTINUOUS
 62
7
 10
439.827
 20
486.248
 11
429.827
 21
486.248
  0
TEXT
  8
Layer1
 62
7
 10
459.827
 20
486.248
 72
1
 11
459.827
 21
486.248
 40
6
 41
1
  1
 40 
  0
LINE
  8
Layer1
  6
CONTINUOUS
 62
7
 10
479.827
 20
468.854
 11
479.827
 21
488.248
  0
POLYLINE
  8
Layer1
  6
CONTINUOUS
 62
7
 66
1
 10
0
 20
0
 30
0
  0
VERTEX
  8
Layer1
 10
439.827
 20
486.248
  0
VERTEX
  8
Layer1
 10
479.827
 20
486.248
  0
SEQEND
  0
POLYLINE
  8
Layer1
  6
CONTINUOUS
 62
7
 66
1
 10
0
 20
0
 30
0
 70
1
  0
VERTEX
  8
Layer1
 10
443.692
 20
485.214
  0
VERTEX
  8
Layer1
 10
439.827
 20
486.248
  0
VERTEX
  8
Layer1
 10
443.692
 20
487.284
  0
SEQEND
  0
POLYLINE
  8
Layer1
  6
CONTINUOUS
 62
7
 66
1
 10
0
 20
0
 30
0
 70
1
  0
VERTEX
  8
Layer1
 10
475.964
 20
487.284
  0
VERTEX
  8
Layer1
 10
479.827
 20
486.248
  0
VERTEX
  8
Layer1
 10
475.964
 20
485.214
  0
SEQEND
  0
TEXT
  8
Layer1
 62
7
 10
499.827
 20
486.248
 72
1
 11
499.827
 21
486.248
 40
6
 41
1
  1
 40 
  0
LINE
  8
Layer1
  6
CONTINUOUS
 62
7
 10
519.827
 20
474.625
 11
519.827
 21
488.248
  0
POLYLINE
  8
Layer1
  6
CONTINUOUS
 62
7
 66
1
 10
0
 20
0
 30
0
  0
VERTEX
  8
Layer1
 10
519.827
 20
486.248
  0
VERTEX
  8
Layer1
 10
479.827
 20
486.248
  0
SEQEND
  0
POLYLINE
  8
Layer1
  6
CONTINUOUS
 62
7
 66
1
 10
0
 20
0
 30
0
 70
1
  0
VERTEX
  8
Layer1
 10
515.965
 20
487.284
  0
VERTEX
  8
Layer1
 10
519.827
 20
486.248
  0
VERTEX
  8
Layer1
 10
515.965
 20
485.214
  0
SEQEND
  0
POLYLINE
  8
Layer1
  6
CONTINUOUS
 62
7
 66
1
 10
0
 20
0
 30
0
 70
1
  0
VERTEX
  8
Layer1
 10
483.692
 20
485.214
  0
VERTEX
  8
Layer1
 10
479.827
 20
486.248
  0
VERTEX
  8
Layer1
 10
483.692
 20
487.284
  0
SEQEND
  0
POLYLINE
  8
Layer1
  6
CONTINUOUS
 62
7
 66
1
 10
0
 20
0
 30
0
  0
VERTEX
  8
Layer1
 10
519.827
 20
505.536
  0
VERTEX
  8
Layer1
 10
529.827
 20
505.536
  0
SEQEND
  0
POLYLINE
  8
Layer1
  6
CONTINUOUS
 62
7
 66
1
 10
0
 20
0
 30
0
 70
1
  0
VERTEX
  8
Layer1
 10
525.965
 20
506.57
  0
VERTEX
  8
Layer1
 10
529.827
 20
505.536
  0
VERTEX
  8
Layer1
 10
525.965
 20
504.5
  0
SEQEND
  0
LINE
  8
Layer1
  6
CONTINUOUS
 62
7
 10
429.818
 20
178.125
 11
430.818
 21
179.125
  0
LINE
  8
Layer1
  6
CONTINUOUS
 62
7
 10
429.83
 20
107.126
 11
430.83
 21
106.126
  0
LINE
  8
Layer1
  6
CONTINUOUS
 62
7
 10
429.827
 20
176.125
 11
429.827
 21
107.126
  0
TEXT
  8
Layer1
 62
7
 10
195.593
 20
356.146
 73
3
 11
195.593
 21
356.146
 40
10
 41
1
  1
TMH-35-80-20
  0
LINE
  8
Layer1
  6
CONTINUOUS
 62
7
 10
190.233
 20
360.039
 11
190.233
 21
342.599
  0
LINE
  8
Layer1
  6
CONTINUOUS
 62
7
 10
190.233
 20
342.599
 11
263.21
 21
342.599
  0
LINE
  8
Layer1
  6
CONTINUOUS
 62
7
 10
263.21
 20
360.039
 11
263.21
 21
342.599
  0
LINE
  8
Layer1
  6
CONTINUOUS
 62
7
 10
190.233
 20
360.039
 11
263.21
 21
360.039
  0
LINE
  8
Layer1
  6
CONTINUOUS
 62
7
 10
525.827
 20
196.125
 11
606.572
 21
196.125
  0
LINE
  8
Layer1
  6
CENTER1
 62
7
 10
197.846
 20
117.626
 11
260.406
 21
117.626
  0
LINE
  8
Layer1
  6
CENTER1
 62
7
 10
209.166
 20
103.627
 11
209.166
 21
132.854
  0
LINE
  8
Layer1
  6
CENTER1
 62
7
 10
249.166
 20
103.627
 11
249.166
 21
132.854
  0
LINE
  8
Layer1
  6
CONTINUOUS
 62
7
 10
459.277
 20
171.093
 11
459.277
 21
179.125
  0
LINE
  8
Layer1
  6
CONTINUOUS
 62
7
 10
464.361
 20
171.093
 11
464.361
 21
179.125
  0
TEXT
  8
Layer1
 62
7
 10
400.074
 20
99.6706
 72
1
 11
400.074
 21
99.6706
 40
6
 41
1
  1
ストローク
  0
ENDSEC
  0
EOF
