  0
SECTION
  2
HEADER
  9
$EXTMIN
 10
0
 20
0
  9
$EXTMAX
 10
1189
 20
841
  9
$LTSCALE
 40
1
  9
$LIMMIN
 10
0
 20
0
  9
$LIMMAX
 10
1189
 20
841
  9
$DIMSCALE
 40
1
  0
ENDSEC
  0
SECTION
  2
TABLES
  0
TABLE
  2
LTYPE
 70
9
  0
LTYPE
  2
CONTINUOUS
 70
64
  3
----------
 72
65
 73
0
 40
0
  0
LTYPE
  2
DASHED1
 70
64
  3
--  --  --  --  --  --  --  --  
 72
65
 73
2
 40
2.5
 49
1.25
 49
-1.25
  0
LTYPE
  2
DASHED2
 70
64
  3
----    ----    ----    ----    
 72
65
 73
2
 40
5
 49
2.5
 49
-2.5
  0
LTYPE
  2
DASHED3
 70
64
  3
------  ------  ------  ------  
 72
65
 73
2
 40
5
 49
3.75
 49
-1.25
  0
LTYPE
  2
CENTER1
 70
64
  3
----- - ----- - ----- - ----- - 
 72
65
 73
4
 40
7.5
 49
3.75
 49
-1.25
 49
1.25
 49
-1.25
  0
LTYPE
  2
CENTER2
 70
64
  3
----------  --  ----------  --  
 72
65
 73
4
 40
13.75
 49
6.25
 49
-2.5
 49
2.5
 49
-2.5
  0
LTYPE
  2
PHANTOM1
 70
64
  3
--- - - --- - - --- - - --- - - 
 72
65
 73
6
 40
9.5
 49
3.25
 49
-1.25
 49
1.25
 49
-1.25
 49
1.25
 49
-1.25
  0
LTYPE
  2
PHANTOM2
 70
64
  3
--------  -  -  --------  -  -  
 72
65
 73
6
 40
18
 49
8
 49
-2.5
 49
1.25
 49
-2.5
 49
1.25
 49
-2.5
  0
LTYPE
  2
DOT
 70
64
  3
-   -   -   -   -   -   -   -   
 72
65
 73
2
 40
2.5
 49
0.625
 49
-1.875
  0
LTYPE
  2
HOJO
 70
64
  3
-   -   -   -   -   -   -   -   
 72
65
 73
2
 40
2.5
 49
0.625
 49
-1.875
  0
ENDTAB
  0
TABLE
  2
STYLE
 70
2
  0
STYLE
  2
STANDARD
 70
64
 40
0
 41
1
 42
0
 50
0
 71
0
  3
TXT
  4
BIGFONT
  0
STYLE
  2
TATEGAKI
 70
68
 40
0
 41
1
 42
0
 50
0
 71
0
  3
TXT
  4
EXTFONT
  0
ENDTAB
  0
TABLE
  2
LAYER
 70
1
  0
LAYER
  2
Layer1
 70
64
 62
7
  6
CONTINUOUS
  0
ENDTAB
  0
ENDSEC
  0
SECTION
  2
ENTITIES
  0
LINE
  8
Layer1
  6
CONTINUOUS
 62
7
 10
494.599
 20
283.305
 11
394.6
 21
283.305
  0
LINE
  8
Layer1
  6
CONTINUOUS
 62
7
 10
709.195
 20
283.305
 11
611.195
 21
283.305
  0
LINE
  8
Layer1
  6
CENTER2
 62
7
 10
444.6
 20
360.563
 11
444.6
 21
278.237
  0
LINE
  8
Layer1
  6
CONTINUOUS
 62
7
 10
394.6
 20
299.305
 11
409.1
 21
299.305
  0
LINE
  8
Layer1
  6
CONTINUOUS
 62
7
 10
494.599
 20
299.305
 11
480.099
 21
299.305
  0
LINE
  8
Layer1
  6
CENTER2
 62
7
 10
576.693
 20
497.346
 11
730.119
 21
497.346
  0
CIRCLE
  8
Layer1
  6
CONTINUOUS
 62
7
 10
700.195
 20
455.346
 40
7
  0
CIRCLE
  8
Layer1
  6
CONTINUOUS
 62
7
 10
700.195
 20
455.346
 40
4.5
  0
LINE
  8
Layer1
  6
CONTINUOUS
 62
7
 10
476.099
 20
341.305
 11
413.1
 21
341.305
  0
LINE
  8
Layer1
  6
CENTER1
 62
7
 10
414.093
 20
323.805
 11
465.453
 21
323.805
  0
LINE
  8
Layer1
  6
CENTER2
 62
7
 10
444.6
 20
415.205
 11
444.6
 21
359.506
  0
LINE
  8
Layer1
  6
CONTINUOUS
 62
7
 10
657.706
 20
354.305
 11
657.688
 21
354.289
  0
LINE
  8
Layer1
  6
DASHED1
 62
7
 10
644.687
 20
354.305
 11
644.687
 21
348.305
  0
LINE
  8
Layer1
  6
DASHED1
 62
7
 10
639.687
 20
354.305
 11
639.687
 21
348.065
  0
LINE
  8
Layer1
  6
DASHED1
 62
7
 10
624.736
 20
337.805
 11
624.736
 21
331.805
  0
LINE
  8
Layer1
  6
CENTER1
 62
7
 10
703.195
 20
290.51
 11
703.195
 21
313.381
  0
LINE
  8
Layer1
  6
CENTER1
 62
7
 10
700.195
 20
468.457
 11
700.195
 21
440.229
  0
LINE
  8
Layer1
  6
CENTER1
 62
7
 10
686.92
 20
455.346
 11
713.851
 21
455.346
  0
LINE
  8
Layer1
  6
CONTINUOUS
 62
7
 10
610.195
 20
284.305
 11
611.195
 21
283.305
  0
LINE
  8
Layer1
  6
CENTER1
 62
7
 10
633.849
 20
300.815
 11
673.195
 21
300.815
  0
LINE
  8
Layer1
  6
PHANTOM1
 62
7
 10
693.159
 20
286.794
 11
693.159
 21
290.799
  0
LINE
  8
Layer1
  6
CONTINUOUS
 62
7
 10
693.159
 20
302.815
 11
693.159
 21
286.794
  0
LINE
  8
Layer1
  6
DASHED1
 62
7
 10
680.435
 20
286.794
 11
682.497
 21
286.794
  0
LINE
  8
Layer1
  6
CONTINUOUS
 62
7
 10
693.159
 20
302.815
 11
691.438
 21
302.815
  0
LINE
  8
Layer1
  6
DASHED1
 62
7
 10
679.058
 20
298.815
 11
681.121
 21
298.815
  0
LINE
  8
Layer1
  6
DASHED1
 62
7
 10
680.435
 20
290.815
 11
682.497
 21
290.815
  0
LINE
  8
Layer1
  6
DASHED1
 62
7
 10
681.121
 20
302.815
 11
681.121
 21
298.815
  0
LINE
  8
Layer1
  6
DASHED1
 62
7
 10
679.058
 20
302.815
 11
679.058
 21
298.815
  0
LINE
  8
Layer1
  6
DASHED1
 62
7
 10
680.435
 20
290.815
 11
680.435
 21
286.794
  0
LINE
  8
Layer1
  6
DASHED1
 62
7
 10
682.497
 20
290.815
 11
682.497
 21
286.794
  0
LINE
  8
Layer1
  6
DASHED1
 62
7
 10
679.058
 20
298.815
 11
680.435
 21
290.815
  0
LINE
  8
Layer1
  6
DASHED1
 62
7
 10
681.121
 20
298.815
 11
682.497
 21
290.815
  0
LINE
  8
Layer1
  6
DASHED1
 62
7
 10
679.746
 20
294.815
 11
680.435
 21
286.794
  0
LINE
  8
Layer1
  6
DASHED1
 62
7
 10
681.293
 20
302.815
 11
681.81
 21
294.815
  0
LINE
  8
Layer1
  6
CONTINUOUS
 62
7
 10
684.561
 20
286.794
 11
686.625
 21
286.794
  0
LINE
  8
Layer1
  6
CONTINUOUS
 62
7
 10
685.248
 20
302.815
 11
683.186
 21
302.815
  0
LINE
  8
Layer1
  6
CONTINUOUS
 62
7
 10
683.186
 20
298.815
 11
685.248
 21
298.815
  0
LINE
  8
Layer1
  6
CONTINUOUS
 62
7
 10
684.561
 20
290.815
 11
686.625
 21
290.815
  0
LINE
  8
Layer1
  6
CONTINUOUS
 62
7
 10
685.248
 20
302.815
 11
685.248
 21
298.815
  0
LINE
  8
Layer1
  6
CONTINUOUS
 62
7
 10
683.186
 20
302.815
 11
683.186
 21
298.815
  0
LINE
  8
Layer1
  6
CONTINUOUS
 62
7
 10
684.561
 20
290.815
 11
684.561
 21
286.794
  0
LINE
  8
Layer1
  6
CONTINUOUS
 62
7
 10
686.625
 20
290.815
 11
686.625
 21
286.794
  0
LINE
  8
Layer1
  6
CONTINUOUS
 62
7
 10
683.186
 20
298.815
 11
684.561
 21
290.815
  0
LINE
  8
Layer1
  6
CONTINUOUS
 62
7
 10
685.248
 20
298.815
 11
686.625
 21
290.815
  0
LINE
  8
Layer1
  6
CONTINUOUS
 62
7
 10
683.873
 20
294.815
 11
684.561
 21
286.794
  0
LINE
  8
Layer1
  6
CONTINUOUS
 62
7
 10
685.42
 20
302.815
 11
685.937
 21
294.815
  0
LINE
  8
Layer1
  6
CONTINUOUS
 62
7
 10
688.688
 20
286.794
 11
690.752
 21
286.794
  0
LINE
  8
Layer1
  6
CONTINUOUS
 62
7
 10
689.375
 20
302.815
 11
687.313
 21
302.815
  0
LINE
  8
Layer1
  6
CONTINUOUS
 62
7
 10
687.313
 20
298.815
 11
689.375
 21
298.815
  0
LINE
  8
Layer1
  6
CONTINUOUS
 62
7
 10
688.688
 20
290.815
 11
690.752
 21
290.815
  0
LINE
  8
Layer1
  6
CONTINUOUS
 62
7
 10
689.375
 20
302.815
 11
689.375
 21
298.815
  0
LINE
  8
Layer1
  6
CONTINUOUS
 62
7
 10
687.313
 20
302.815
 11
687.313
 21
298.815
  0
LINE
  8
Layer1
  6
CONTINUOUS
 62
7
 10
688.688
 20
290.815
 11
688.688
 21
286.794
  0
LINE
  8
Layer1
  6
CONTINUOUS
 62
7
 10
690.752
 20
290.815
 11
690.752
 21
286.794
  0
LINE
  8
Layer1
  6
CONTINUOUS
 62
7
 10
687.313
 20
298.815
 11
688.688
 21
290.815
  0
LINE
  8
Layer1
  6
CONTINUOUS
 62
7
 10
689.375
 20
298.815
 11
690.752
 21
290.815
  0
LINE
  8
Layer1
  6
CONTINUOUS
 62
7
 10
688
 20
294.815
 11
688.688
 21
286.794
  0
LINE
  8
Layer1
  6
CONTINUOUS
 62
7
 10
689.548
 20
302.815
 11
690.063
 21
294.815
  0
LINE
  8
Layer1
  6
CONTINUOUS
 62
7
 10
692.814
 20
286.794
 11
693.159
 21
286.794
  0
LINE
  8
Layer1
  6
CONTINUOUS
 62
7
 10
691.438
 20
298.815
 11
693.159
 21
298.81
  0
LINE
  8
Layer1
  6
CONTINUOUS
 62
7
 10
692.814
 20
290.815
 11
693.159
 21
290.799
  0
LINE
  8
Layer1
  6
CONTINUOUS
 62
7
 10
691.438
 20
302.815
 11
691.438
 21
298.815
  0
LINE
  8
Layer1
  6
CONTINUOUS
 62
7
 10
692.814
 20
290.815
 11
692.814
 21
286.794
  0
LINE
  8
Layer1
  6
CONTINUOUS
 62
7
 10
691.438
 20
298.815
 11
692.814
 21
290.815
  0
LINE
  8
Layer1
  6
CONTINUOUS
 62
7
 10
692.127
 20
294.815
 11
692.814
 21
286.794
  0
LINE
  8
Layer1
  6
DASHED1
 62
7
 10
681.121
 20
302.815
 11
679.058
 21
302.815
  0
LINE
  8
Layer1
  6
DASHED1
 62
7
 10
676.995
 20
302.815
 11
674.931
 21
302.815
  0
LINE
  8
Layer1
  6
DASHED1
 62
7
 10
672.869
 20
302.815
 11
670.804
 21
302.815
  0
LINE
  8
Layer1
  6
DASHED1
 62
7
 10
672.18
 20
286.794
 11
674.244
 21
286.794
  0
LINE
  8
Layer1
  6
CONTINUOUS
 62
7
 10
672.869
 20
302.815
 11
670.804
 21
302.815
  0
LINE
  8
Layer1
  6
CONTINUOUS
 62
7
 10
670.804
 20
298.815
 11
672.869
 21
298.815
  0
LINE
  8
Layer1
  6
CONTINUOUS
 62
7
 10
672.18
 20
290.815
 11
674.244
 21
290.815
  0
LINE
  8
Layer1
  6
CONTINUOUS
 62
7
 10
672.869
 20
302.815
 11
672.869
 21
298.815
  0
LINE
  8
Layer1
  6
CONTINUOUS
 62
7
 10
670.804
 20
302.815
 11
670.804
 21
298.815
  0
LINE
  8
Layer1
  6
DASHED1
 62
7
 10
672.18
 20
290.815
 11
672.18
 21
286.794
  0
LINE
  8
Layer1
  6
DASHED1
 62
7
 10
674.244
 20
289.495
 11
674.244
 21
286.794
  0
LINE
  8
Layer1
  6
CONTINUOUS
 62
7
 10
670.804
 20
298.815
 11
671.976
 21
292.001
  0
LINE
  8
Layer1
  6
CONTINUOUS
 62
7
 10
672.869
 20
298.815
 11
674.244
 21
290.815
  0
LINE
  8
Layer1
  6
DASHED1
 62
7
 10
671.686
 20
292.563
 11
672.18
 21
286.794
  0
LINE
  8
Layer1
  6
CONTINUOUS
 62
7
 10
673.041
 20
302.815
 11
673.556
 21
294.815
  0
LINE
  8
Layer1
  6
DASHED1
 62
7
 10
676.308
 20
286.794
 11
678.37
 21
286.794
  0
LINE
  8
Layer1
  6
CONTINUOUS
 62
7
 10
680.435
 20
286.794
 11
682.497
 21
286.794
  0
LINE
  8
Layer1
  6
CONTINUOUS
 62
7
 10
681.121
 20
302.815
 11
679.058
 21
302.815
  0
LINE
  8
Layer1
  6
CONTINUOUS
 62
7
 10
679.058
 20
298.815
 11
681.121
 21
298.815
  0
LINE
  8
Layer1
  6
CONTINUOUS
 62
7
 10
680.435
 20
290.815
 11
682.497
 21
290.815
  0
LINE
  8
Layer1
  6
CONTINUOUS
 62
7
 10
681.121
 20
302.815
 11
681.121
 21
298.815
  0
LINE
  8
Layer1
  6
CONTINUOUS
 62
7
 10
679.058
 20
302.815
 11
679.058
 21
298.815
  0
LINE
  8
Layer1
  6
CONTINUOUS
 62
7
 10
680.435
 20
290.815
 11
680.435
 21
286.794
  0
LINE
  8
Layer1
  6
CONTINUOUS
 62
7
 10
682.497
 20
290.815
 11
682.497
 21
286.794
  0
LINE
  8
Layer1
  6
CONTINUOUS
 62
7
 10
679.058
 20
298.815
 11
680.435
 21
290.815
  0
LINE
  8
Layer1
  6
CONTINUOUS
 62
7
 10
681.121
 20
298.815
 11
682.497
 21
290.815
  0
LINE
  8
Layer1
  6
CONTINUOUS
 62
7
 10
679.746
 20
294.815
 11
680.435
 21
286.794
  0
LINE
  8
Layer1
  6
CONTINUOUS
 62
7
 10
681.293
 20
302.815
 11
681.81
 21
294.815
  0
LINE
  8
Layer1
  6
CONTINUOUS
 62
7
 10
674.244
 20
289.495
 11
674.244
 21
290.815
  0
LINE
  8
Layer1
  6
CONTINUOUS
 62
7
 10
671.686
 20
292.563
 11
671.493
 21
294.815
  0
LINE
  8
Layer1
  6
CONTINUOUS
 62
7
 10
671.976
 20
292.001
 11
672.18
 21
290.815
  0
LINE
  8
Layer1
  6
CONTINUOUS
 62
7
 10
676.995
 20
302.815
 11
674.931
 21
302.815
  0
LINE
  8
Layer1
  6
CONTINUOUS
 62
7
 10
674.931
 20
298.815
 11
676.995
 21
298.815
  0
LINE
  8
Layer1
  6
CONTINUOUS
 62
7
 10
676.308
 20
290.815
 11
678.37
 21
290.815
  0
LINE
  8
Layer1
  6
CONTINUOUS
 62
7
 10
676.995
 20
302.815
 11
676.995
 21
298.815
  0
LINE
  8
Layer1
  6
CONTINUOUS
 62
7
 10
674.931
 20
302.815
 11
674.931
 21
298.815
  0
LINE
  8
Layer1
  6
CONTINUOUS
 62
7
 10
676.308
 20
290.815
 11
676.308
 21
288.217
  0
LINE
  8
Layer1
  6
CONTINUOUS
 62
7
 10
678.37
 20
290.815
 11
678.37
 21
287.294
  0
LINE
  8
Layer1
  6
CONTINUOUS
 62
7
 10
674.931
 20
298.815
 11
676.308
 21
290.815
  0
LINE
  8
Layer1
  6
CONTINUOUS
 62
7
 10
676.995
 20
298.815
 11
678.37
 21
290.815
  0
LINE
  8
Layer1
  6
CONTINUOUS
 62
7
 10
675.62
 20
294.815
 11
676.179
 21
288.285
  0
LINE
  8
Layer1
  6
CONTINUOUS
 62
7
 10
677.168
 20
302.815
 11
677.683
 21
294.815
  0
LINE
  8
Layer1
  6
DASHED1
 62
7
 10
676.308
 20
286.794
 11
676.154
 21
288.583
  0
LINE
  8
Layer1
  6
DASHED1
 62
7
 10
676.308
 20
288.217
 11
676.308
 21
286.794
  0
LINE
  8
Layer1
  6
CONTINUOUS
 62
7
 10
678.37
 20
287.294
 11
678.37
 21
286.794
  0
LINE
  8
Layer1
  6
CONTINUOUS
 62
7
 10
673.584
 20
302.637
 11
673.584
 21
288.396
  0
LINE
  8
Layer1
  6
CENTER1
 62
7
 10
674.729
 20
288.804
 11
633.508
 21
288.804
  0
LINE
  8
Layer1
  6
CENTER1
 62
7
 10
698.606
 20
294.805
 11
609.16
 21
294.805
  0
LINE
  8
Layer1
  6
DASHED1
 62
7
 10
637.55
 20
286.815
 11
639.596
 21
286.815
  0
LINE
  8
Layer1
  6
DASHED1
 62
7
 10
638.231
 20
302.815
 11
636.186
 21
302.815
  0
LINE
  8
Layer1
  6
DASHED1
 62
7
 10
636.186
 20
298.82
 11
638.231
 21
298.82
  0
LINE
  8
Layer1
  6
DASHED1
 62
7
 10
637.55
 20
290.832
 11
639.596
 21
290.832
  0
LINE
  8
Layer1
  6
DASHED1
 62
7
 10
638.231
 20
302.815
 11
638.231
 21
298.82
  0
LINE
  8
Layer1
  6
DASHED1
 62
7
 10
636.186
 20
302.815
 11
636.186
 21
298.82
  0
LINE
  8
Layer1
  6
DASHED1
 62
7
 10
637.55
 20
290.832
 11
637.55
 21
286.815
  0
LINE
  8
Layer1
  6
DASHED1
 62
7
 10
639.596
 20
290.832
 11
639.596
 21
286.815
  0
LINE
  8
Layer1
  6
DASHED1
 62
7
 10
636.186
 20
298.82
 11
637.55
 21
290.832
  0
LINE
  8
Layer1
  6
DASHED1
 62
7
 10
638.231
 20
298.82
 11
639.596
 21
290.832
  0
LINE
  8
Layer1
  6
DASHED1
 62
7
 10
636.868
 20
294.825
 11
637.55
 21
286.815
  0
LINE
  8
Layer1
  6
DASHED1
 62
7
 10
638.402
 20
302.815
 11
638.914
 21
294.825
  0
LINE
  8
Layer1
  6
DASHED1
 62
7
 10
636.015
 20
286.815
 11
637.039
 21
286.815
  0
LINE
  8
Layer1
  6
DASHED1
 62
7
 10
637.039
 20
290.81
 11
636.015
 21
290.81
  0
LINE
  8
Layer1
  6
DASHED1
 62
7
 10
637.039
 20
286.815
 11
637.039
 21
290.81
  0
LINE
  8
Layer1
  6
DASHED1
 62
7
 10
637.039
 20
290.81
 11
636.356
 21
294.805
  0
LINE
  8
Layer1
  6
DASHED1
 62
7
 10
636.015
 20
286.815
 11
636.015
 21
294.805
  0
LINE
  8
Layer1
  6
DASHED1
 62
7
 10
636.356
 20
294.805
 11
636.015
 21
294.805
  0
LINE
  8
Layer1
  6
CONTINUOUS
 62
7
 10
658.706
 20
354.305
 11
645.673
 21
354.305
  0
LINE
  8
Layer1
  6
CONTINUOUS
 62
7
 10
707.195
 20
297.229
 11
699.195
 21
297.229
  0
LINE
  8
Layer1
  6
CONTINUOUS
 62
7
 10
698.195
 20
298.229
 11
698.195
 21
303.229
  0
LINE
  8
Layer1
  6
CONTINUOUS
 62
7
 10
708.195
 20
298.229
 11
708.195
 21
303.229
  0
LINE
  8
Layer1
  6
CONTINUOUS
 62
7
 10
698.195
 20
303.229
 11
708.195
 21
303.229
  0
LINE
  8
Layer1
  6
CONTINUOUS
 62
7
 10
699.195
 20
297.229
 11
698.195
 21
298.229
  0
LINE
  8
Layer1
  6
CONTINUOUS
 62
7
 10
707.195
 20
297.229
 11
708.195
 21
298.229
  0
LINE
  8
Layer1
  6
CONTINUOUS
 62
7
 10
698.195
 20
298.229
 11
708.195
 21
298.229
  0
LINE
  8
Layer1
  6
CONTINUOUS
 62
7
 10
698.195
 20
303.229
 11
698.195
 21
298.229
  0
LINE
  8
Layer1
  6
CONTINUOUS
 62
7
 10
708.195
 20
303.229
 11
708.195
 21
298.229
  0
LINE
  8
Layer1
  6
CONTINUOUS
 62
7
 10
698.695
 20
302.979
 11
698.695
 21
298.479
  0
LINE
  8
Layer1
  6
CONTINUOUS
 62
7
 10
699.695
 20
302.479
 11
699.695
 21
298.979
  0
LINE
  8
Layer1
  6
CONTINUOUS
 62
7
 10
700.695
 20
301.979
 11
700.695
 21
299.479
  0
LINE
  8
Layer1
  6
CONTINUOUS
 62
7
 10
709.195
 20
306.229
 11
709.195
 21
303.229
  0
LINE
  8
Layer1
  6
CONTINUOUS
 62
7
 10
693.195
 20
303.229
 11
693.195
 21
287.229
  0
LINE
  8
Layer1
  6
CONTINUOUS
 62
7
 10
696.195
 20
301.229
 11
696.195
 21
287.229
  0
LINE
  8
Layer1
  6
CONTINUOUS
 62
7
 10
709.195
 20
303.229
 11
698.195
 21
303.229
  0
ARC
  8
Layer1
  6
CONTINUOUS
 62
7
 10
698.195
 20
301.229
 40
2
 50
90
 51
180
  0
LINE
  8
Layer1
  6
CONTINUOUS
 62
7
 10
701.247
 20
306.229
 11
709.195
 21
306.229
  0
ARC
  8
Layer1
  6
CONTINUOUS
 62
7
 10
696.195
 20
303.229
 40
3
 50
90
 51
180
  0
LINE
  8
Layer1
  6
CONTINUOUS
 62
7
 10
693.195
 20
287.229
 11
696.195
 21
287.229
  0
LINE
  8
Layer1
  6
CONTINUOUS
 62
7
 10
722.195
 20
516.346
 11
729.695
 21
516.346
  0
LINE
  8
Layer1
  6
CONTINUOUS
 62
7
 10
722.195
 20
529.346
 11
729.695
 21
529.346
  0
LINE
  8
Layer1
  6
CONTINUOUS
 62
7
 10
729.695
 20
516.346
 11
729.695
 21
529.346
  0
LINE
  8
Layer1
  6
CONTINUOUS
 62
7
 10
730.195
 20
516.846
 11
730.195
 21
528.846
  0
LINE
  8
Layer1
  6
CONTINUOUS
 62
7
 10
729.695
 20
516.346
 11
730.195
 21
516.846
  0
LINE
  8
Layer1
  6
CONTINUOUS
 62
7
 10
729.695
 20
529.346
 11
730.195
 21
528.846
  0
LINE
  8
Layer1
  6
CONTINUOUS
 62
7
 10
722.195
 20
529.346
 11
722.195
 21
516.346
  0
LINE
  8
Layer1
  6
CONTINUOUS
 62
7
 10
722.772
 20
528.346
 11
729.118
 21
528.346
  0
LINE
  8
Layer1
  6
CONTINUOUS
 62
7
 10
723.349
 20
527.346
 11
728.541
 21
527.346
  0
LINE
  8
Layer1
  6
CONTINUOUS
 62
7
 10
723.926
 20
526.346
 11
727.964
 21
526.346
  0
LINE
  8
Layer1
  6
CONTINUOUS
 62
7
 10
724.503
 20
525.346
 11
727.387
 21
525.346
  0
LINE
  8
Layer1
  6
CONTINUOUS
 62
7
 10
722.195
 20
465.346
 11
729.695
 21
465.346
  0
LINE
  8
Layer1
  6
CONTINUOUS
 62
7
 10
722.195
 20
478.346
 11
729.695
 21
478.346
  0
LINE
  8
Layer1
  6
CONTINUOUS
 62
7
 10
729.695
 20
465.346
 11
729.695
 21
478.346
  0
LINE
  8
Layer1
  6
CONTINUOUS
 62
7
 10
730.195
 20
465.846
 11
730.195
 21
477.846
  0
LINE
  8
Layer1
  6
CONTINUOUS
 62
7
 10
729.695
 20
465.346
 11
730.195
 21
465.846
  0
LINE
  8
Layer1
  6
CONTINUOUS
 62
7
 10
729.695
 20
478.346
 11
730.195
 21
477.846
  0
LINE
  8
Layer1
  6
CONTINUOUS
 62
7
 10
722.195
 20
478.346
 11
722.195
 21
465.346
  0
LINE
  8
Layer1
  6
CONTINUOUS
 62
7
 10
722.772
 20
477.346
 11
729.118
 21
477.346
  0
LINE
  8
Layer1
  6
CONTINUOUS
 62
7
 10
723.349
 20
476.346
 11
728.541
 21
476.346
  0
LINE
  8
Layer1
  6
CONTINUOUS
 62
7
 10
723.926
 20
475.346
 11
727.964
 21
475.346
  0
LINE
  8
Layer1
  6
CONTINUOUS
 62
7
 10
724.503
 20
474.346
 11
727.387
 21
474.346
  0
CIRCLE
  8
Layer1
  6
CONTINUOUS
 62
7
 10
642.187
 20
497.346
 40
3.76681
  0
ARC
  8
Layer1
  6
CONTINUOUS
 62
7
 10
637.714
 20
497.38
 40
1
 50
140.711
 51
225
  0
LINE
  8
Layer1
  6
CONTINUOUS
 62
7
 10
646.697
 20
498.991
 11
648.959
 21
498.991
  0
LINE
  8
Layer1
  6
CONTINUOUS
 62
7
 10
646.697
 20
495.505
 11
648.959
 21
495.505
  0
LINE
  8
Layer1
  6
CONTINUOUS
 62
7
 10
648.959
 20
498.991
 11
648.959
 21
495.505
  0
ARC
  8
Layer1
  6
CONTINUOUS
 62
7
 10
642.187
 20
497.346
 40
4.80058
 50
20.031
 51
140.098
  0
ARC
  8
Layer1
  6
CONTINUOUS
 62
7
 10
642.187
 20
497.346
 40
4.80058
 50
218.056
 51
337.793
  0
ARC
  8
Layer1
  6
CONTINUOUS
 62
7
 10
629.293
 20
490.095
 40
10.1292
 50
24.1178
 51
40.4581
  0
ARC
  8
Layer1
  6
CONTINUOUS
 62
7
 10
629.233
 20
504.587
 40
10.1292
 50
319.542
 51
335.882
  0
ARC
  8
Layer1
  6
CONTINUOUS
 62
7
 10
647.827
 20
498.991
 40
0.542282
 50
0
 51
180
  0
ARC
  8
Layer1
  6
CONTINUOUS
 62
7
 10
647.827
 20
495.505
 40
0.657613
 50
180
 51
2.03555e-013
  0
LINE
  8
Layer1
  6
CONTINUOUS
 62
7
 10
440.757
 20
360.882
 11
448.602
 21
360.882
  0
LINE
  8
Layer1
  6
CONTINUOUS
 62
7
 10
440.429
 20
360.279
 11
448.904
 21
360.279
  0
LINE
  8
Layer1
  6
CONTINUOUS
 62
7
 10
440.334
 20
356.9
 11
448.784
 21
356.9
  0
LINE
  8
Layer1
  6
CONTINUOUS
 62
7
 10
449.507
 20
356.176
 11
439.611
 21
356.176
  0
LINE
  8
Layer1
  6
CONTINUOUS
 62
7
 10
449.507
 20
356.176
 11
449.507
 21
354.305
  0
LINE
  8
Layer1
  6
CONTINUOUS
 62
7
 10
439.611
 20
356.176
 11
439.611
 21
354.305
  0
POLYLINE
  8
Layer1
  6
CONTINUOUS
 62
7
 66
1
 10
0
 20
0
 30
0
  0
VERTEX
  8
Layer1
 10
444.553
 20
358.096
  0
VERTEX
  8
Layer1
 10
444.486
 20
358.154
  0
VERTEX
  8
Layer1
 10
444.421
 20
358.208
  0
VERTEX
  8
Layer1
 10
444.351
 20
358.262
  0
VERTEX
  8
Layer1
 10
444.283
 20
358.313
  0
VERTEX
  8
Layer1
 10
444.212
 20
358.363
  0
VERTEX
  8
Layer1
 10
444.14
 20
358.411
  0
VERTEX
  8
Layer1
 10
444.067
 20
358.458
  0
VERTEX
  8
Layer1
 10
443.991
 20
358.503
  0
VERTEX
  8
Layer1
 10
443.916
 20
358.544
  0
VERTEX
  8
Layer1
 10
443.839
 20
358.585
  0
VERTEX
  8
Layer1
 10
443.761
 20
358.623
  0
VERTEX
  8
Layer1
 10
443.683
 20
358.661
  0
VERTEX
  8
Layer1
 10
443.604
 20
358.695
  0
VERTEX
  8
Layer1
 10
443.523
 20
358.726
  0
VERTEX
  8
Layer1
 10
443.442
 20
358.756
  0
VERTEX
  8
Layer1
 10
443.36
 20
358.786
  0
VERTEX
  8
Layer1
 10
443.277
 20
358.81
  0
VERTEX
  8
Layer1
 10
443.193
 20
358.834
  0
VERTEX
  8
Layer1
 10
443.11
 20
358.856
  0
VERTEX
  8
Layer1
 10
443.024
 20
358.875
  0
VERTEX
  8
Layer1
 10
442.939
 20
358.893
  0
VERTEX
  8
Layer1
 10
442.855
 20
358.909
  0
VERTEX
  8
Layer1
 10
442.769
 20
358.921
  0
VERTEX
  8
Layer1
 10
442.683
 20
358.931
  0
VERTEX
  8
Layer1
 10
442.596
 20
358.94
  0
VERTEX
  8
Layer1
 10
442.51
 20
358.946
  0
VERTEX
  8
Layer1
 10
442.423
 20
358.95
  0
VERTEX
  8
Layer1
 10
442.337
 20
358.952
  0
VERTEX
  8
Layer1
 10
442.25
 20
358.952
  0
VERTEX
  8
Layer1
 10
442.163
 20
358.948
  0
VERTEX
  8
Layer1
 10
442.077
 20
358.943
  0
VERTEX
  8
Layer1
 10
441.991
 20
358.935
  0
VERTEX
  8
Layer1
 10
441.904
 20
358.926
  0
VERTEX
  8
Layer1
 10
441.818
 20
358.914
  0
VERTEX
  8
Layer1
 10
441.732
 20
358.9
  0
VERTEX
  8
Layer1
 10
441.648
 20
358.885
  0
VERTEX
  8
Layer1
 10
441.563
 20
358.866
  0
VERTEX
  8
Layer1
 10
441.479
 20
358.845
  0
VERTEX
  8
Layer1
 10
441.394
 20
358.822
  0
VERTEX
  8
Layer1
 10
441.312
 20
358.798
  0
VERTEX
  8
Layer1
 10
441.23
 20
358.77
  0
VERTEX
  8
Layer1
 10
441.148
 20
358.741
  0
VERTEX
  8
Layer1
 10
441.067
 20
358.71
  0
VERTEX
  8
Layer1
 10
440.986
 20
358.678
  0
VERTEX
  8
Layer1
 10
440.908
 20
358.642
  0
VERTEX
  8
Layer1
 10
440.83
 20
358.604
  0
VERTEX
  8
Layer1
 10
440.751
 20
358.565
  0
VERTEX
  8
Layer1
 10
440.676
 20
358.524
  0
SEQEND
  0
POLYLINE
  8
Layer1
  6
CONTINUOUS
 62
7
 66
1
 10
0
 20
0
 30
0
  0
VERTEX
  8
Layer1
 10
448.904
 20
358.469
  0
VERTEX
  8
Layer1
 10
448.818
 20
358.505
  0
VERTEX
  8
Layer1
 10
448.729
 20
358.539
  0
VERTEX
  8
Layer1
 10
448.64
 20
358.57
  0
VERTEX
  8
Layer1
 10
448.551
 20
358.601
  0
VERTEX
  8
Layer1
 10
448.461
 20
358.628
  0
VERTEX
  8
Layer1
 10
448.37
 20
358.655
  0
VERTEX
  8
Layer1
 10
448.279
 20
358.68
  0
VERTEX
  8
Layer1
 10
448.188
 20
358.703
  0
VERTEX
  8
Layer1
 10
448.096
 20
358.724
  0
VERTEX
  8
Layer1
 10
448.003
 20
358.743
  0
VERTEX
  8
Layer1
 10
447.91
 20
358.762
  0
VERTEX
  8
Layer1
 10
447.817
 20
358.777
  0
VERTEX
  8
Layer1
 10
447.724
 20
358.791
  0
VERTEX
  8
Layer1
 10
447.63
 20
358.803
  0
VERTEX
  8
Layer1
 10
447.535
 20
358.813
  0
VERTEX
  8
Layer1
 10
447.442
 20
358.82
  0
VERTEX
  8
Layer1
 10
447.347
 20
358.827
  0
VERTEX
  8
Layer1
 10
447.254
 20
358.832
  0
VERTEX
  8
Layer1
 10
447.159
 20
358.833
  0
VERTEX
  8
Layer1
 10
447.064
 20
358.834
  0
VERTEX
  8
Layer1
 10
446.971
 20
358.833
  0
VERTEX
  8
Layer1
 10
446.875
 20
358.83
  0
VERTEX
  8
Layer1
 10
446.781
 20
358.825
  0
VERTEX
  8
Layer1
 10
446.688
 20
358.818
  0
VERTEX
  8
Layer1
 10
446.594
 20
358.808
  0
VERTEX
  8
Layer1
 10
446.5
 20
358.798
  0
VERTEX
  8
Layer1
 10
446.405
 20
358.786
  0
VERTEX
  8
Layer1
 10
446.313
 20
358.772
  0
VERTEX
  8
Layer1
 10
446.219
 20
358.755
  0
VERTEX
  8
Layer1
 10
446.126
 20
358.736
  0
VERTEX
  8
Layer1
 10
446.034
 20
358.717
  0
VERTEX
  8
Layer1
 10
445.943
 20
358.695
  0
VERTEX
  8
Layer1
 10
445.851
 20
358.671
  0
VERTEX
  8
Layer1
 10
445.76
 20
358.645
  0
VERTEX
  8
Layer1
 10
445.669
 20
358.618
  0
VERTEX
  8
Layer1
 10
445.581
 20
358.589
  0
VERTEX
  8
Layer1
 10
445.491
 20
358.558
  0
VERTEX
  8
Layer1
 10
445.403
 20
358.525
  0
VERTEX
  8
Layer1
 10
445.314
 20
358.491
  0
VERTEX
  8
Layer1
 10
445.227
 20
358.455
  0
VERTEX
  8
Layer1
 10
445.14
 20
358.416
  0
VERTEX
  8
Layer1
 10
445.054
 20
358.378
  0
VERTEX
  8
Layer1
 10
444.971
 20
358.335
  0
VERTEX
  8
Layer1
 10
444.886
 20
358.292
  0
VERTEX
  8
Layer1
 10
444.803
 20
358.248
  0
VERTEX
  8
Layer1
 10
444.721
 20
358.202
  0
VERTEX
  8
Layer1
 10
444.64
 20
358.154
  0
VERTEX
  8
Layer1
 10
444.559
 20
358.104
  0
SEQEND
  0
LINE
  8
Layer1
  6
CONTINUOUS
 62
7
 10
441.022
 20
358.693
 11
440.688
 21
358.503
  0
LINE
  8
Layer1
  6
CONTINUOUS
 62
7
 10
440.757
 20
360.882
 11
439.898
 21
359.299
  0
LINE
  8
Layer1
  6
CONTINUOUS
 62
7
 10
448.602
 20
360.882
 11
449.49
 21
359.068
  0
LINE
  8
Layer1
  6
CONTINUOUS
 62
7
 10
448.421
 20
358.613
 11
448.904
 21
358.469
  0
POLYLINE
  8
Layer1
  6
CONTINUOUS
 62
7
 66
1
 10
0
 20
0
 30
0
  0
VERTEX
  8
Layer1
 10
439.898
 20
359.299
  0
VERTEX
  8
Layer1
 10
439.882
 20
359.272
  0
VERTEX
  8
Layer1
 10
439.87
 20
359.243
  0
VERTEX
  8
Layer1
 10
439.857
 20
359.214
  0
VERTEX
  8
Layer1
 10
439.846
 20
359.183
  0
VERTEX
  8
Layer1
 10
439.838
 20
359.154
  0
VERTEX
  8
Layer1
 10
439.831
 20
359.123
  0
VERTEX
  8
Layer1
 10
439.826
 20
359.092
  0
VERTEX
  8
Layer1
 10
439.822
 20
359.06
  0
VERTEX
  8
Layer1
 10
439.82
 20
359.029
  0
VERTEX
  8
Layer1
 10
439.82
 20
358.996
  0
VERTEX
  8
Layer1
 10
439.82
 20
358.965
  0
VERTEX
  8
Layer1
 10
439.825
 20
358.933
  0
VERTEX
  8
Layer1
 10
439.828
 20
358.902
  0
VERTEX
  8
Layer1
 10
439.836
 20
358.871
  0
VERTEX
  8
Layer1
 10
439.844
 20
358.84
  0
VERTEX
  8
Layer1
 10
439.854
 20
358.81
  0
VERTEX
  8
Layer1
 10
439.866
 20
358.781
  0
VERTEX
  8
Layer1
 10
439.879
 20
358.753
  0
VERTEX
  8
Layer1
 10
439.892
 20
358.724
  0
VERTEX
  8
Layer1
 10
439.909
 20
358.697
  0
VERTEX
  8
Layer1
 10
439.927
 20
358.671
  0
VERTEX
  8
Layer1
 10
439.945
 20
358.645
  0
VERTEX
  8
Layer1
 10
439.967
 20
358.621
  0
VERTEX
  8
Layer1
 10
439.987
 20
358.599
  0
VERTEX
  8
Layer1
 10
440.01
 20
358.577
  0
VERTEX
  8
Layer1
 10
440.034
 20
358.556
  0
VERTEX
  8
Layer1
 10
440.059
 20
358.536
  0
VERTEX
  8
Layer1
 10
440.086
 20
358.518
  0
VERTEX
  8
Layer1
 10
440.112
 20
358.503
  0
VERTEX
  8
Layer1
 10
440.14
 20
358.488
  0
VERTEX
  8
Layer1
 10
440.169
 20
358.474
  0
VERTEX
  8
Layer1
 10
440.198
 20
358.462
  0
VERTEX
  8
Layer1
 10
440.229
 20
358.452
  0
VERTEX
  8
Layer1
 10
440.26
 20
358.443
  0
VERTEX
  8
Layer1
 10
440.291
 20
358.436
  0
VERTEX
  8
Layer1
 10
440.322
 20
358.431
  0
VERTEX
  8
Layer1
 10
440.352
 20
358.428
  0
VERTEX
  8
Layer1
 10
440.385
 20
358.426
  0
VERTEX
  8
Layer1
 10
440.416
 20
358.426
  0
VERTEX
  8
Layer1
 10
440.447
 20
358.428
  0
VERTEX
  8
Layer1
 10
440.48
 20
358.431
  0
VERTEX
  8
Layer1
 10
440.51
 20
358.436
  0
VERTEX
  8
Layer1
 10
440.541
 20
358.443
  0
VERTEX
  8
Layer1
 10
440.572
 20
358.452
  0
VERTEX
  8
Layer1
 10
440.601
 20
358.462
  0
VERTEX
  8
Layer1
 10
440.63
 20
358.474
  0
VERTEX
  8
Layer1
 10
440.659
 20
358.488
  0
VERTEX
  8
Layer1
 10
440.688
 20
358.503
  0
SEQEND
  0
POLYLINE
  8
Layer1
  6
CONTINUOUS
 62
7
 66
1
 10
0
 20
0
 30
0
  0
VERTEX
  8
Layer1
 10
448.904
 20
358.469
  0
VERTEX
  8
Layer1
 10
448.926
 20
358.464
  0
VERTEX
  8
Layer1
 10
448.947
 20
358.458
  0
VERTEX
  8
Layer1
 10
448.967
 20
358.455
  0
VERTEX
  8
Layer1
 10
448.988
 20
358.452
  0
VERTEX
  8
Layer1
 10
449.01
 20
358.45
  0
VERTEX
  8
Layer1
 10
449.031
 20
358.45
  0
VERTEX
  8
Layer1
 10
449.053
 20
358.45
  0
VERTEX
  8
Layer1
 10
449.073
 20
358.45
  0
VERTEX
  8
Layer1
 10
449.096
 20
358.452
  0
VERTEX
  8
Layer1
 10
449.116
 20
358.455
  0
VERTEX
  8
Layer1
 10
449.137
 20
358.459
  0
VERTEX
  8
Layer1
 10
449.159
 20
358.464
  0
VERTEX
  8
Layer1
 10
449.178
 20
358.47
  0
VERTEX
  8
Layer1
 10
449.2
 20
358.476
  0
VERTEX
  8
Layer1
 10
449.219
 20
358.484
  0
VERTEX
  8
Layer1
 10
449.238
 20
358.493
  0
VERTEX
  8
Layer1
 10
449.257
 20
358.503
  0
VERTEX
  8
Layer1
 10
449.277
 20
358.512
  0
VERTEX
  8
Layer1
 10
449.294
 20
358.524
  0
VERTEX
  8
Layer1
 10
449.313
 20
358.536
  0
VERTEX
  8
Layer1
 10
449.33
 20
358.548
  0
VERTEX
  8
Layer1
 10
449.346
 20
358.563
  0
VERTEX
  8
Layer1
 10
449.362
 20
358.577
  0
VERTEX
  8
Layer1
 10
449.378
 20
358.592
  0
VERTEX
  8
Layer1
 10
449.392
 20
358.607
  0
VERTEX
  8
Layer1
 10
449.406
 20
358.623
  0
VERTEX
  8
Layer1
 10
449.419
 20
358.64
  0
VERTEX
  8
Layer1
 10
449.432
 20
358.657
  0
VERTEX
  8
Layer1
 10
449.443
 20
358.676
  0
VERTEX
  8
Layer1
 10
449.455
 20
358.695
  0
VERTEX
  8
Layer1
 10
449.463
 20
358.714
  0
VERTEX
  8
Layer1
 10
449.472
 20
358.732
  0
VERTEX
  8
Layer1
 10
449.481
 20
358.753
  0
VERTEX
  8
Layer1
 10
449.488
 20
358.772
  0
VERTEX
  8
Layer1
 10
449.495
 20
358.793
  0
VERTEX
  8
Layer1
 10
449.5
 20
358.813
  0
VERTEX
  8
Layer1
 10
449.505
 20
358.834
  0
VERTEX
  8
Layer1
 10
449.507
 20
358.856
  0
VERTEX
  8
Layer1
 10
449.51
 20
358.878
  0
VERTEX
  8
Layer1
 10
449.511
 20
358.899
  0
VERTEX
  8
Layer1
 10
449.512
 20
358.919
  0
VERTEX
  8
Layer1
 10
449.512
 20
358.941
  0
VERTEX
  8
Layer1
 10
449.51
 20
358.962
  0
VERTEX
  8
Layer1
 10
449.509
 20
358.984
  0
VERTEX
  8
Layer1
 10
449.505
 20
359.005
  0
VERTEX
  8
Layer1
 10
449.5
 20
359.027
  0
VERTEX
  8
Layer1
 10
449.495
 20
359.046
  0
VERTEX
  8
Layer1
 10
449.49
 20
359.068
  0
SEQEND
  0
LINE
  8
Layer1
  6
CONTINUOUS
 62
7
 10
447.626
 20
358.803
 11
447.626
 21
356.9
  0
LINE
  8
Layer1
  6
CONTINUOUS
 62
7
 10
441.481
 20
358.846
 11
441.481
 21
356.9
  0
LINE
  8
Layer1
  6
CONTINUOUS
 62
7
 10
440.334
 20
356.9
 11
439.611
 21
356.176
  0
LINE
  8
Layer1
  6
CONTINUOUS
 62
7
 10
448.784
 20
356.9
 11
449.507
 21
356.176
  0
LINE
  8
Layer1
  6
CONTINUOUS
 62
7
 10
637.823
 20
363.474
 11
646.726
 21
363.474
  0
LINE
  8
Layer1
  6
CONTINUOUS
 62
7
 10
637.823
 20
361.161
 11
645.659
 21
361.161
  0
LINE
  8
Layer1
  6
CONTINUOUS
 62
7
 10
646.726
 20
363.474
 11
648.15
 21
361.813
  0
LINE
  8
Layer1
  6
CONTINUOUS
 62
7
 10
648.15
 20
361.161
 11
648.15
 21
361.813
  0
POLYLINE
  8
Layer1
  6
CONTINUOUS
 62
7
 66
1
 10
0
 20
0
 30
0
  0
VERTEX
  8
Layer1
 10
645.659
 20
361.161
  0
VERTEX
  8
Layer1
 10
645.659
 20
361.078
  0
VERTEX
  8
Layer1
 10
645.668
 20
360.996
  0
VERTEX
  8
Layer1
 10
645.679
 20
360.916
  0
VERTEX
  8
Layer1
 10
645.697
 20
360.835
  0
VERTEX
  8
Layer1
 10
645.721
 20
360.756
  0
VERTEX
  8
Layer1
 10
645.75
 20
360.679
  0
VERTEX
  8
Layer1
 10
645.783
 20
360.604
  0
VERTEX
  8
Layer1
 10
645.821
 20
360.531
  0
VERTEX
  8
Layer1
 10
645.863
 20
360.462
  0
VERTEX
  8
Layer1
 10
645.911
 20
360.394
  0
VERTEX
  8
Layer1
 10
645.962
 20
360.33
  0
VERTEX
  8
Layer1
 10
646.019
 20
360.27
  0
VERTEX
  8
Layer1
 10
646.079
 20
360.214
  0
VERTEX
  8
Layer1
 10
646.141
 20
360.161
  0
VERTEX
  8
Layer1
 10
646.208
 20
360.113
  0
VERTEX
  8
Layer1
 10
646.277
 20
360.07
  0
VERTEX
  8
Layer1
 10
646.35
 20
360.031
  0
VERTEX
  8
Layer1
 10
646.425
 20
359.998
  0
VERTEX
  8
Layer1
 10
646.502
 20
359.969
  0
VERTEX
  8
Layer1
 10
646.58
 20
359.945
  0
VERTEX
  8
Layer1
 10
646.659
 20
359.926
  0
VERTEX
  8
Layer1
 10
646.741
 20
359.911
  0
VERTEX
  8
Layer1
 10
646.822
 20
359.904
  0
VERTEX
  8
Layer1
 10
646.904
 20
359.902
  0
VERTEX
  8
Layer1
 10
646.986
 20
359.904
  0
VERTEX
  8
Layer1
 10
647.068
 20
359.911
  0
VERTEX
  8
Layer1
 10
647.149
 20
359.926
  0
VERTEX
  8
Layer1
 10
647.229
 20
359.945
  0
VERTEX
  8
Layer1
 10
647.308
 20
359.969
  0
VERTEX
  8
Layer1
 10
647.385
 20
359.998
  0
VERTEX
  8
Layer1
 10
647.459
 20
360.031
  0
VERTEX
  8
Layer1
 10
647.532
 20
360.07
  0
VERTEX
  8
Layer1
 10
647.601
 20
360.113
  0
VERTEX
  8
Layer1
 10
647.668
 20
360.161
  0
VERTEX
  8
Layer1
 10
647.731
 20
360.214
  0
VERTEX
  8
Layer1
 10
647.791
 20
360.27
  0
VERTEX
  8
Layer1
 10
647.846
 20
360.33
  0
VERTEX
  8
Layer1
 10
647.898
 20
360.394
  0
VERTEX
  8
Layer1
 10
647.946
 20
360.462
  0
VERTEX
  8
Layer1
 10
647.988
 20
360.531
  0
VERTEX
  8
Layer1
 10
648.026
 20
360.604
  0
VERTEX
  8
Layer1
 10
648.06
 20
360.679
  0
VERTEX
  8
Layer1
 10
648.087
 20
360.756
  0
VERTEX
  8
Layer1
 10
648.111
 20
360.835
  0
VERTEX
  8
Layer1
 10
648.13
 20
360.916
  0
VERTEX
  8
Layer1
 10
648.141
 20
360.996
  0
VERTEX
  8
Layer1
 10
648.149
 20
361.078
  0
VERTEX
  8
Layer1
 10
648.15
 20
361.161
  0
SEQEND
  0
LINE
  8
Layer1
  6
CONTINUOUS
 62
7
 10
637.823
 20
363.474
 11
635.41
 21
360.946
  0
LINE
  8
Layer1
  6
CONTINUOUS
 62
7
 10
637.823
 20
361.161
 11
636.399
 21
359.914
  0
POLYLINE
  8
Layer1
  6
CONTINUOUS
 62
7
 66
1
 10
0
 20
0
 30
0
  0
VERTEX
  8
Layer1
 10
635.41
 20
360.946
  0
VERTEX
  8
Layer1
 10
635.38
 20
360.912
  0
VERTEX
  8
Layer1
 10
635.351
 20
360.876
  0
VERTEX
  8
Layer1
 10
635.325
 20
360.839
  0
VERTEX
  8
Layer1
 10
635.303
 20
360.801
  0
VERTEX
  8
Layer1
 10
635.282
 20
360.76
  0
VERTEX
  8
Layer1
 10
635.264
 20
360.719
  0
VERTEX
  8
Layer1
 10
635.247
 20
360.676
  0
VERTEX
  8
Layer1
 10
635.236
 20
360.631
  0
VERTEX
  8
Layer1
 10
635.226
 20
360.587
  0
VERTEX
  8
Layer1
 10
635.217
 20
360.542
  0
VERTEX
  8
Layer1
 10
635.214
 20
360.498
  0
VERTEX
  8
Layer1
 10
635.212
 20
360.452
  0
VERTEX
  8
Layer1
 10
635.214
 20
360.406
  0
VERTEX
  8
Layer1
 10
635.218
 20
360.361
  0
VERTEX
  8
Layer1
 10
635.226
 20
360.316
  0
VERTEX
  8
Layer1
 10
635.236
 20
360.272
  0
VERTEX
  8
Layer1
 10
635.248
 20
360.229
  0
VERTEX
  8
Layer1
 10
635.264
 20
360.185
  0
VERTEX
  8
Layer1
 10
635.283
 20
360.143
  0
VERTEX
  8
Layer1
 10
635.303
 20
360.104
  0
VERTEX
  8
Layer1
 10
635.327
 20
360.065
  0
VERTEX
  8
Layer1
 10
635.352
 20
360.027
  0
VERTEX
  8
Layer1
 10
635.38
 20
359.991
  0
VERTEX
  8
Layer1
 10
635.411
 20
359.957
  0
VERTEX
  8
Layer1
 10
635.443
 20
359.926
  0
VERTEX
  8
Layer1
 10
635.477
 20
359.895
  0
VERTEX
  8
Layer1
 10
635.515
 20
359.868
  0
VERTEX
  8
Layer1
 10
635.553
 20
359.844
  0
VERTEX
  8
Layer1
 10
635.592
 20
359.82
  0
VERTEX
  8
Layer1
 10
635.632
 20
359.801
  0
VERTEX
  8
Layer1
 10
635.675
 20
359.784
  0
VERTEX
  8
Layer1
 10
635.717
 20
359.768
  0
VERTEX
  8
Layer1
 10
635.762
 20
359.756
  0
VERTEX
  8
Layer1
 10
635.805
 20
359.748
  0
VERTEX
  8
Layer1
 10
635.851
 20
359.741
  0
VERTEX
  8
Layer1
 10
635.897
 20
359.738
  0
VERTEX
  8
Layer1
 10
635.942
 20
359.736
  0
VERTEX
  8
Layer1
 10
635.987
 20
359.739
  0
VERTEX
  8
Layer1
 10
636.033
 20
359.744
  0
VERTEX
  8
Layer1
 10
636.077
 20
359.753
  0
VERTEX
  8
Layer1
 10
636.121
 20
359.763
  0
VERTEX
  8
Layer1
 10
636.164
 20
359.777
  0
VERTEX
  8
Layer1
 10
636.207
 20
359.793
  0
VERTEX
  8
Layer1
 10
636.248
 20
359.813
  0
VERTEX
  8
Layer1
 10
636.289
 20
359.834
  0
VERTEX
  8
Layer1
 10
636.327
 20
359.858
  0
VERTEX
  8
Layer1
 10
636.365
 20
359.885
  0
VERTEX
  8
Layer1
 10
636.399
 20
359.914
  0
SEQEND
  0
LINE
  8
Layer1
  6
CONTINUOUS
 62
7
 10
639.144
 20
361.161
 11
639.144
 21
358.037
  0
LINE
  8
Layer1
  6
CONTINUOUS
 62
7
 10
645.054
 20
361.161
 11
645.054
 21
358.037
  0
LINE
  8
Layer1
  6
CONTINUOUS
 62
7
 10
647.255
 20
354.305
 11
647.255
 21
357.392
  0
LINE
  8
Layer1
  6
CONTINUOUS
 62
7
 10
647.255
 20
357.392
 11
646.138
 21
358.037
  0
LINE
  8
Layer1
  6
CONTINUOUS
 62
7
 10
646.138
 20
358.037
 11
638.235
 21
358.037
  0
LINE
  8
Layer1
  6
CONTINUOUS
 62
7
 10
638.235
 20
358.037
 11
637.116
 21
357.392
  0
LINE
  8
Layer1
  6
CONTINUOUS
 62
7
 10
637.116
 20
357.392
 11
637.116
 21
354.305
  0
LINE
  8
Layer1
  6
CONTINUOUS
 62
7
 10
644.721
 20
354.305
 11
644.721
 21
357.392
  0
LINE
  8
Layer1
  6
CONTINUOUS
 62
7
 10
639.651
 20
354.305
 11
639.651
 21
357.392
  0
POLYLINE
  8
Layer1
  6
CONTINUOUS
 62
7
 66
1
 10
0
 20
0
 30
0
  0
VERTEX
  8
Layer1
 10
644.721
 20
357.392
  0
VERTEX
  8
Layer1
 10
644.619
 20
357.423
  0
VERTEX
  8
Layer1
 10
644.515
 20
357.453
  0
VERTEX
  8
Layer1
 10
644.413
 20
357.482
  0
VERTEX
  8
Layer1
 10
644.308
 20
357.51
  0
VERTEX
  8
Layer1
 10
644.205
 20
357.537
  0
VERTEX
  8
Layer1
 10
644.101
 20
357.563
  0
VERTEX
  8
Layer1
 10
643.995
 20
357.587
  0
VERTEX
  8
Layer1
 10
643.89
 20
357.608
  0
VERTEX
  8
Layer1
 10
643.785
 20
357.63
  0
VERTEX
  8
Layer1
 10
643.68
 20
357.649
  0
VERTEX
  8
Layer1
 10
643.574
 20
357.668
  0
VERTEX
  8
Layer1
 10
643.468
 20
357.685
  0
VERTEX
  8
Layer1
 10
643.362
 20
357.7
  0
VERTEX
  8
Layer1
 10
643.256
 20
357.715
  0
VERTEX
  8
Layer1
 10
643.149
 20
357.729
  0
VERTEX
  8
Layer1
 10
643.043
 20
357.739
  0
VERTEX
  8
Layer1
 10
642.937
 20
357.75
  0
VERTEX
  8
Layer1
 10
642.83
 20
357.76
  0
VERTEX
  8
Layer1
 10
642.722
 20
357.767
  0
VERTEX
  8
Layer1
 10
642.616
 20
357.772
  0
VERTEX
  8
Layer1
 10
642.507
 20
357.777
  0
VERTEX
  8
Layer1
 10
642.4
 20
357.781
  0
VERTEX
  8
Layer1
 10
642.293
 20
357.784
  0
VERTEX
  8
Layer1
 10
642.187
 20
357.784
  0
VERTEX
  8
Layer1
 10
642.079
 20
357.784
  0
VERTEX
  8
Layer1
 10
641.971
 20
357.781
  0
VERTEX
  8
Layer1
 10
641.865
 20
357.777
  0
VERTEX
  8
Layer1
 10
641.757
 20
357.772
  0
VERTEX
  8
Layer1
 10
641.649
 20
357.767
  0
VERTEX
  8
Layer1
 10
641.543
 20
357.76
  0
VERTEX
  8
Layer1
 10
641.436
 20
357.75
  0
VERTEX
  8
Layer1
 10
641.33
 20
357.739
  0
VERTEX
  8
Layer1
 10
641.222
 20
357.729
  0
VERTEX
  8
Layer1
 10
641.116
 20
357.715
  0
VERTEX
  8
Layer1
 10
641.01
 20
357.7
  0
VERTEX
  8
Layer1
 10
640.904
 20
357.685
  0
VERTEX
  8
Layer1
 10
640.798
 20
357.668
  0
VERTEX
  8
Layer1
 10
640.692
 20
357.649
  0
VERTEX
  8
Layer1
 10
640.587
 20
357.63
  0
VERTEX
  8
Layer1
 10
640.481
 20
357.608
  0
VERTEX
  8
Layer1
 10
640.377
 20
357.587
  0
VERTEX
  8
Layer1
 10
640.272
 20
357.563
  0
VERTEX
  8
Layer1
 10
640.168
 20
357.537
  0
VERTEX
  8
Layer1
 10
640.063
 20
357.51
  0
VERTEX
  8
Layer1
 10
639.959
 20
357.482
  0
VERTEX
  8
Layer1
 10
639.856
 20
357.453
  0
VERTEX
  8
Layer1
 10
639.754
 20
357.423
  0
VERTEX
  8
Layer1
 10
639.651
 20
357.392
  0
SEQEND
  0
POLYLINE
  8
Layer1
  6
CONTINUOUS
 62
7
 66
1
 10
0
 20
0
 30
0
  0
VERTEX
  8
Layer1
 10
647.255
 20
357.392
  0
VERTEX
  8
Layer1
 10
647.208
 20
357.423
  0
VERTEX
  8
Layer1
 10
647.161
 20
357.452
  0
VERTEX
  8
Layer1
 10
647.113
 20
357.481
  0
VERTEX
  8
Layer1
 10
647.064
 20
357.508
  0
VERTEX
  8
Layer1
 10
647.015
 20
357.536
  0
VERTEX
  8
Layer1
 10
646.965
 20
357.56
  0
VERTEX
  8
Layer1
 10
646.914
 20
357.584
  0
VERTEX
  8
Layer1
 10
646.862
 20
357.606
  0
VERTEX
  8
Layer1
 10
646.811
 20
357.628
  0
VERTEX
  8
Layer1
 10
646.757
 20
357.647
  0
VERTEX
  8
Layer1
 10
646.705
 20
357.666
  0
VERTEX
  8
Layer1
 10
646.651
 20
357.683
  0
VERTEX
  8
Layer1
 10
646.597
 20
357.7
  0
VERTEX
  8
Layer1
 10
646.543
 20
357.714
  0
VERTEX
  8
Layer1
 10
646.488
 20
357.727
  0
VERTEX
  8
Layer1
 10
646.433
 20
357.739
  0
VERTEX
  8
Layer1
 10
646.379
 20
357.75
  0
VERTEX
  8
Layer1
 10
646.323
 20
357.758
  0
VERTEX
  8
Layer1
 10
646.267
 20
357.767
  0
VERTEX
  8
Layer1
 10
646.212
 20
357.772
  0
VERTEX
  8
Layer1
 10
646.157
 20
357.777
  0
VERTEX
  8
Layer1
 10
646.101
 20
357.78
  0
VERTEX
  8
Layer1
 10
646.044
 20
357.784
  0
VERTEX
  8
Layer1
 10
645.987
 20
357.784
  0
VERTEX
  8
Layer1
 10
645.931
 20
357.784
  0
VERTEX
  8
Layer1
 10
645.875
 20
357.78
  0
VERTEX
  8
Layer1
 10
645.82
 20
357.777
  0
VERTEX
  8
Layer1
 10
645.764
 20
357.772
  0
VERTEX
  8
Layer1
 10
645.708
 20
357.767
  0
VERTEX
  8
Layer1
 10
645.652
 20
357.758
  0
VERTEX
  8
Layer1
 10
645.597
 20
357.75
  0
VERTEX
  8
Layer1
 10
645.542
 20
357.739
  0
VERTEX
  8
Layer1
 10
645.487
 20
357.727
  0
VERTEX
  8
Layer1
 10
645.433
 20
357.714
  0
VERTEX
  8
Layer1
 10
645.379
 20
357.7
  0
VERTEX
  8
Layer1
 10
645.324
 20
357.683
  0
VERTEX
  8
Layer1
 10
645.272
 20
357.666
  0
VERTEX
  8
Layer1
 10
645.218
 20
357.647
  0
VERTEX
  8
Layer1
 10
645.166
 20
357.628
  0
VERTEX
  8
Layer1
 10
645.113
 20
357.606
  0
VERTEX
  8
Layer1
 10
645.063
 20
357.584
  0
VERTEX
  8
Layer1
 10
645.012
 20
357.56
  0
VERTEX
  8
Layer1
 10
644.962
 20
357.536
  0
VERTEX
  8
Layer1
 10
644.911
 20
357.508
  0
VERTEX
  8
Layer1
 10
644.862
 20
357.481
  0
VERTEX
  8
Layer1
 10
644.814
 20
357.452
  0
VERTEX
  8
Layer1
 10
644.767
 20
357.423
  0
VERTEX
  8
Layer1
 10
644.721
 20
357.392
  0
SEQEND
  0
POLYLINE
  8
Layer1
  6
CONTINUOUS
 62
7
 66
1
 10
0
 20
0
 30
0
  0
VERTEX
  8
Layer1
 10
639.651
 20
357.392
  0
VERTEX
  8
Layer1
 10
639.604
 20
357.423
  0
VERTEX
  8
Layer1
 10
639.558
 20
357.452
  0
VERTEX
  8
Layer1
 10
639.51
 20
357.481
  0
VERTEX
  8
Layer1
 10
639.46
 20
357.508
  0
VERTEX
  8
Layer1
 10
639.41
 20
357.536
  0
VERTEX
  8
Layer1
 10
639.361
 20
357.56
  0
VERTEX
  8
Layer1
 10
639.31
 20
357.584
  0
VERTEX
  8
Layer1
 10
639.258
 20
357.606
  0
VERTEX
  8
Layer1
 10
639.207
 20
357.628
  0
VERTEX
  8
Layer1
 10
639.154
 20
357.647
  0
VERTEX
  8
Layer1
 10
639.101
 20
357.666
  0
VERTEX
  8
Layer1
 10
639.048
 20
357.683
  0
VERTEX
  8
Layer1
 10
638.994
 20
357.7
  0
VERTEX
  8
Layer1
 10
638.939
 20
357.714
  0
VERTEX
  8
Layer1
 10
638.885
 20
357.727
  0
VERTEX
  8
Layer1
 10
638.831
 20
357.739
  0
VERTEX
  8
Layer1
 10
638.774
 20
357.75
  0
VERTEX
  8
Layer1
 10
638.719
 20
357.758
  0
VERTEX
  8
Layer1
 10
638.664
 20
357.767
  0
VERTEX
  8
Layer1
 10
638.609
 20
357.772
  0
VERTEX
  8
Layer1
 10
638.553
 20
357.777
  0
VERTEX
  8
Layer1
 10
638.496
 20
357.78
  0
VERTEX
  8
Layer1
 10
638.44
 20
357.784
  0
VERTEX
  8
Layer1
 10
638.385
 20
357.784
  0
VERTEX
  8
Layer1
 10
638.327
 20
357.784
  0
VERTEX
  8
Layer1
 10
638.272
 20
357.78
  0
VERTEX
  8
Layer1
 10
638.216
 20
357.777
  0
VERTEX
  8
Layer1
 10
638.159
 20
357.772
  0
VERTEX
  8
Layer1
 10
638.104
 20
357.767
  0
VERTEX
  8
Layer1
 10
638.048
 20
357.758
  0
VERTEX
  8
Layer1
 10
637.994
 20
357.75
  0
VERTEX
  8
Layer1
 10
637.938
 20
357.739
  0
VERTEX
  8
Layer1
 10
637.883
 20
357.727
  0
VERTEX
  8
Layer1
 10
637.829
 20
357.714
  0
VERTEX
  8
Layer1
 10
637.774
 20
357.7
  0
VERTEX
  8
Layer1
 10
637.721
 20
357.683
  0
VERTEX
  8
Layer1
 10
637.668
 20
357.666
  0
VERTEX
  8
Layer1
 10
637.615
 20
357.647
  0
VERTEX
  8
Layer1
 10
637.562
 20
357.628
  0
VERTEX
  8
Layer1
 10
637.51
 20
357.606
  0
VERTEX
  8
Layer1
 10
637.458
 20
357.584
  0
VERTEX
  8
Layer1
 10
637.408
 20
357.56
  0
VERTEX
  8
Layer1
 10
637.358
 20
357.536
  0
VERTEX
  8
Layer1
 10
637.308
 20
357.508
  0
VERTEX
  8
Layer1
 10
637.258
 20
357.481
  0
VERTEX
  8
Layer1
 10
637.21
 20
357.452
  0
VERTEX
  8
Layer1
 10
637.164
 20
357.423
  0
VERTEX
  8
Layer1
 10
637.116
 20
357.392
  0
SEQEND
  0
POLYLINE
  8
Layer1
  6
CONTINUOUS
 62
7
 66
1
 10
0
 20
0
 30
0
 70
1
  0
VERTEX
  8
Layer1
 10
647.45
 20
361.147
  0
VERTEX
  8
Layer1
 10
647.446
 20
361.219
  0
VERTEX
  8
Layer1
 10
647.431
 20
361.289
  0
VERTEX
  8
Layer1
 10
647.409
 20
361.356
  0
VERTEX
  8
Layer1
 10
647.378
 20
361.421
  0
VERTEX
  8
Layer1
 10
647.337
 20
361.479
  0
VERTEX
  8
Layer1
 10
647.291
 20
361.534
  0
VERTEX
  8
Layer1
 10
647.236
 20
361.58
  0
VERTEX
  8
Layer1
 10
647.178
 20
361.62
  0
VERTEX
  8
Layer1
 10
647.113
 20
361.652
  0
VERTEX
  8
Layer1
 10
647.045
 20
361.674
  0
VERTEX
  8
Layer1
 10
646.976
 20
361.688
  0
VERTEX
  8
Layer1
 10
646.904
 20
361.693
  0
VERTEX
  8
Layer1
 10
646.833
 20
361.688
  0
VERTEX
  8
Layer1
 10
646.764
 20
361.674
  0
VERTEX
  8
Layer1
 10
646.696
 20
361.652
  0
VERTEX
  8
Layer1
 10
646.631
 20
361.62
  0
VERTEX
  8
Layer1
 10
646.572
 20
361.58
  0
VERTEX
  8
Layer1
 10
646.519
 20
361.534
  0
VERTEX
  8
Layer1
 10
646.471
 20
361.479
  0
VERTEX
  8
Layer1
 10
646.431
 20
361.421
  0
VERTEX
  8
Layer1
 10
646.4
 20
361.356
  0
VERTEX
  8
Layer1
 10
646.378
 20
361.289
  0
VERTEX
  8
Layer1
 10
646.363
 20
361.219
  0
VERTEX
  8
Layer1
 10
646.359
 20
361.147
  0
VERTEX
  8
Layer1
 10
646.363
 20
361.077
  0
VERTEX
  8
Layer1
 10
646.378
 20
361.006
  0
VERTEX
  8
Layer1
 10
646.4
 20
360.938
  0
VERTEX
  8
Layer1
 10
646.431
 20
360.875
  0
VERTEX
  8
Layer1
 10
646.471
 20
360.815
  0
VERTEX
  8
Layer1
 10
646.519
 20
360.762
  0
VERTEX
  8
Layer1
 10
646.572
 20
360.714
  0
VERTEX
  8
Layer1
 10
646.631
 20
360.674
  0
VERTEX
  8
Layer1
 10
646.696
 20
360.643
  0
VERTEX
  8
Layer1
 10
646.764
 20
360.62
  0
VERTEX
  8
Layer1
 10
646.833
 20
360.606
  0
VERTEX
  8
Layer1
 10
646.904
 20
360.601
  0
VERTEX
  8
Layer1
 10
646.976
 20
360.606
  0
VERTEX
  8
Layer1
 10
647.045
 20
360.62
  0
VERTEX
  8
Layer1
 10
647.113
 20
360.643
  0
VERTEX
  8
Layer1
 10
647.178
 20
360.674
  0
VERTEX
  8
Layer1
 10
647.236
 20
360.714
  0
VERTEX
  8
Layer1
 10
647.291
 20
360.762
  0
VERTEX
  8
Layer1
 10
647.337
 20
360.815
  0
VERTEX
  8
Layer1
 10
647.378
 20
360.875
  0
VERTEX
  8
Layer1
 10
647.409
 20
360.938
  0
VERTEX
  8
Layer1
 10
647.431
 20
361.006
  0
VERTEX
  8
Layer1
 10
647.446
 20
361.077
  0
SEQEND
  0
LINE
  8
Layer1
  6
CONTINUOUS
 62
7
 10
639.144
 20
348.433
 11
639.144
 21
354.305
  0
LINE
  8
Layer1
  6
CONTINUOUS
 62
7
 10
645.144
 20
348.433
 11
645.144
 21
354.305
  0
LINE
  8
Layer1
  6
DASHED1
 62
7
 10
637.116
 20
354.305
 11
647.255
 21
354.305
  0
LINE
  8
Layer1
  6
CONTINUOUS
 62
7
 10
393.6
 20
284.305
 11
393.6
 21
298.305
  0
LINE
  8
Layer1
  6
CONTINUOUS
 62
7
 10
495.599
 20
298.305
 11
495.599
 21
284.305
  0
LINE
  8
Layer1
  6
CONTINUOUS
 62
7
 10
412.1
 20
340.305
 11
412.1
 21
302.305
  0
LINE
  8
Layer1
  6
CONTINUOUS
 62
7
 10
427.1
 20
306.305
 11
427.1
 21
340.305
  0
LINE
  8
Layer1
  6
CONTINUOUS
 62
7
 10
462.1
 20
306.305
 11
462.1
 21
340.305
  0
LINE
  8
Layer1
  6
CONTINUOUS
 62
7
 10
461.1
 20
341.305
 11
428.1
 21
341.305
  0
LINE
  8
Layer1
  6
CONTINUOUS
 62
7
 10
427.1
 20
306.305
 11
462.1
 21
306.305
  0
LINE
  8
Layer1
  6
CONTINUOUS
 62
7
 10
428.1
 20
341.305
 11
427.1
 21
340.305
  0
LINE
  8
Layer1
  6
CONTINUOUS
 62
7
 10
461.1
 20
341.305
 11
462.1
 21
340.305
  0
LINE
  8
Layer1
  6
CONTINUOUS
 62
7
 10
462.1
 20
307.305
 11
461.1
 21
306.305
  0
LINE
  8
Layer1
  6
CONTINUOUS
 62
7
 10
428.1
 20
306.305
 11
427.1
 21
307.305
  0
LINE
  8
Layer1
  6
CONTINUOUS
 62
7
 10
462.1
 20
397.106
 11
427.1
 21
397.106
  0
LINE
  8
Layer1
  6
DASHED1
 62
7
 10
426.1
 20
330.106
 11
426.1
 21
368.305
  0
LINE
  8
Layer1
  6
DASHED1
 62
7
 10
463.1
 20
330.106
 11
463.1
 21
368.305
  0
LINE
  8
Layer1
  6
CONTINUOUS
 62
7
 10
427.1
 20
397.106
 11
426.1
 21
396.106
  0
LINE
  8
Layer1
  6
CONTINUOUS
 62
7
 10
462.1
 20
397.106
 11
463.1
 21
396.106
  0
LINE
  8
Layer1
  6
DASHED1
 62
7
 10
463.1
 20
330.106
 11
461.1
 21
328.106
  0
LINE
  8
Layer1
  6
DASHED1
 62
7
 10
428.1
 20
328.106
 11
426.1
 21
330.106
  0
LINE
  8
Layer1
  6
CONTINUOUS
 62
7
 10
477.099
 20
340.305
 11
477.099
 21
302.305
  0
ARC
  8
Layer1
  6
CONTINUOUS
 62
7
 10
409.1
 20
302.305
 40
3
 50
270
 51
0
  0
ARC
  8
Layer1
  6
CONTINUOUS
 62
7
 10
480.099
 20
302.305
 40
3
 50
180
 51
270
  0
LINE
  8
Layer1
  6
CONTINUOUS
 62
7
 10
393.6
 20
298.305
 11
394.6
 21
299.305
  0
LINE
  8
Layer1
  6
CONTINUOUS
 62
7
 10
393.6
 20
284.305
 11
394.6
 21
283.305
  0
LINE
  8
Layer1
  6
CONTINUOUS
 62
7
 10
495.599
 20
284.305
 11
494.599
 21
283.305
  0
LINE
  8
Layer1
  6
CONTINUOUS
 62
7
 10
495.599
 20
298.305
 11
494.599
 21
299.305
  0
LINE
  8
Layer1
  6
CONTINUOUS
 62
7
 10
413.1
 20
341.305
 11
412.1
 21
340.305
  0
LINE
  8
Layer1
  6
CONTINUOUS
 62
7
 10
476.099
 20
341.305
 11
477.099
 21
340.305
  0
LINE
  8
Layer1
  6
DASHED1
 62
7
 10
428.1
 20
328.106
 11
461.1
 21
328.106
  0
LINE
  8
Layer1
  6
CENTER1
 62
7
 10
433.6
 20
302.894
 11
433.6
 21
319.794
  0
LINE
  8
Layer1
  6
CENTER1
 62
7
 10
425.301
 20
312.305
 11
442.309
 21
312.305
  0
LINE
  8
Layer1
  6
CENTER1
 62
7
 10
448.156
 20
334.305
 11
462.1
 21
334.305
  0
LINE
  8
Layer1
  6
CENTER1
 62
7
 10
455.6
 20
328.106
 11
455.6
 21
345.644
  0
CIRCLE
  8
Layer1
  6
CONTINUOUS
 62
7
 10
455.6
 20
334.305
 40
5
  0
CIRCLE
  8
Layer1
  6
CONTINUOUS
 62
7
 10
433.6
 20
312.305
 40
5
  0
POLYLINE
  8
Layer1
  6
CONTINUOUS
 62
7
 66
1
 10
0
 20
0
 30
0
 70
1
  0
VERTEX
  8
Layer1
 10
455.6
 20
337.166
  0
VERTEX
  8
Layer1
 10
453.123
 20
335.736
  0
VERTEX
  8
Layer1
 10
453.123
 20
332.875
  0
VERTEX
  8
Layer1
 10
455.6
 20
331.445
  0
VERTEX
  8
Layer1
 10
458.077
 20
332.875
  0
VERTEX
  8
Layer1
 10
458.077
 20
335.736
  0
SEQEND
  0
POLYLINE
  8
Layer1
  6
CONTINUOUS
 62
7
 66
1
 10
0
 20
0
 30
0
 70
1
  0
VERTEX
  8
Layer1
 10
433.6
 20
315.165
  0
VERTEX
  8
Layer1
 10
431.123
 20
313.736
  0
VERTEX
  8
Layer1
 10
431.123
 20
310.875
  0
VERTEX
  8
Layer1
 10
433.6
 20
309.445
  0
VERTEX
  8
Layer1
 10
436.077
 20
310.875
  0
VERTEX
  8
Layer1
 10
436.077
 20
313.736
  0
SEQEND
  0
LINE
  8
Layer1
  6
CONTINUOUS
 62
7
 10
476.099
 20
354.305
 11
413.1
 21
354.305
  0
LINE
  8
Layer1
  6
CONTINUOUS
 62
7
 10
476.099
 20
368.305
 11
413.1
 21
368.305
  0
LINE
  8
Layer1
  6
CONTINUOUS
 62
7
 10
412.1
 20
367.305
 11
412.1
 21
342.305
  0
LINE
  8
Layer1
  6
CONTINUOUS
 62
7
 10
477.099
 20
367.305
 11
477.099
 21
342.305
  0
LINE
  8
Layer1
  6
CONTINUOUS
 62
7
 10
413.1
 20
368.305
 11
412.1
 21
367.305
  0
LINE
  8
Layer1
  6
CONTINUOUS
 62
7
 10
412.1
 20
342.305
 11
413.1
 21
341.305
  0
LINE
  8
Layer1
  6
CONTINUOUS
 62
7
 10
476.099
 20
341.305
 11
477.099
 21
342.305
  0
LINE
  8
Layer1
  6
CONTINUOUS
 62
7
 10
477.099
 20
367.305
 11
476.099
 21
368.305
  0
LINE
  8
Layer1
  6
CONTINUOUS
 62
7
 10
413.1
 20
354.305
 11
412.1
 21
353.305
  0
LINE
  8
Layer1
  6
CONTINUOUS
 62
7
 10
476.099
 20
354.305
 11
477.099
 21
353.305
  0
LINE
  8
Layer1
  6
CONTINUOUS
 62
7
 10
426.1
 20
368.305
 11
426.1
 21
396.106
  0
LINE
  8
Layer1
  6
CONTINUOUS
 62
7
 10
463.1
 20
368.305
 11
463.1
 21
396.106
  0
LINE
  8
Layer1
  6
CENTER1
 62
7
 10
402.6
 20
280.58
 11
402.6
 21
305.506
  0
LINE
  8
Layer1
  6
CENTER1
 62
7
 10
486.599
 20
278.237
 11
486.599
 21
305.506
  0
LINE
  8
Layer1
  6
CONTINUOUS
 62
7
 10
709.195
 20
397.106
 11
671.195
 21
397.106
  0
LINE
  8
Layer1
  6
CONTINUOUS
 62
7
 10
664.195
 20
368.305
 11
669.195
 21
368.305
  0
LINE
  8
Layer1
  6
CONTINUOUS
 62
7
 10
610.195
 20
299.305
 11
668.939
 21
299.305
  0
LINE
  8
Layer1
  6
CONTINUOUS
 62
7
 10
609.188
 20
341.305
 11
591.195
 21
341.305
  0
LINE
  8
Layer1
  6
CONTINUOUS
 62
7
 10
609.188
 20
306.305
 11
591.195
 21
306.305
  0
LINE
  8
Layer1
  6
CONTINUOUS
 62
7
 10
590.195
 20
307.305
 11
590.195
 21
340.305
  0
LINE
  8
Layer1
  6
CONTINUOUS
 62
7
 10
591.195
 20
341.305
 11
590.195
 21
340.305
  0
LINE
  8
Layer1
  6
CONTINUOUS
 62
7
 10
590.195
 20
307.305
 11
591.195
 21
306.305
  0
LINE
  8
Layer1
  6
CONTINUOUS
 62
7
 10
610.186
 20
340.305
 11
609.186
 21
341.305
  0
LINE
  8
Layer1
  6
CONTINUOUS
 62
7
 10
610.186
 20
307.305
 11
609.186
 21
306.305
  0
LINE
  8
Layer1
  6
CENTER1
 62
7
 10
586.623
 20
334.805
 11
616.621
 21
334.805
  0
LINE
  8
Layer1
  6
CENTER1
 62
7
 10
586.413
 20
312.805
 11
616.621
 21
312.805
  0
LINE
  8
Layer1
  6
CONTINUOUS
 62
7
 10
710.195
 20
396.106
 11
710.195
 21
306.305
  0
LINE
  8
Layer1
  6
CONTINUOUS
 62
7
 10
700.195
 20
328.106
 11
710.195
 21
328.106
  0
LINE
  8
Layer1
  6
CONTINUOUS
 62
7
 10
670.195
 20
396.106
 11
670.195
 21
363.857
  0
LINE
  8
Layer1
  6
CONTINUOUS
 62
7
 10
710.195
 20
316.188
 11
670.195
 21
363.857
  0
LINE
  8
Layer1
  6
CONTINUOUS
 62
7
 10
611.196
 20
354.305
 11
660.195
 21
354.305
  0
LINE
  8
Layer1
  6
CONTINUOUS
 62
7
 10
669.195
 20
341.305
 11
611.186
 21
341.305
  0
LINE
  8
Layer1
  6
CONTINUOUS
 62
7
 10
611.196
 20
354.305
 11
610.195
 21
353.305
  0
LINE
  8
Layer1
  6
CONTINUOUS
 62
7
 10
610.186
 20
342.305
 11
611.186
 21
341.305
  0
LINE
  8
Layer1
  6
DASHED1
 62
7
 10
683.195
 20
397.106
 11
683.195
 21
367.135
  0
LINE
  8
Layer1
  6
DASHED1
 62
7
 10
697.195
 20
397.106
 11
697.195
 21
367.135
  0
LINE
  8
Layer1
  6
CONTINUOUS
 62
7
 10
663.195
 20
367.305
 11
663.195
 21
357.305
  0
LINE
  8
Layer1
  6
CONTINUOUS
 62
7
 10
670.195
 20
367.305
 11
670.195
 21
342.305
  0
LINE
  8
Layer1
  6
DASHED1
 62
7
 10
683.195
 20
361.106
 11
697.195
 21
361.106
  0
LINE
  8
Layer1
  6
CONTINUOUS
 62
7
 10
706.195
 20
397.106
 11
706.195
 21
357.106
  0
LINE
  8
Layer1
  6
CONTINUOUS
 62
7
 10
706.195
 20
357.106
 11
710.195
 21
357.106
  0
LINE
  8
Layer1
  6
DASHED1
 62
7
 10
697.195
 20
361.106
 11
690.195
 21
357.063
  0
LINE
  8
Layer1
  6
DASHED1
 62
7
 10
690.195
 20
357.063
 11
683.195
 21
361.106
  0
LINE
  8
Layer1
  6
CONTINUOUS
 62
7
 10
722.195
 20
296.305
 11
722.195
 21
367.305
  0
CIRCLE
  8
Layer1
  6
DASHED1
 62
7
 10
444.6
 20
294.805
 40
8
  0
LINE
  8
Layer1
  6
DASHED1
 62
7
 10
636.186
 20
302.805
 11
666.635
 21
302.805
  0
LINE
  8
Layer1
  6
DASHED1
 62
7
 10
636.186
 20
286.805
 11
672.18
 21
286.794
  0
LINE
  8
Layer1
  6
CONTINUOUS
 62
7
 10
636.186
 20
286.805
 11
636.186
 21
302.805
  0
LINE
  8
Layer1
  6
CONTINUOUS
 62
7
 10
663.738
 20
306.305
 11
710.195
 21
306.305
  0
POLYLINE
  8
Layer1
  6
CONTINUOUS
 62
7
 66
1
 10
0
 20
0
 30
0
  0
VERTEX
  8
Layer1
 10
680.543
 20
283.305
  0
VERTEX
  8
Layer1
 10
680.263
 20
284.03
  0
VERTEX
  8
Layer1
 10
679.964
 20
284.733
  0
VERTEX
  8
Layer1
 10
679.63
 20
285.391
  0
VERTEX
  8
Layer1
 10
679.24
 20
285.983
  0
VERTEX
  8
Layer1
 10
678.777
 20
286.487
  0
VERTEX
  8
Layer1
 10
678.226
 20
286.88
  0
VERTEX
  8
Layer1
 10
677.58
 20
287.159
  0
VERTEX
  8
Layer1
 10
676.87
 20
287.356
  0
VERTEX
  8
Layer1
 10
676.129
 20
287.512
  0
VERTEX
  8
Layer1
 10
675.388
 20
287.664
  0
VERTEX
  8
Layer1
 10
674.68
 20
287.848
  0
VERTEX
  8
Layer1
 10
674.039
 20
288.106
  0
VERTEX
  8
Layer1
 10
673.495
 20
288.472
  0
VERTEX
  8
Layer1
 10
673.067
 20
288.968
  0
VERTEX
  8
Layer1
 10
672.733
 20
289.572
  0
VERTEX
  8
Layer1
 10
672.468
 20
290.253
  0
VERTEX
  8
Layer1
 10
672.247
 20
290.986
  0
VERTEX
  8
Layer1
 10
672.046
 20
291.741
  0
VERTEX
  8
Layer1
 10
671.84
 20
292.491
  0
VERTEX
  8
Layer1
 10
671.618
 20
293.224
  0
VERTEX
  8
Layer1
 10
671.38
 20
293.943
  0
VERTEX
  8
Layer1
 10
671.13
 20
294.646
  0
VERTEX
  8
Layer1
 10
670.865
 20
295.336
  0
VERTEX
  8
Layer1
 10
670.585
 20
296.011
  0
VERTEX
  8
Layer1
 10
670.293
 20
296.674
  0
VERTEX
  8
Layer1
 10
669.988
 20
297.323
  0
VERTEX
  8
Layer1
 10
669.671
 20
297.962
  0
VERTEX
  8
Layer1
 10
669.342
 20
298.587
  0
VERTEX
  8
Layer1
 10
669
 20
299.202
  0
VERTEX
  8
Layer1
 10
668.647
 20
299.805
  0
VERTEX
  8
Layer1
 10
668.283
 20
300.399
  0
VERTEX
  8
Layer1
 10
667.909
 20
300.983
  0
VERTEX
  8
Layer1
 10
667.524
 20
301.559
  0
VERTEX
  8
Layer1
 10
667.129
 20
302.125
  0
VERTEX
  8
Layer1
 10
666.724
 20
302.684
  0
VERTEX
  8
Layer1
 10
666.31
 20
303.235
  0
VERTEX
  8
Layer1
 10
665.888
 20
303.779
  0
VERTEX
  8
Layer1
 10
665.457
 20
304.315
  0
VERTEX
  8
Layer1
 10
665.016
 20
304.846
  0
VERTEX
  8
Layer1
 10
664.57
 20
305.37
  0
VERTEX
  8
Layer1
 10
664.113
 20
305.889
  0
VERTEX
  8
Layer1
 10
663.65
 20
306.402
  0
VERTEX
  8
Layer1
 10
663.18
 20
306.909
  0
VERTEX
  8
Layer1
 10
662.704
 20
307.413
  0
VERTEX
  8
Layer1
 10
662.221
 20
307.911
  0
VERTEX
  8
Layer1
 10
661.731
 20
308.406
  0
VERTEX
  8
Layer1
 10
661.235
 20
308.897
  0
VERTEX
  8
Layer1
 10
660.733
 20
309.385
  0
VERTEX
  8
Layer1
 10
660.226
 20
309.868
  0
VERTEX
  8
Layer1
 10
659.714
 20
310.351
  0
VERTEX
  8
Layer1
 10
659.196
 20
310.83
  0
VERTEX
  8
Layer1
 10
658.673
 20
311.308
  0
VERTEX
  8
Layer1
 10
658.148
 20
311.783
  0
VERTEX
  8
Layer1
 10
657.616
 20
312.257
  0
VERTEX
  8
Layer1
 10
657.082
 20
312.731
  0
VERTEX
  8
Layer1
 10
656.544
 20
313.202
  0
VERTEX
  8
Layer1
 10
656.004
 20
313.676
  0
VERTEX
  8
Layer1
 10
655.459
 20
314.147
  0
VERTEX
  8
Layer1
 10
654.914
 20
314.62
  0
VERTEX
  8
Layer1
 10
654.365
 20
315.093
  0
VERTEX
  8
Layer1
 10
653.813
 20
315.568
  0
VERTEX
  8
Layer1
 10
653.26
 20
316.043
  0
VERTEX
  8
Layer1
 10
652.706
 20
316.52
  0
VERTEX
  8
Layer1
 10
652.149
 20
317
  0
VERTEX
  8
Layer1
 10
651.592
 20
317.482
  0
VERTEX
  8
Layer1
 10
651.035
 20
317.967
  0
VERTEX
  8
Layer1
 10
650.477
 20
318.455
  0
VERTEX
  8
Layer1
 10
649.919
 20
318.946
  0
VERTEX
  8
Layer1
 10
649.361
 20
319.441
  0
VERTEX
  8
Layer1
 10
648.804
 20
319.94
  0
VERTEX
  8
Layer1
 10
648.247
 20
320.443
  0
VERTEX
  8
Layer1
 10
647.692
 20
320.952
  0
VERTEX
  8
Layer1
 10
647.138
 20
321.467
  0
VERTEX
  8
Layer1
 10
646.584
 20
321.986
  0
VERTEX
  8
Layer1
 10
646.035
 20
322.51
  0
VERTEX
  8
Layer1
 10
645.491
 20
323.041
  0
VERTEX
  8
Layer1
 10
644.954
 20
323.577
  0
VERTEX
  8
Layer1
 10
644.425
 20
324.121
  0
VERTEX
  8
Layer1
 10
643.906
 20
324.673
  0
VERTEX
  8
Layer1
 10
643.399
 20
325.229
  0
VERTEX
  8
Layer1
 10
642.904
 20
325.794
  0
VERTEX
  8
Layer1
 10
642.427
 20
326.366
  0
VERTEX
  8
Layer1
 10
641.965
 20
326.947
  0
VERTEX
  8
Layer1
 10
641.522
 20
327.536
  0
VERTEX
  8
Layer1
 10
641.1
 20
328.132
  0
VERTEX
  8
Layer1
 10
640.699
 20
328.738
  0
VERTEX
  8
Layer1
 10
640.322
 20
329.351
  0
VERTEX
  8
Layer1
 10
639.972
 20
329.976
  0
VERTEX
  8
Layer1
 10
639.649
 20
330.608
  0
VERTEX
  8
Layer1
 10
639.353
 20
331.25
  0
VERTEX
  8
Layer1
 10
639.09
 20
331.904
  0
VERTEX
  8
Layer1
 10
638.859
 20
332.565
  0
VERTEX
  8
Layer1
 10
638.66
 20
333.239
  0
VERTEX
  8
Layer1
 10
638.498
 20
333.923
  0
VERTEX
  8
Layer1
 10
638.375
 20
334.618
  0
VERTEX
  8
Layer1
 10
638.289
 20
335.323
  0
VERTEX
  8
Layer1
 10
638.245
 20
336.041
  0
VERTEX
  8
Layer1
 10
638.235
 20
336.767
  0
VERTEX
  8
Layer1
 10
638.254
 20
337.501
  0
VERTEX
  8
Layer1
 10
638.293
 20
338.239
  0
VERTEX
  8
Layer1
 10
638.346
 20
338.981
  0
VERTEX
  8
Layer1
 10
638.406
 20
339.719
  0
VERTEX
  8
Layer1
 10
638.466
 20
340.457
  0
VERTEX
  8
Layer1
 10
638.519
 20
341.188
  0
VERTEX
  8
Layer1
 10
638.555
 20
341.911
  0
VERTEX
  8
Layer1
 10
638.572
 20
342.625
  0
VERTEX
  8
Layer1
 10
638.56
 20
343.325
  0
VERTEX
  8
Layer1
 10
638.512
 20
344.01
  0
VERTEX
  8
Layer1
 10
638.42
 20
344.676
  0
VERTEX
  8
Layer1
 10
638.279
 20
345.323
  0
VERTEX
  8
Layer1
 10
638.082
 20
345.948
  0
VERTEX
  8
Layer1
 10
637.832
 20
346.551
  0
VERTEX
  8
Layer1
 10
637.531
 20
347.133
  0
VERTEX
  8
Layer1
 10
637.181
 20
347.697
  0
VERTEX
  8
Layer1
 10
636.789
 20
348.243
  0
VERTEX
  8
Layer1
 10
636.353
 20
348.774
  0
VERTEX
  8
Layer1
 10
635.88
 20
349.287
  0
VERTEX
  8
Layer1
 10
635.373
 20
349.787
  0
VERTEX
  8
Layer1
 10
634.834
 20
350.275
  0
VERTEX
  8
Layer1
 10
634.266
 20
350.753
  0
VERTEX
  8
Layer1
 10
633.673
 20
351.219
  0
VERTEX
  8
Layer1
 10
633.058
 20
351.676
  0
VERTEX
  8
Layer1
 10
632.423
 20
352.125
  0
VERTEX
  8
Layer1
 10
631.774
 20
352.57
  0
VERTEX
  8
Layer1
 10
631.111
 20
353.007
  0
VERTEX
  8
Layer1
 10
630.438
 20
353.443
  0
VERTEX
  8
Layer1
 10
629.76
 20
353.875
  0
VERTEX
  8
Layer1
 10
629.077
 20
354.305
  0
SEQEND
  0
LINE
  8
Layer1
  6
DASHED1
 62
7
 10
611.186
 20
306.305
 11
663.738
 21
306.305
  0
LINE
  8
Layer1
  6
CONTINUOUS
 62
7
 10
610.186
 20
307.305
 11
611.186
 21
306.305
  0
LINE
  8
Layer1
  6
CONTINUOUS
 62
7
 10
611.186
 20
341.305
 11
610.186
 21
340.305
  0
LINE
  8
Layer1
  6
CONTINUOUS
 62
7
 10
670.195
 20
342.305
 11
669.195
 21
341.305
  0
LINE
  8
Layer1
  6
CONTINUOUS
 62
7
 10
670.195
 20
367.305
 11
669.195
 21
368.305
  0
LINE
  8
Layer1
  6
CONTINUOUS
 62
7
 10
664.195
 20
368.305
 11
663.195
 21
367.305
  0
ARC
  8
Layer1
  6
CONTINUOUS
 62
7
 10
660.195
 20
357.305
 40
3
 50
270
 51
0
  0
LINE
  8
Layer1
  6
CONTINUOUS
 62
7
 10
610.195
 20
353.305
 11
610.195
 21
342.296
  0
LINE
  8
Layer1
  6
CONTINUOUS
 62
7
 10
665.717
 20
341.305
 11
689.119
 21
341.305
  0
LINE
  8
Layer1
  6
CONTINUOUS
 62
7
 10
711.195
 20
295.305
 11
721.195
 21
295.305
  0
LINE
  8
Layer1
  6
CONTINUOUS
 62
7
 10
711.195
 20
368.305
 11
721.195
 21
368.305
  0
LINE
  8
Layer1
  6
CONTINUOUS
 62
7
 10
721.195
 20
368.305
 11
722.195
 21
367.305
  0
LINE
  8
Layer1
  6
CONTINUOUS
 62
7
 10
721.195
 20
295.305
 11
722.195
 21
296.305
  0
LINE
  8
Layer1
  6
CONTINUOUS
 62
7
 10
710.195
 20
296.305
 11
710.195
 21
367.305
  0
LINE
  8
Layer1
  6
CONTINUOUS
 62
7
 10
710.195
 20
367.305
 11
711.195
 21
368.305
  0
LINE
  8
Layer1
  6
CONTINUOUS
 62
7
 10
710.195
 20
296.305
 11
711.195
 21
295.305
  0
LINE
  8
Layer1
  6
CONTINUOUS
 62
7
 10
710.195
 20
284.305
 11
710.195
 21
300.673
  0
LINE
  8
Layer1
  6
CONTINUOUS
 62
7
 10
710.195
 20
284.305
 11
709.195
 21
283.305
  0
LINE
  8
Layer1
  6
CENTER1
 62
7
 10
706.159
 20
311.305
 11
727.407
 21
311.305
  0
LINE
  8
Layer1
  6
DASHED1
 62
7
 10
710.195
 20
314.305
 11
722.195
 21
314.305
  0
LINE
  8
Layer1
  6
DASHED1
 62
7
 10
710.195
 20
314.805
 11
722.195
 21
314.805
  0
LINE
  8
Layer1
  6
DASHED1
 62
7
 10
710.195
 20
308.305
 11
722.195
 21
308.305
  0
LINE
  8
Layer1
  6
DASHED1
 62
7
 10
710.195
 20
307.805
 11
722.195
 21
307.805
  0
LINE
  8
Layer1
  6
CENTER1
 62
7
 10
706.337
 20
360.305
 11
729.365
 21
360.305
  0
LINE
  8
Layer1
  6
CENTER1
 62
7
 10
707.351
 20
358.305
 11
729.81
 21
358.305
  0
LINE
  8
Layer1
  6
CENTER1
 62
7
 10
706.212
 20
333.305
 11
726.626
 21
333.305
  0
LINE
  8
Layer1
  6
CENTER1
 62
7
 10
708.66
 20
308.305
 11
727.746
 21
308.305
  0
LINE
  8
Layer1
  6
CONTINUOUS
 62
7
 10
671.195
 20
397.106
 11
670.195
 21
396.106
  0
LINE
  8
Layer1
  6
CONTINUOUS
 62
7
 10
709.195
 20
397.106
 11
710.195
 21
396.106
  0
LINE
  8
Layer1
  6
CENTER1
 62
7
 10
620.188
 20
338.162
 11
620.188
 21
357.931
  0
LINE
  8
Layer1
  6
DASHED1
 62
7
 10
652.188
 20
331.423
 11
652.188
 21
356.541
  0
LINE
  8
Layer1
  6
CENTER1
 62
7
 10
642.187
 20
334.805
 11
642.187
 21
368.837
  0
LINE
  8
Layer1
  6
CONTINUOUS
 62
7
 10
652.187
 20
345.305
 11
652.187
 21
341.305
  0
LINE
  8
Layer1
  6
DASHED1
 62
7
 10
632.187
 20
345.305
 11
632.187
 21
341.305
  0
LINE
  8
Layer1
  6
CONTINUOUS
 62
7
 10
636.737
 20
348.305
 11
649.187
 21
348.305
  0
ARC
  8
Layer1
  6
DASHED1
 62
7
 10
635.187
 20
345.305
 40
3
 50
90
 51
180
  0
ARC
  8
Layer1
  6
CONTINUOUS
 62
7
 10
649.187
 20
345.305
 40
3
 50
0
 51
90
  0
LINE
  8
Layer1
  6
DASHED1
 62
7
 10
636.737
 20
348.305
 11
635.187
 21
348.305
  0
LINE
  8
Layer1
  6
CONTINUOUS
 62
7
 10
722.195
 20
366.08
 11
726.69
 21
366.08
  0
LINE
  8
Layer1
  6
CONTINUOUS
 62
7
 10
726.69
 20
366.08
 11
727.195
 21
365.205
  0
LINE
  8
Layer1
  6
CONTINUOUS
 62
7
 10
727.195
 20
365.205
 11
727.195
 21
355.405
  0
LINE
  8
Layer1
  6
CONTINUOUS
 62
7
 10
727.195
 20
355.405
 11
726.69
 21
354.531
  0
LINE
  8
Layer1
  6
CONTINUOUS
 62
7
 10
726.69
 20
354.531
 11
722.195
 21
354.531
  0
LINE
  8
Layer1
  6
CONTINUOUS
 62
7
 10
722.195
 20
363.193
 11
726.69
 21
363.193
  0
LINE
  8
Layer1
  6
CONTINUOUS
 62
7
 10
722.195
 20
357.418
 11
726.69
 21
357.418
  0
LINE
  8
Layer1
  6
CONTINUOUS
 62
7
 10
708.231
 20
363.305
 11
710.195
 21
363.305
  0
LINE
  8
Layer1
  6
CONTINUOUS
 62
7
 10
708.231
 20
357.305
 11
710.195
 21
357.305
  0
LINE
  8
Layer1
  6
CONTINUOUS
 62
7
 10
707.831
 20
362.905
 11
710.195
 21
362.905
  0
LINE
  8
Layer1
  6
CONTINUOUS
 62
7
 10
707.831
 20
357.705
 11
710.195
 21
357.705
  0
ARC
  8
Layer1
  6
CONTINUOUS
 62
7
 10
717.583
 20
360.305
 40
9.553
 50
342.412
 51
17.588
  0
ARC
  8
Layer1
  6
CONTINUOUS
 62
7
 10
724.581
 20
364.635
 40
2.556
 50
325.616
 51
34.384
  0
ARC
  8
Layer1
  6
CONTINUOUS
 62
7
 10
724.581
 20
355.976
 40
2.556
 50
325.616
 51
34.384
  0
LINE
  8
Layer1
  6
CONTINUOUS
 62
7
 10
722.195
 20
366.08
 11
722.195
 21
354.531
  0
LINE
  8
Layer1
  6
CONTINUOUS
 62
7
 10
708.231
 20
363.305
 11
708.231
 21
357.305
  0
LINE
  8
Layer1
  6
CONTINUOUS
 62
7
 10
707.231
 20
362.305
 11
707.231
 21
358.305
  0
LINE
  8
Layer1
  6
CONTINUOUS
 62
7
 10
708.231
 20
363.305
 11
707.231
 21
362.305
  0
LINE
  8
Layer1
  6
CONTINUOUS
 62
7
 10
708.231
 20
357.305
 11
707.231
 21
358.305
  0
LINE
  8
Layer1
  6
CONTINUOUS
 62
7
 10
722.195
 20
301.805
 11
729.695
 21
301.805
  0
LINE
  8
Layer1
  6
CONTINUOUS
 62
7
 10
722.195
 20
314.805
 11
729.695
 21
314.805
  0
LINE
  8
Layer1
  6
CONTINUOUS
 62
7
 10
729.695
 20
301.805
 11
729.695
 21
314.805
  0
LINE
  8
Layer1
  6
CONTINUOUS
 62
7
 10
730.195
 20
302.305
 11
730.195
 21
314.305
  0
LINE
  8
Layer1
  6
CONTINUOUS
 62
7
 10
729.695
 20
301.805
 11
730.195
 21
302.305
  0
LINE
  8
Layer1
  6
CONTINUOUS
 62
7
 10
729.695
 20
314.805
 11
730.195
 21
314.305
  0
LINE
  8
Layer1
  6
CONTINUOUS
 62
7
 10
722.195
 20
314.805
 11
722.195
 21
301.805
  0
LINE
  8
Layer1
  6
CONTINUOUS
 62
7
 10
722.772
 20
313.805
 11
729.118
 21
313.805
  0
LINE
  8
Layer1
  6
CONTINUOUS
 62
7
 10
723.349
 20
312.805
 11
728.541
 21
312.805
  0
LINE
  8
Layer1
  6
CONTINUOUS
 62
7
 10
723.926
 20
311.805
 11
727.964
 21
311.805
  0
LINE
  8
Layer1
  6
CONTINUOUS
 62
7
 10
724.503
 20
310.805
 11
727.387
 21
310.805
  0
LINE
  8
Layer1
  6
CONTINUOUS
 62
7
 10
722.195
 20
326.805
 11
729.695
 21
326.805
  0
LINE
  8
Layer1
  6
CONTINUOUS
 62
7
 10
722.195
 20
339.805
 11
729.695
 21
339.805
  0
LINE
  8
Layer1
  6
CONTINUOUS
 62
7
 10
729.695
 20
326.805
 11
729.695
 21
339.805
  0
LINE
  8
Layer1
  6
CONTINUOUS
 62
7
 10
730.195
 20
327.305
 11
730.195
 21
339.305
  0
LINE
  8
Layer1
  6
CONTINUOUS
 62
7
 10
729.695
 20
326.805
 11
730.195
 21
327.305
  0
LINE
  8
Layer1
  6
CONTINUOUS
 62
7
 10
729.695
 20
339.805
 11
730.195
 21
339.305
  0
LINE
  8
Layer1
  6
CONTINUOUS
 62
7
 10
722.195
 20
339.805
 11
722.195
 21
326.805
  0
LINE
  8
Layer1
  6
CONTINUOUS
 62
7
 10
722.772
 20
338.805
 11
729.118
 21
338.805
  0
LINE
  8
Layer1
  6
CONTINUOUS
 62
7
 10
723.349
 20
337.805
 11
728.541
 21
337.805
  0
LINE
  8
Layer1
  6
CONTINUOUS
 62
7
 10
723.926
 20
336.805
 11
727.964
 21
336.805
  0
LINE
  8
Layer1
  6
CONTINUOUS
 62
7
 10
724.503
 20
335.805
 11
727.387
 21
335.805
  0
LINE
  8
Layer1
  6
PHANTOM1
 62
7
 10
722.195
 20
351.805
 11
729.695
 21
351.805
  0
LINE
  8
Layer1
  6
PHANTOM1
 62
7
 10
722.195
 20
364.805
 11
729.695
 21
364.805
  0
LINE
  8
Layer1
  6
PHANTOM1
 62
7
 10
729.695
 20
351.805
 11
729.695
 21
364.805
  0
LINE
  8
Layer1
  6
PHANTOM1
 62
7
 10
730.195
 20
352.305
 11
730.195
 21
364.305
  0
LINE
  8
Layer1
  6
PHANTOM1
 62
7
 10
729.695
 20
351.805
 11
730.195
 21
352.305
  0
LINE
  8
Layer1
  6
PHANTOM1
 62
7
 10
729.695
 20
364.805
 11
730.195
 21
364.305
  0
LINE
  8
Layer1
  6
PHANTOM1
 62
7
 10
722.195
 20
364.805
 11
722.195
 21
351.805
  0
LINE
  8
Layer1
  6
PHANTOM1
 62
7
 10
722.772
 20
363.805
 11
729.118
 21
363.805
  0
LINE
  8
Layer1
  6
PHANTOM1
 62
7
 10
723.349
 20
362.805
 11
728.541
 21
362.805
  0
LINE
  8
Layer1
  6
PHANTOM1
 62
7
 10
723.926
 20
361.805
 11
727.964
 21
361.805
  0
LINE
  8
Layer1
  6
PHANTOM1
 62
7
 10
724.503
 20
360.805
 11
727.387
 21
360.805
  0
LINE
  8
Layer1
  6
CONTINUOUS
 62
7
 10
590.195
 20
480.846
 11
590.195
 21
513.846
  0
LINE
  8
Layer1
  6
CONTINUOUS
 62
7
 10
610.195
 20
451.346
 11
610.195
 21
465.846
  0
LINE
  8
Layer1
  6
CONTINUOUS
 62
7
 10
670.195
 20
477.846
 11
670.195
 21
465.846
  0
LINE
  8
Layer1
  6
CONTINUOUS
 62
7
 10
663.195
 20
465.846
 11
663.195
 21
528.846
  0
LINE
  8
Layer1
  6
CONTINUOUS
 62
7
 10
710.195
 20
478.846
 11
710.195
 21
515.846
  0
LINE
  8
Layer1
  6
CONTINUOUS
 62
7
 10
722.195
 20
528.846
 11
722.195
 21
464.846
  0
LINE
  8
Layer1
  6
CONTINUOUS
 62
7
 10
615.195
 20
548.346
 11
705.195
 21
548.346
  0
LINE
  8
Layer1
  6
CONTINUOUS
 62
7
 10
705.195
 20
446.346
 11
615.195
 21
446.346
  0
LINE
  8
Layer1
  6
CONTINUOUS
 62
7
 10
611.195
 20
529.846
 11
669.195
 21
529.846
  0
LINE
  8
Layer1
  6
CONTINUOUS
 62
7
 10
609.195
 20
514.846
 11
591.195
 21
514.846
  0
LINE
  8
Layer1
  6
CONTINUOUS
 62
7
 10
611.195
 20
464.846
 11
669.195
 21
464.846
  0
LINE
  8
Layer1
  6
CONTINUOUS
 62
7
 10
609.195
 20
479.846
 11
591.195
 21
479.846
  0
LINE
  8
Layer1
  6
CONTINUOUS
 62
7
 10
709.195
 20
515.846
 11
671.195
 21
515.846
  0
LINE
  8
Layer1
  6
CONTINUOUS
 62
7
 10
709.195
 20
478.846
 11
671.195
 21
478.846
  0
LINE
  8
Layer1
  6
DASHED1
 62
7
 10
610.195
 20
514.846
 11
670.195
 21
514.846
  0
LINE
  8
Layer1
  6
DASHED1
 62
7
 10
610.195
 20
479.846
 11
670.195
 21
479.846
  0
LINE
  8
Layer1
  6
CONTINUOUS
 62
7
 10
710.195
 20
451.346
 11
710.195
 21
465.846
  0
LINE
  8
Layer1
  6
CONTINUOUS
 62
7
 10
706.195
 20
493.846
 11
706.195
 21
500.846
  0
LINE
  8
Layer1
  6
CONTINUOUS
 62
7
 10
706.195
 20
500.846
 11
710.195
 21
500.846
  0
LINE
  8
Layer1
  6
CONTINUOUS
 62
7
 10
706.195
 20
493.846
 11
710.195
 21
493.846
  0
LINE
  8
Layer1
  6
CONTINUOUS
 62
7
 10
721.195
 20
463.846
 11
711.195
 21
463.846
  0
LINE
  8
Layer1
  6
CONTINUOUS
 62
7
 10
721.195
 20
530.846
 11
711.195
 21
530.846
  0
LINE
  8
Layer1
  6
CONTINUOUS
 62
7
 10
710.195
 20
543.346
 11
710.195
 21
528.846
  0
LINE
  8
Layer1
  6
CONTINUOUS
 62
7
 10
710.195
 20
477.846
 11
710.195
 21
465.846
  0
LINE
  8
Layer1
  6
DASHED1
 62
7
 10
670.195
 20
514.846
 11
710.195
 21
514.846
  0
LINE
  8
Layer1
  6
DASHED1
 62
7
 10
709.195
 20
479.846
 11
670.195
 21
479.846
  0
LINE
  8
Layer1
  6
CONTINUOUS
 62
7
 10
671.195
 20
515.846
 11
670.195
 21
514.846
  0
LINE
  8
Layer1
  6
CONTINUOUS
 62
7
 10
671.195
 20
478.846
 11
670.195
 21
479.846
  0
LINE
  8
Layer1
  6
CONTINUOUS
 62
7
 10
670.195
 20
465.846
 11
669.195
 21
464.846
  0
LINE
  8
Layer1
  6
CONTINUOUS
 62
7
 10
670.195
 20
528.846
 11
669.195
 21
529.846
  0
LINE
  8
Layer1
  6
CONTINUOUS
 62
7
 10
663.195
 20
528.846
 11
664.195
 21
529.846
  0
LINE
  8
Layer1
  6
CONTINUOUS
 62
7
 10
663.195
 20
465.846
 11
664.195
 21
464.846
  0
LINE
  8
Layer1
  6
CONTINUOUS
 62
7
 10
610.195
 20
543.346
 11
610.195
 21
528.846
  0
LINE
  8
Layer1
  6
CONTINUOUS
 62
7
 10
610.195
 20
528.846
 11
610.195
 21
465.846
  0
LINE
  8
Layer1
  6
CONTINUOUS
 62
7
 10
610.195
 20
528.846
 11
611.195
 21
529.846
  0
LINE
  8
Layer1
  6
CONTINUOUS
 62
7
 10
610.195
 20
465.846
 11
611.195
 21
464.846
  0
LINE
  8
Layer1
  6
CONTINUOUS
 62
7
 10
710.195
 20
543.346
 11
705.195
 21
548.346
  0
LINE
  8
Layer1
  6
CONTINUOUS
 62
7
 10
615.195
 20
548.346
 11
610.195
 21
543.346
  0
LINE
  8
Layer1
  6
CONTINUOUS
 62
7
 10
610.195
 20
451.346
 11
615.195
 21
446.346
  0
LINE
  8
Layer1
  6
CONTINUOUS
 62
7
 10
705.195
 20
446.346
 11
710.195
 21
451.346
  0
LINE
  8
Layer1
  6
CONTINUOUS
 62
7
 10
591.195
 20
514.846
 11
590.195
 21
513.846
  0
LINE
  8
Layer1
  6
CONTINUOUS
 62
7
 10
590.195
 20
480.846
 11
591.195
 21
479.846
  0
LINE
  8
Layer1
  6
CONTINUOUS
 62
7
 10
609.195
 20
479.846
 11
610.195
 21
480.846
  0
LINE
  8
Layer1
  6
CONTINUOUS
 62
7
 10
610.195
 20
513.846
 11
609.195
 21
514.846
  0
LINE
  8
Layer1
  6
CONTINUOUS
 62
7
 10
710.195
 20
514.846
 11
709.195
 21
515.846
  0
LINE
  8
Layer1
  6
CONTINUOUS
 62
7
 10
710.195
 20
529.846
 11
711.195
 21
530.846
  0
LINE
  8
Layer1
  6
CONTINUOUS
 62
7
 10
710.195
 20
464.846
 11
711.195
 21
463.846
  0
LINE
  8
Layer1
  6
CONTINUOUS
 62
7
 10
721.195
 20
463.846
 11
722.195
 21
464.846
  0
LINE
  8
Layer1
  6
CONTINUOUS
 62
7
 10
721.195
 20
530.846
 11
722.195
 21
529.846
  0
LINE
  8
Layer1
  6
CENTER1
 62
7
 10
584.911
 20
508.346
 11
618.079
 21
508.346
  0
LINE
  8
Layer1
  6
CENTER1
 62
7
 10
584.911
 20
486.346
 11
617.289
 21
486.346
  0
LINE
  8
Layer1
  6
CENTER1
 62
7
 10
419.1
 20
360.512
 11
419.1
 21
335.219
  0
LINE
  8
Layer1
  6
CENTER1
 62
7
 10
470.1
 20
360.512
 11
470.1
 21
336.801
  0
LINE
  8
Layer1
  6
CENTER1
 62
7
 10
434.03
 20
294.805
 11
455.168
 21
294.805
  0
LINE
  8
Layer1
  6
CONTINUOUS
 62
7
 10
709.195
 20
529.846
 11
671.195
 21
529.846
  0
LINE
  8
Layer1
  6
CONTINUOUS
 62
7
 10
709.195
 20
464.846
 11
671.195
 21
464.846
  0
LINE
  8
Layer1
  6
CONTINUOUS
 62
7
 10
670.195
 20
528.846
 11
671.195
 21
529.846
  0
LINE
  8
Layer1
  6
CONTINUOUS
 62
7
 10
709.195
 20
529.846
 11
710.195
 21
528.846
  0
LINE
  8
Layer1
  6
CONTINUOUS
 62
7
 10
671.195
 20
464.846
 11
670.195
 21
465.846
  0
LINE
  8
Layer1
  6
CONTINUOUS
 62
7
 10
710.195
 20
465.846
 11
709.195
 21
464.846
  0
LINE
  8
Layer1
  6
CONTINUOUS
 62
7
 10
670.195
 20
516.846
 11
671.195
 21
515.846
  0
LINE
  8
Layer1
  6
CONTINUOUS
 62
7
 10
670.195
 20
477.846
 11
670.195
 21
528.846
  0
LINE
  8
Layer1
  6
CONTINUOUS
 62
7
 10
670.195
 20
477.846
 11
671.195
 21
478.846
  0
LINE
  8
Layer1
  6
CONTINUOUS
 62
7
 10
710.195
 20
516.846
 11
710.195
 21
528.846
  0
LINE
  8
Layer1
  6
CONTINUOUS
 62
7
 10
710.195
 20
477.846
 11
710.195
 21
516.846
  0
LINE
  8
Layer1
  6
CONTINUOUS
 62
7
 10
709.195
 20
515.846
 11
710.195
 21
516.846
  0
LINE
  8
Layer1
  6
CONTINUOUS
 62
7
 10
709.195
 20
478.846
 11
710.195
 21
479.846
  0
LINE
  8
Layer1
  6
CONTINUOUS
 62
7
 10
709.195
 20
478.846
 11
710.195
 21
477.846
  0
LINE
  8
Layer1
  6
CENTER1
 62
7
 10
705.024
 20
522.846
 11
732.688
 21
522.846
  0
LINE
  8
Layer1
  6
CENTER1
 62
7
 10
705.024
 20
471.846
 11
732.688
 21
471.846
  0
LINE
  8
Layer1
  6
CONTINUOUS
 62
7
 10
722.195
 20
503.12
 11
726.69
 21
503.12
  0
LINE
  8
Layer1
  6
CONTINUOUS
 62
7
 10
726.69
 20
503.12
 11
727.195
 21
502.246
  0
LINE
  8
Layer1
  6
CONTINUOUS
 62
7
 10
727.195
 20
502.246
 11
727.195
 21
492.446
  0
LINE
  8
Layer1
  6
CONTINUOUS
 62
7
 10
727.195
 20
492.446
 11
726.69
 21
491.572
  0
LINE
  8
Layer1
  6
CONTINUOUS
 62
7
 10
726.69
 20
491.572
 11
722.195
 21
491.572
  0
LINE
  8
Layer1
  6
CONTINUOUS
 62
7
 10
722.195
 20
500.233
 11
726.69
 21
500.233
  0
LINE
  8
Layer1
  6
CONTINUOUS
 62
7
 10
722.195
 20
494.459
 11
726.69
 21
494.459
  0
LINE
  8
Layer1
  6
CONTINUOUS
 62
7
 10
708.231
 20
500.346
 11
710.195
 21
500.346
  0
LINE
  8
Layer1
  6
CONTINUOUS
 62
7
 10
708.231
 20
494.346
 11
710.195
 21
494.346
  0
LINE
  8
Layer1
  6
CONTINUOUS
 62
7
 10
707.831
 20
499.946
 11
710.195
 21
499.946
  0
LINE
  8
Layer1
  6
CONTINUOUS
 62
7
 10
707.831
 20
494.746
 11
710.195
 21
494.746
  0
POLYLINE
  8
Layer1
  6
CONTINUOUS
 62
7
 66
1
 10
0
 20
0
 30
0
  0
VERTEX
  8
Layer1
 10
726.689
 20
494.459
  0
VERTEX
  8
Layer1
 10
726.726
 20
494.577
  0
VERTEX
  8
Layer1
 10
726.761
 20
494.693
  0
VERTEX
  8
Layer1
 10
726.794
 20
494.81
  0
VERTEX
  8
Layer1
 10
726.825
 20
494.928
  0
VERTEX
  8
Layer1
 10
726.855
 20
495.048
  0
VERTEX
  8
Layer1
 10
726.884
 20
495.166
  0
VERTEX
  8
Layer1
 10
726.911
 20
495.286
  0
VERTEX
  8
Layer1
 10
726.938
 20
495.404
  0
VERTEX
  8
Layer1
 10
726.961
 20
495.524
  0
VERTEX
  8
Layer1
 10
726.984
 20
495.644
  0
VERTEX
  8
Layer1
 10
727.005
 20
495.765
  0
VERTEX
  8
Layer1
 10
727.024
 20
495.885
  0
VERTEX
  8
Layer1
 10
727.043
 20
496.006
  0
VERTEX
  8
Layer1
 10
727.059
 20
496.128
  0
VERTEX
  8
Layer1
 10
727.073
 20
496.248
  0
VERTEX
  8
Layer1
 10
727.086
 20
496.37
  0
VERTEX
  8
Layer1
 10
727.099
 20
496.491
  0
VERTEX
  8
Layer1
 10
727.109
 20
496.613
  0
VERTEX
  8
Layer1
 10
727.118
 20
496.736
  0
VERTEX
  8
Layer1
 10
727.124
 20
496.857
  0
VERTEX
  8
Layer1
 10
727.13
 20
496.979
  0
VERTEX
  8
Layer1
 10
727.133
 20
497.101
  0
VERTEX
  8
Layer1
 10
727.136
 20
497.224
  0
VERTEX
  8
Layer1
 10
727.137
 20
497.346
  0
VERTEX
  8
Layer1
 10
727.136
 20
497.469
  0
VERTEX
  8
Layer1
 10
727.133
 20
497.59
  0
VERTEX
  8
Layer1
 10
727.13
 20
497.712
  0
VERTEX
  8
Layer1
 10
727.124
 20
497.834
  0
VERTEX
  8
Layer1
 10
727.118
 20
497.957
  0
VERTEX
  8
Layer1
 10
727.109
 20
498.078
  0
VERTEX
  8
Layer1
 10
727.099
 20
498.2
  0
VERTEX
  8
Layer1
 10
727.086
 20
498.321
  0
VERTEX
  8
Layer1
 10
727.073
 20
498.443
  0
VERTEX
  8
Layer1
 10
727.059
 20
498.565
  0
VERTEX
  8
Layer1
 10
727.043
 20
498.685
  0
VERTEX
  8
Layer1
 10
727.024
 20
498.806
  0
VERTEX
  8
Layer1
 10
727.005
 20
498.928
  0
VERTEX
  8
Layer1
 10
726.984
 20
499.048
  0
VERTEX
  8
Layer1
 10
726.961
 20
499.167
  0
VERTEX
  8
Layer1
 10
726.938
 20
499.287
  0
VERTEX
  8
Layer1
 10
726.911
 20
499.406
  0
VERTEX
  8
Layer1
 10
726.884
 20
499.527
  0
VERTEX
  8
Layer1
 10
726.855
 20
499.644
  0
VERTEX
  8
Layer1
 10
726.825
 20
499.763
  0
VERTEX
  8
Layer1
 10
726.794
 20
499.881
  0
VERTEX
  8
Layer1
 10
726.761
 20
499.998
  0
VERTEX
  8
Layer1
 10
726.726
 20
500.116
  0
VERTEX
  8
Layer1
 10
726.689
 20
500.232
  0
SEQEND
  0
POLYLINE
  8
Layer1
  6
CONTINUOUS
 62
7
 66
1
 10
0
 20
0
 30
0
  0
VERTEX
  8
Layer1
 10
726.689
 20
500.232
  0
VERTEX
  8
Layer1
 10
726.726
 20
500.286
  0
VERTEX
  8
Layer1
 10
726.759
 20
500.339
  0
VERTEX
  8
Layer1
 10
726.793
 20
500.394
  0
VERTEX
  8
Layer1
 10
726.823
 20
500.45
  0
VERTEX
  8
Layer1
 10
726.853
 20
500.506
  0
VERTEX
  8
Layer1
 10
726.882
 20
500.565
  0
VERTEX
  8
Layer1
 10
726.909
 20
500.623
  0
VERTEX
  8
Layer1
 10
726.935
 20
500.68
  0
VERTEX
  8
Layer1
 10
726.958
 20
500.739
  0
VERTEX
  8
Layer1
 10
726.982
 20
500.799
  0
VERTEX
  8
Layer1
 10
727.003
 20
500.859
  0
VERTEX
  8
Layer1
 10
727.023
 20
500.921
  0
VERTEX
  8
Layer1
 10
727.041
 20
500.981
  0
VERTEX
  8
Layer1
 10
727.057
 20
501.043
  0
VERTEX
  8
Layer1
 10
727.072
 20
501.106
  0
VERTEX
  8
Layer1
 10
727.085
 20
501.168
  0
VERTEX
  8
Layer1
 10
727.098
 20
501.231
  0
VERTEX
  8
Layer1
 10
727.108
 20
501.294
  0
VERTEX
  8
Layer1
 10
727.117
 20
501.357
  0
VERTEX
  8
Layer1
 10
727.123
 20
501.421
  0
VERTEX
  8
Layer1
 10
727.13
 20
501.484
  0
VERTEX
  8
Layer1
 10
727.133
 20
501.548
  0
VERTEX
  8
Layer1
 10
727.136
 20
501.613
  0
VERTEX
  8
Layer1
 10
727.137
 20
501.676
  0
VERTEX
  8
Layer1
 10
727.136
 20
501.741
  0
VERTEX
  8
Layer1
 10
727.133
 20
501.803
  0
VERTEX
  8
Layer1
 10
727.13
 20
501.868
  0
VERTEX
  8
Layer1
 10
727.123
 20
501.931
  0
VERTEX
  8
Layer1
 10
727.117
 20
501.994
  0
VERTEX
  8
Layer1
 10
727.108
 20
502.058
  0
VERTEX
  8
Layer1
 10
727.098
 20
502.121
  0
VERTEX
  8
Layer1
 10
727.085
 20
502.185
  0
VERTEX
  8
Layer1
 10
727.072
 20
502.246
  0
VERTEX
  8
Layer1
 10
727.057
 20
502.308
  0
VERTEX
  8
Layer1
 10
727.041
 20
502.37
  0
VERTEX
  8
Layer1
 10
727.023
 20
502.431
  0
VERTEX
  8
Layer1
 10
727.003
 20
502.493
  0
VERTEX
  8
Layer1
 10
726.982
 20
502.553
  0
VERTEX
  8
Layer1
 10
726.958
 20
502.613
  0
VERTEX
  8
Layer1
 10
726.935
 20
502.671
  0
VERTEX
  8
Layer1
 10
726.909
 20
502.731
  0
VERTEX
  8
Layer1
 10
726.882
 20
502.789
  0
VERTEX
  8
Layer1
 10
726.853
 20
502.845
  0
VERTEX
  8
Layer1
 10
726.823
 20
502.902
  0
VERTEX
  8
Layer1
 10
726.793
 20
502.957
  0
VERTEX
  8
Layer1
 10
726.759
 20
503.012
  0
VERTEX
  8
Layer1
 10
726.726
 20
503.066
  0
VERTEX
  8
Layer1
 10
726.689
 20
503.119
  0
SEQEND
  0
POLYLINE
  8
Layer1
  6
CONTINUOUS
 62
7
 66
1
 10
0
 20
0
 30
0
  0
VERTEX
  8
Layer1
 10
726.689
 20
491.572
  0
VERTEX
  8
Layer1
 10
726.726
 20
491.625
  0
VERTEX
  8
Layer1
 10
726.759
 20
491.679
  0
VERTEX
  8
Layer1
 10
726.793
 20
491.734
  0
VERTEX
  8
Layer1
 10
726.823
 20
491.791
  0
VERTEX
  8
Layer1
 10
726.853
 20
491.846
  0
VERTEX
  8
Layer1
 10
726.882
 20
491.904
  0
VERTEX
  8
Layer1
 10
726.909
 20
491.962
  0
VERTEX
  8
Layer1
 10
726.935
 20
492.02
  0
VERTEX
  8
Layer1
 10
726.958
 20
492.08
  0
VERTEX
  8
Layer1
 10
726.982
 20
492.14
  0
VERTEX
  8
Layer1
 10
727.003
 20
492.2
  0
VERTEX
  8
Layer1
 10
727.023
 20
492.26
  0
VERTEX
  8
Layer1
 10
727.041
 20
492.321
  0
VERTEX
  8
Layer1
 10
727.057
 20
492.383
  0
VERTEX
  8
Layer1
 10
727.072
 20
492.445
  0
VERTEX
  8
Layer1
 10
727.085
 20
492.508
  0
VERTEX
  8
Layer1
 10
727.098
 20
492.571
  0
VERTEX
  8
Layer1
 10
727.108
 20
492.635
  0
VERTEX
  8
Layer1
 10
727.117
 20
492.697
  0
VERTEX
  8
Layer1
 10
727.123
 20
492.76
  0
VERTEX
  8
Layer1
 10
727.13
 20
492.825
  0
VERTEX
  8
Layer1
 10
727.133
 20
492.888
  0
VERTEX
  8
Layer1
 10
727.136
 20
492.952
  0
VERTEX
  8
Layer1
 10
727.137
 20
493.017
  0
VERTEX
  8
Layer1
 10
727.136
 20
493.08
  0
VERTEX
  8
Layer1
 10
727.133
 20
493.143
  0
VERTEX
  8
Layer1
 10
727.13
 20
493.207
  0
VERTEX
  8
Layer1
 10
727.123
 20
493.272
  0
VERTEX
  8
Layer1
 10
727.117
 20
493.334
  0
VERTEX
  8
Layer1
 10
727.108
 20
493.399
  0
VERTEX
  8
Layer1
 10
727.098
 20
493.462
  0
VERTEX
  8
Layer1
 10
727.085
 20
493.524
  0
VERTEX
  8
Layer1
 10
727.072
 20
493.587
  0
VERTEX
  8
Layer1
 10
727.057
 20
493.649
  0
VERTEX
  8
Layer1
 10
727.041
 20
493.71
  0
VERTEX
  8
Layer1
 10
727.023
 20
493.772
  0
VERTEX
  8
Layer1
 10
727.003
 20
493.832
  0
VERTEX
  8
Layer1
 10
726.982
 20
493.892
  0
VERTEX
  8
Layer1
 10
726.958
 20
493.952
  0
VERTEX
  8
Layer1
 10
726.935
 20
494.012
  0
VERTEX
  8
Layer1
 10
726.909
 20
494.07
  0
VERTEX
  8
Layer1
 10
726.882
 20
494.128
  0
VERTEX
  8
Layer1
 10
726.853
 20
494.185
  0
VERTEX
  8
Layer1
 10
726.823
 20
494.241
  0
VERTEX
  8
Layer1
 10
726.793
 20
494.298
  0
VERTEX
  8
Layer1
 10
726.759
 20
494.352
  0
VERTEX
  8
Layer1
 10
726.726
 20
494.406
  0
VERTEX
  8
Layer1
 10
726.689
 20
494.459
  0
SEQEND
  0
LINE
  8
Layer1
  6
CONTINUOUS
 62
7
 10
722.195
 20
503.12
 11
722.195
 21
491.572
  0
LINE
  8
Layer1
  6
CONTINUOUS
 62
7
 10
708.231
 20
500.346
 11
708.231
 21
494.346
  0
LINE
  8
Layer1
  6
CONTINUOUS
 62
7
 10
707.231
 20
499.346
 11
707.231
 21
495.346
  0
LINE
  8
Layer1
  6
CONTINUOUS
 62
7
 10
708.231
 20
500.346
 11
707.231
 21
499.346
  0
LINE
  8
Layer1
  6
CONTINUOUS
 62
7
 10
708.231
 20
494.346
 11
707.231
 21
495.346
  0
LINE
  8
Layer1
  6
CENTER1
 62
7
 10
642.187
 20
485.243
 11
642.187
 21
506.19
  0
LINE
  8
Layer1
  6
CENTER1
 62
7
 10
644.832
 20
471.846
 11
658.956
 21
471.846
  0
LINE
  8
Layer1
  6
CENTER1
 62
7
 10
652.195
 20
480.534
 11
652.195
 21
463.087
  0
CIRCLE
  8
Layer1
  6
CONTINUOUS
 62
7
 10
652.195
 20
471.846
 40
5.5
  0
CIRCLE
  8
Layer1
  6
CONTINUOUS
 62
7
 10
652.195
 20
471.846
 40
5
  0
POLYLINE
  8
Layer1
  6
CONTINUOUS
 62
7
 66
1
 10
0
 20
0
 30
0
 70
1
  0
VERTEX
  8
Layer1
 10
652.195
 20
474.707
  0
VERTEX
  8
Layer1
 10
649.717
 20
473.277
  0
VERTEX
  8
Layer1
 10
649.717
 20
470.416
  0
VERTEX
  8
Layer1
 10
652.195
 20
468.986
  0
VERTEX
  8
Layer1
 10
654.671
 20
470.416
  0
VERTEX
  8
Layer1
 10
654.671
 20
473.277
  0
SEQEND
  0
CIRCLE
  8
Layer1
  6
CONTINUOUS
 62
7
 10
652.195
 20
471.846
 40
2.86
  0
LINE
  8
Layer1
  6
CENTER1
 62
7
 10
644.832
 20
522.846
 11
658.956
 21
522.846
  0
LINE
  8
Layer1
  6
CENTER1
 62
7
 10
652.195
 20
531.131
 11
652.195
 21
513.683
  0
CIRCLE
  8
Layer1
  6
CONTINUOUS
 62
7
 10
652.195
 20
522.846
 40
5.5
  0
CIRCLE
  8
Layer1
  6
CONTINUOUS
 62
7
 10
652.195
 20
522.846
 40
5
  0
POLYLINE
  8
Layer1
  6
CONTINUOUS
 62
7
 66
1
 10
0
 20
0
 30
0
 70
1
  0
VERTEX
  8
Layer1
 10
652.195
 20
525.707
  0
VERTEX
  8
Layer1
 10
649.717
 20
524.276
  0
VERTEX
  8
Layer1
 10
649.717
 20
521.417
  0
VERTEX
  8
Layer1
 10
652.195
 20
519.986
  0
VERTEX
  8
Layer1
 10
654.671
 20
521.417
  0
VERTEX
  8
Layer1
 10
654.671
 20
524.276
  0
SEQEND
  0
CIRCLE
  8
Layer1
  6
CONTINUOUS
 62
7
 10
652.195
 20
522.846
 40
2.86
  0
LINE
  8
Layer1
  6
CENTER1
 62
7
 10
612.832
 20
522.846
 11
626.956
 21
522.846
  0
LINE
  8
Layer1
  6
CENTER1
 62
7
 10
620.195
 20
530.092
 11
620.195
 21
512.643
  0
CIRCLE
  8
Layer1
  6
CONTINUOUS
 62
7
 10
620.195
 20
522.846
 40
5.5
  0
CIRCLE
  8
Layer1
  6
CONTINUOUS
 62
7
 10
620.195
 20
522.846
 40
5
  0
POLYLINE
  8
Layer1
  6
CONTINUOUS
 62
7
 66
1
 10
0
 20
0
 30
0
 70
1
  0
VERTEX
  8
Layer1
 10
620.195
 20
525.707
  0
VERTEX
  8
Layer1
 10
617.717
 20
524.276
  0
VERTEX
  8
Layer1
 10
617.717
 20
521.417
  0
VERTEX
  8
Layer1
 10
620.195
 20
519.986
  0
VERTEX
  8
Layer1
 10
622.671
 20
521.417
  0
VERTEX
  8
Layer1
 10
622.671
 20
524.276
  0
SEQEND
  0
CIRCLE
  8
Layer1
  6
CONTINUOUS
 62
7
 10
620.195
 20
522.846
 40
2.86
  0
LINE
  8
Layer1
  6
CENTER1
 62
7
 10
612.832
 20
471.846
 11
626.956
 21
471.846
  0
LINE
  8
Layer1
  6
CENTER1
 62
7
 10
620.195
 20
485.904
 11
620.195
 21
468.457
  0
CIRCLE
  8
Layer1
  6
CONTINUOUS
 62
7
 10
620.195
 20
471.846
 40
5.5
  0
CIRCLE
  8
Layer1
  6
CONTINUOUS
 62
7
 10
620.195
 20
471.846
 40
5
  0
POLYLINE
  8
Layer1
  6
CONTINUOUS
 62
7
 66
1
 10
0
 20
0
 30
0
 70
1
  0
VERTEX
  8
Layer1
 10
620.195
 20
474.707
  0
VERTEX
  8
Layer1
 10
617.717
 20
473.277
  0
VERTEX
  8
Layer1
 10
617.717
 20
470.416
  0
VERTEX
  8
Layer1
 10
620.195
 20
468.986
  0
VERTEX
  8
Layer1
 10
622.671
 20
470.416
  0
VERTEX
  8
Layer1
 10
622.671
 20
473.277
  0
SEQEND
  0
CIRCLE
  8
Layer1
  6
CONTINUOUS
 62
7
 10
620.195
 20
471.846
 40
2.86
  0
CIRCLE
  8
Layer1
  6
CONTINUOUS
 62
7
 10
690.195
 20
497.346
 40
7
  0
LINE
  8
Layer1
  6
DASHED1
 62
7
 10
683.195
 20
498.346
 11
670.195
 21
498.346
  0
LINE
  8
Layer1
  6
DASHED1
 62
7
 10
683.195
 20
496.346
 11
670.195
 21
496.346
  0
LINE
  8
Layer1
  6
CONTINUOUS
 62
7
 10
697.195
 20
496.346
 11
706.195
 21
496.346
  0
LINE
  8
Layer1
  6
CONTINUOUS
 62
7
 10
697.195
 20
498.346
 11
706.195
 21
498.346
  0
LINE
  8
Layer1
  6
CENTER1
 62
7
 10
690.195
 20
486.034
 11
690.195
 21
509.745
  0
CIRCLE
  8
Layer1
  6
CONTINUOUS
 62
7
 10
620.195
 20
455.346
 40
7
  0
CIRCLE
  8
Layer1
  6
CONTINUOUS
 62
7
 10
620.195
 20
455.346
 40
4.5
  0
LINE
  8
Layer1
  6
CENTER1
 62
7
 10
620.195
 20
468.457
 11
620.195
 21
440.229
  0
LINE
  8
Layer1
  6
CENTER1
 62
7
 10
606.92
 20
455.346
 11
633.851
 21
455.346
  0
CIRCLE
  8
Layer1
  6
CONTINUOUS
 62
7
 10
620.195
 20
539.346
 40
7
  0
CIRCLE
  8
Layer1
  6
CONTINUOUS
 62
7
 10
620.195
 20
539.346
 40
4.5
  0
LINE
  8
Layer1
  6
CENTER1
 62
7
 10
620.195
 20
552.457
 11
620.195
 21
524.228
  0
LINE
  8
Layer1
  6
CENTER1
 62
7
 10
606.92
 20
539.346
 11
633.851
 21
539.346
  0
CIRCLE
  8
Layer1
  6
CONTINUOUS
 62
7
 10
700.195
 20
539.346
 40
7
  0
CIRCLE
  8
Layer1
  6
CONTINUOUS
 62
7
 10
700.195
 20
539.346
 40
4.5
  0
LINE
  8
Layer1
  6
CENTER1
 62
7
 10
700.195
 20
552.457
 11
700.195
 21
524.228
  0
LINE
  8
Layer1
  6
CENTER1
 62
7
 10
686.92
 20
539.346
 11
713.851
 21
539.346
  0
POLYLINE
  8
Layer1
  6
CONTINUOUS
 62
7
 66
1
 10
0
 20
0
 30
0
  0
VERTEX
  8
Layer1
 10
590.195
 20
323.805
  0
VERTEX
  8
Layer1
 10
590.52
 20
324.042
  0
VERTEX
  8
Layer1
 10
590.846
 20
324.277
  0
VERTEX
  8
Layer1
 10
591.173
 20
324.508
  0
VERTEX
  8
Layer1
 10
591.498
 20
324.734
  0
VERTEX
  8
Layer1
 10
591.824
 20
324.952
  0
VERTEX
  8
Layer1
 10
592.15
 20
325.161
  0
VERTEX
  8
Layer1
 10
592.476
 20
325.358
  0
VERTEX
  8
Layer1
 10
592.803
 20
325.542
  0
VERTEX
  8
Layer1
 10
593.129
 20
325.712
  0
VERTEX
  8
Layer1
 10
593.455
 20
325.863
  0
VERTEX
  8
Layer1
 10
593.781
 20
325.995
  0
VERTEX
  8
Layer1
 10
594.106
 20
326.107
  0
VERTEX
  8
Layer1
 10
594.433
 20
326.196
  0
VERTEX
  8
Layer1
 10
594.76
 20
326.26
  0
VERTEX
  8
Layer1
 10
595.085
 20
326.298
  0
VERTEX
  8
Layer1
 10
595.411
 20
326.308
  0
VERTEX
  8
Layer1
 10
595.737
 20
326.286
  0
VERTEX
  8
Layer1
 10
596.063
 20
326.233
  0
VERTEX
  8
Layer1
 10
596.39
 20
326.147
  0
VERTEX
  8
Layer1
 10
596.717
 20
326.027
  0
VERTEX
  8
Layer1
 10
597.042
 20
325.883
  0
VERTEX
  8
Layer1
 10
597.366
 20
325.719
  0
VERTEX
  8
Layer1
 10
597.69
 20
325.536
  0
VERTEX
  8
Layer1
 10
598.015
 20
325.342
  0
VERTEX
  8
Layer1
 10
598.335
 20
325.14
  0
VERTEX
  8
Layer1
 10
598.657
 20
324.938
  0
VERTEX
  8
Layer1
 10
598.975
 20
324.736
  0
VERTEX
  8
Layer1
 10
599.292
 20
324.543
  0
VERTEX
  8
Layer1
 10
599.606
 20
324.361
  0
VERTEX
  8
Layer1
 10
599.917
 20
324.197
  0
VERTEX
  8
Layer1
 10
600.226
 20
324.054
  0
VERTEX
  8
Layer1
 10
600.533
 20
323.938
  0
VERTEX
  8
Layer1
 10
600.835
 20
323.854
  0
VERTEX
  8
Layer1
 10
601.135
 20
323.804
  0
VERTEX
  8
Layer1
 10
601.43
 20
323.794
  0
VERTEX
  8
Layer1
 10
601.724
 20
323.823
  0
VERTEX
  8
Layer1
 10
602.014
 20
323.887
  0
VERTEX
  8
Layer1
 10
602.301
 20
323.982
  0
VERTEX
  8
Layer1
 10
602.587
 20
324.108
  0
VERTEX
  8
Layer1
 10
602.87
 20
324.262
  0
VERTEX
  8
Layer1
 10
603.152
 20
324.438
  0
VERTEX
  8
Layer1
 10
603.435
 20
324.637
  0
VERTEX
  8
Layer1
 10
603.716
 20
324.854
  0
VERTEX
  8
Layer1
 10
603.996
 20
325.087
  0
VERTEX
  8
Layer1
 10
604.279
 20
325.334
  0
VERTEX
  8
Layer1
 10
604.561
 20
325.592
  0
VERTEX
  8
Layer1
 10
604.843
 20
325.857
  0
VERTEX
  8
Layer1
 10
605.129
 20
326.128
  0
VERTEX
  8
Layer1
 10
605.416
 20
326.4
  0
VERTEX
  8
Layer1
 10
605.705
 20
326.673
  0
VERTEX
  8
Layer1
 10
605.996
 20
326.941
  0
VERTEX
  8
Layer1
 10
606.292
 20
327.205
  0
VERTEX
  8
Layer1
 10
606.59
 20
327.46
  0
VERTEX
  8
Layer1
 10
606.892
 20
327.705
  0
VERTEX
  8
Layer1
 10
607.198
 20
327.933
  0
VERTEX
  8
Layer1
 10
607.51
 20
328.147
  0
VERTEX
  8
Layer1
 10
607.827
 20
328.34
  0
VERTEX
  8
Layer1
 10
608.149
 20
328.512
  0
VERTEX
  8
Layer1
 10
608.476
 20
328.659
  0
VERTEX
  8
Layer1
 10
608.81
 20
328.777
  0
VERTEX
  8
Layer1
 10
609.149
 20
328.871
  0
VERTEX
  8
Layer1
 10
609.494
 20
328.947
  0
VERTEX
  8
Layer1
 10
609.84
 20
329.01
  0
VERTEX
  8
Layer1
 10
610.188
 20
329.066
  0
SEQEND
  0
LINE
  8
Layer1
  6
DASHED1
 62
7
 10
621.193
 20
337.305
 11
628.292
 21
337.305
  0
LINE
  8
Layer1
  6
DASHED1
 62
7
 10
621.193
 20
332.305
 11
628.292
 21
332.305
  0
LINE
  8
Layer1
  6
DASHED1
 62
7
 10
628.292
 20
337.305
 11
628.292
 21
332.305
  0
LINE
  8
Layer1
  6
DASHED1
 62
7
 10
628.292
 20
332.305
 11
628.292
 21
332.625
  0
LINE
  8
Layer1
  6
DASHED1
 62
7
 10
624.736
 20
331.805
 11
624.736
 21
332.929
  0
LINE
  8
Layer1
  6
DASHED1
 62
7
 10
628.292
 20
337.305
 11
629.736
 21
334.805
  0
LINE
  8
Layer1
  6
DASHED1
 62
7
 10
629.736
 20
334.805
 11
628.292
 21
332.305
  0
LINE
  8
Layer1
  6
CONTINUOUS
 62
7
 10
591.195
 20
330.805
 11
591.195
 21
338.805
  0
LINE
  8
Layer1
  6
CONTINUOUS
 62
7
 10
592.195
 20
339.805
 11
597.195
 21
339.805
  0
LINE
  8
Layer1
  6
CONTINUOUS
 62
7
 10
592.195
 20
329.805
 11
597.195
 21
329.805
  0
LINE
  8
Layer1
  6
CONTINUOUS
 62
7
 10
597.195
 20
340.305
 11
597.195
 21
329.305
  0
LINE
  8
Layer1
  6
DASHED1
 62
7
 10
624.736
 20
331.805
 11
610.187
 21
331.805
  0
LINE
  8
Layer1
  6
CONTINUOUS
 62
7
 10
597.195
 20
337.305
 11
610.188
 21
337.305
  0
LINE
  8
Layer1
  6
CONTINUOUS
 62
7
 10
597.195
 20
332.305
 11
610.188
 21
332.305
  0
LINE
  8
Layer1
  6
DASHED1
 62
7
 10
621.193
 20
337.805
 11
622.193
 21
336.805
  0
LINE
  8
Layer1
  6
DASHED1
 62
7
 10
622.193
 20
332.805
 11
621.193
 21
331.805
  0
LINE
  8
Layer1
  6
CONTINUOUS
 62
7
 10
591.195
 20
330.805
 11
592.195
 21
329.805
  0
LINE
  8
Layer1
  6
CONTINUOUS
 62
7
 10
597.195
 20
340.305
 11
590.195
 21
340.305
  0
LINE
  8
Layer1
  6
CONTINUOUS
 62
7
 10
597.195
 20
329.305
 11
590.195
 21
329.305
  0
LINE
  8
Layer1
  6
DASHED1
 62
7
 10
624.736
 20
337.805
 11
610.186
 21
337.805
  0
LINE
  8
Layer1
  6
DASHED1
 62
7
 10
624.736
 20
337.805
 11
625.601
 21
337.305
  0
LINE
  8
Layer1
  6
DASHED1
 62
7
 10
624.736
 20
331.805
 11
625.601
 21
332.305
  0
LINE
  8
Layer1
  6
DASHED1
 62
7
 10
625.601
 20
337.305
 11
625.601
 21
332.305
  0
LINE
  8
Layer1
  6
CONTINUOUS
 62
7
 10
592.195
 20
339.805
 11
592.195
 21
329.805
  0
LINE
  8
Layer1
  6
CONTINUOUS
 62
7
 10
610.188
 20
337.805
 11
597.195
 21
337.805
  0
LINE
  8
Layer1
  6
DASHED1
 62
7
 10
610.186
 20
337.305
 11
628.292
 21
337.305
  0
LINE
  8
Layer1
  6
DASHED1
 62
7
 10
610.186
 20
332.305
 11
628.292
 21
332.305
  0
LINE
  8
Layer1
  6
CONTINUOUS
 62
7
 10
610.188
 20
331.805
 11
597.195
 21
331.805
  0
LINE
  8
Layer1
  6
CONTINUOUS
 62
7
 10
592.195
 20
339.805
 11
597.195
 21
339.805
  0
LINE
  8
Layer1
  6
CONTINUOUS
 62
7
 10
591.195
 20
338.805
 11
592.195
 21
339.805
  0
LINE
  8
Layer1
  6
CONTINUOUS
 62
7
 10
597.195
 20
339.805
 11
592.195
 21
339.805
  0
LINE
  8
Layer1
  6
CONTINUOUS
 62
7
 10
596.945
 20
339.305
 11
592.445
 21
339.305
  0
LINE
  8
Layer1
  6
CONTINUOUS
 62
7
 10
596.445
 20
338.305
 11
592.945
 21
338.305
  0
LINE
  8
Layer1
  6
CONTINUOUS
 62
7
 10
595.945
 20
337.305
 11
593.445
 21
337.305
  0
LINE
  8
Layer1
  6
DASHED1
 62
7
 10
622.193
 20
336.805
 11
622.193
 21
332.805
  0
LINE
  8
Layer1
  6
DASHED1
 62
7
 10
621.193
 20
337.805
 11
621.193
 21
331.805
  0
TEXT
  8
Layer1
 62
7
 10
400.015
 20
362.606
 72
1
 11
400.015
 21
362.606
 40
8
 41
1
 50
90
  1
 69 
  0
LINE
  8
Layer1
  6
CONTINUOUS
 62
7
 10
423.1
 20
397.106
 11
398.015
 21
397.106
  0
LINE
  8
Layer1
  6
CONTINUOUS
 62
7
 10
424.1
 20
328.106
 11
398.015
 21
328.106
  0
POLYLINE
  8
Layer1
  6
CONTINUOUS
 62
7
 66
1
 10
0
 20
0
 30
0
  0
VERTEX
  8
Layer1
 10
400.015
 20
397.106
  0
VERTEX
  8
Layer1
 10
400.015
 20
328.106
  0
SEQEND
  0
POLYLINE
  8
Layer1
  6
CONTINUOUS
 62
7
 66
1
 10
0
 20
0
 30
0
 70
1
  0
VERTEX
  8
Layer1
 10
398.98
 20
393.241
  0
VERTEX
  8
Layer1
 10
400.015
 20
397.106
  0
VERTEX
  8
Layer1
 10
401.051
 20
393.241
  0
SEQEND
  0
POLYLINE
  8
Layer1
  6
CONTINUOUS
 62
7
 66
1
 10
0
 20
0
 30
0
 70
1
  0
VERTEX
  8
Layer1
 10
401.051
 20
331.969
  0
VERTEX
  8
Layer1
 10
400.015
 20
328.106
  0
VERTEX
  8
Layer1
 10
398.98
 20
331.969
  0
SEQEND
  0
TEXT
  8
Layer1
 62
7
 10
489.063
 20
323.305
 72
1
 11
489.063
 21
323.305
 40
8
 41
1
 50
90
  1
 22 
  0
LINE
  8
Layer1
  6
CONTINUOUS
 62
7
 10
464.6
 20
334.305
 11
491.063
 21
334.305
  0
LINE
  8
Layer1
  6
CONTINUOUS
 62
7
 10
446.309
 20
312.305
 11
491.063
 21
312.305
  0
POLYLINE
  8
Layer1
  6
CONTINUOUS
 62
7
 66
1
 10
0
 20
0
 30
0
  0
VERTEX
  8
Layer1
 10
489.063
 20
334.305
  0
VERTEX
  8
Layer1
 10
489.063
 20
312.305
  0
SEQEND
  0
POLYLINE
  8
Layer1
  6
CONTINUOUS
 62
7
 66
1
 10
0
 20
0
 30
0
 70
1
  0
VERTEX
  8
Layer1
 10
488.027
 20
330.441
  0
VERTEX
  8
Layer1
 10
489.063
 20
334.305
  0
VERTEX
  8
Layer1
 10
490.099
 20
330.441
  0
SEQEND
  0
POLYLINE
  8
Layer1
  6
CONTINUOUS
 62
7
 66
1
 10
0
 20
0
 30
0
 70
1
  0
VERTEX
  8
Layer1
 10
490.099
 20
316.168
  0
VERTEX
  8
Layer1
 10
489.063
 20
312.305
  0
VERTEX
  8
Layer1
 10
488.027
 20
316.168
  0
SEQEND
  0
TEXT
  8
Layer1
 62
7
 10
523.606
 20
303.305
 72
1
 11
523.606
 21
303.305
 40
8
 41
1
 50
90
  1
 40.5
  0
LINE
  8
Layer1
  6
CONTINUOUS
 62
7
 10
465.453
 20
323.805
 11
524.959
 21
323.805
  0
LINE
  8
Layer1
  6
CONTINUOUS
 62
7
 10
498.599
 20
283.305
 11
525.606
 21
283.305
  0
POLYLINE
  8
Layer1
  6
CONTINUOUS
 62
7
 66
1
 10
0
 20
0
 30
0
  0
VERTEX
  8
Layer1
 10
523.606
 20
323.805
  0
VERTEX
  8
Layer1
 10
523.606
 20
283.305
  0
SEQEND
  0
POLYLINE
  8
Layer1
  6
CONTINUOUS
 62
7
 66
1
 10
0
 20
0
 30
0
 70
1
  0
VERTEX
  8
Layer1
 10
522.571
 20
319.941
  0
VERTEX
  8
Layer1
 10
523.606
 20
323.805
  0
VERTEX
  8
Layer1
 10
524.64
 20
319.941
  0
SEQEND
  0
POLYLINE
  8
Layer1
  6
CONTINUOUS
 62
7
 66
1
 10
0
 20
0
 30
0
 70
1
  0
VERTEX
  8
Layer1
 10
524.64
 20
287.168
  0
VERTEX
  8
Layer1
 10
523.606
 20
283.305
  0
VERTEX
  8
Layer1
 10
522.571
 20
287.168
  0
SEQEND
  0
TEXT
  8
Layer1
 62
7
 10
510.596
 20
291.305
 72
1
 11
510.596
 21
291.305
 40
8
 41
1
 50
90
  1
 16 
  0
LINE
  8
Layer1
  6
CONTINUOUS
 62
7
 10
494.599
 20
283.305
 11
512.596
 21
283.305
  0
LINE
  8
Layer1
  6
CONTINUOUS
 62
7
 10
494.599
 20
299.305
 11
512.596
 21
299.305
  0
POLYLINE
  8
Layer1
  6
CONTINUOUS
 62
7
 66
1
 10
0
 20
0
 30
0
  0
VERTEX
  8
Layer1
 10
510.596
 20
283.305
  0
VERTEX
  8
Layer1
 10
510.596
 20
299.305
  0
SEQEND
  0
POLYLINE
  8
Layer1
  6
CONTINUOUS
 62
7
 66
1
 10
0
 20
0
 30
0
 70
1
  0
VERTEX
  8
Layer1
 10
511.632
 20
287.168
  0
VERTEX
  8
Layer1
 10
510.596
 20
283.305
  0
VERTEX
  8
Layer1
 10
509.56
 20
287.168
  0
SEQEND
  0
POLYLINE
  8
Layer1
  6
CONTINUOUS
 62
7
 66
1
 10
0
 20
0
 30
0
 70
1
  0
VERTEX
  8
Layer1
 10
509.56
 20
295.442
  0
VERTEX
  8
Layer1
 10
510.596
 20
299.305
  0
VERTEX
  8
Layer1
 10
511.632
 20
295.442
  0
SEQEND
  0
TEXT
  8
Layer1
 62
7
 10
503.418
 20
323.805
 72
1
 11
503.418
 21
323.805
 40
8
 41
1
 50
90
  1
 35 
  0
LINE
  8
Layer1
  6
CONTINUOUS
 62
7
 10
461.1
 20
306.305
 11
505.418
 21
306.305
  0
LINE
  8
Layer1
  6
CONTINUOUS
 62
7
 10
461.1
 20
341.305
 11
505.418
 21
341.305
  0
POLYLINE
  8
Layer1
  6
CONTINUOUS
 62
7
 66
1
 10
0
 20
0
 30
0
  0
VERTEX
  8
Layer1
 10
503.418
 20
306.305
  0
VERTEX
  8
Layer1
 10
503.418
 20
341.305
  0
SEQEND
  0
POLYLINE
  8
Layer1
  6
CONTINUOUS
 62
7
 66
1
 10
0
 20
0
 30
0
 70
1
  0
VERTEX
  8
Layer1
 10
504.454
 20
310.168
  0
VERTEX
  8
Layer1
 10
503.418
 20
306.305
  0
VERTEX
  8
Layer1
 10
502.383
 20
310.168
  0
SEQEND
  0
POLYLINE
  8
Layer1
  6
CONTINUOUS
 62
7
 66
1
 10
0
 20
0
 30
0
 70
1
  0
VERTEX
  8
Layer1
 10
502.383
 20
337.441
  0
VERTEX
  8
Layer1
 10
503.418
 20
341.305
  0
VERTEX
  8
Layer1
 10
504.454
 20
337.441
  0
SEQEND
  0
TEXT
  8
Layer1
 62
7
 10
539.306
 20
318.805
 72
1
 11
539.306
 21
318.805
 40
8
 41
1
 50
90
  1
 71 
  0
LINE
  8
Layer1
  6
CONTINUOUS
 62
7
 10
476.099
 20
354.305
 11
541.306
 21
354.305
  0
LINE
  8
Layer1
  6
CONTINUOUS
 62
7
 10
494.599
 20
283.305
 11
541.306
 21
283.305
  0
POLYLINE
  8
Layer1
  6
CONTINUOUS
 62
7
 66
1
 10
0
 20
0
 30
0
  0
VERTEX
  8
Layer1
 10
539.306
 20
354.305
  0
VERTEX
  8
Layer1
 10
539.306
 20
283.305
  0
SEQEND
  0
POLYLINE
  8
Layer1
  6
CONTINUOUS
 62
7
 66
1
 10
0
 20
0
 30
0
 70
1
  0
VERTEX
  8
Layer1
 10
538.272
 20
350.441
  0
VERTEX
  8
Layer1
 10
539.306
 20
354.305
  0
VERTEX
  8
Layer1
 10
540.342
 20
350.441
  0
SEQEND
  0
POLYLINE
  8
Layer1
  6
CONTINUOUS
 62
7
 66
1
 10
0
 20
0
 30
0
 70
1
  0
VERTEX
  8
Layer1
 10
540.342
 20
287.168
  0
VERTEX
  8
Layer1
 10
539.306
 20
283.305
  0
VERTEX
  8
Layer1
 10
538.272
 20
287.168
  0
SEQEND
  0
TEXT
  8
Layer1
 62
7
 10
530.314
 20
303.611
 72
1
 11
530.314
 21
303.611
 40
6
 41
1
 50
90
  1
(中心間距離）
  0
TEXT
  8
Layer1
 62
7
 10
444.6
 20
270.362
 72
1
 11
444.6
 21
270.362
 40
8
 41
1
  1
 22 
  0
LINE
  8
Layer1
  6
CONTINUOUS
 62
7
 10
433.6
 20
302.894
 11
433.6
 21
268.362
  0
LINE
  8
Layer1
  6
CONTINUOUS
 62
7
 10
455.6
 20
327.606
 11
455.6
 21
268.362
  0
POLYLINE
  8
Layer1
  6
CONTINUOUS
 62
7
 66
1
 10
0
 20
0
 30
0
  0
VERTEX
  8
Layer1
 10
433.6
 20
270.362
  0
VERTEX
  8
Layer1
 10
455.6
 20
270.362
  0
SEQEND
  0
POLYLINE
  8
Layer1
  6
CONTINUOUS
 62
7
 66
1
 10
0
 20
0
 30
0
 70
1
  0
VERTEX
  8
Layer1
 10
437.462
 20
269.327
  0
VERTEX
  8
Layer1
 10
433.6
 20
270.362
  0
VERTEX
  8
Layer1
 10
437.462
 20
271.397
  0
SEQEND
  0
POLYLINE
  8
Layer1
  6
CONTINUOUS
 62
7
 66
1
 10
0
 20
0
 30
0
 70
1
  0
VERTEX
  8
Layer1
 10
451.736
 20
271.397
  0
VERTEX
  8
Layer1
 10
455.6
 20
270.362
  0
VERTEX
  8
Layer1
 10
451.736
 20
269.327
  0
SEQEND
  0
TEXT
  8
Layer1
 62
7
 10
444.6
 20
259.198
 72
1
 11
444.6
 21
259.198
 40
8
 41
1
  1
 35 
  0
LINE
  8
Layer1
  6
CONTINUOUS
 62
7
 10
427.1
 20
307.305
 11
427.1
 21
257.198
  0
LINE
  8
Layer1
  6
CONTINUOUS
 62
7
 10
462.1
 20
307.305
 11
462.1
 21
257.198
  0
POLYLINE
  8
Layer1
  6
CONTINUOUS
 62
7
 66
1
 10
0
 20
0
 30
0
  0
VERTEX
  8
Layer1
 10
427.1
 20
259.198
  0
VERTEX
  8
Layer1
 10
462.1
 20
259.198
  0
SEQEND
  0
POLYLINE
  8
Layer1
  6
CONTINUOUS
 62
7
 66
1
 10
0
 20
0
 30
0
 70
1
  0
VERTEX
  8
Layer1
 10
430.962
 20
258.164
  0
VERTEX
  8
Layer1
 10
427.1
 20
259.198
  0
VERTEX
  8
Layer1
 10
430.962
 20
260.233
  0
SEQEND
  0
POLYLINE
  8
Layer1
  6
CONTINUOUS
 62
7
 66
1
 10
0
 20
0
 30
0
 70
1
  0
VERTEX
  8
Layer1
 10
458.236
 20
260.233
  0
VERTEX
  8
Layer1
 10
462.1
 20
259.198
  0
VERTEX
  8
Layer1
 10
458.236
 20
258.164
  0
SEQEND
  0
LINE
  8
Layer1
  6
PHANTOM1
 62
7
 10
589.188
 20
341.305
 11
571.195
 21
341.305
  0
LINE
  8
Layer1
  6
PHANTOM1
 62
7
 10
589.188
 20
306.305
 11
571.195
 21
306.305
  0
LINE
  8
Layer1
  6
PHANTOM1
 62
7
 10
570.195
 20
307.305
 11
570.195
 21
340.305
  0
LINE
  8
Layer1
  6
PHANTOM1
 62
7
 10
571.195
 20
341.305
 11
570.195
 21
340.305
  0
LINE
  8
Layer1
  6
PHANTOM1
 62
7
 10
570.195
 20
307.305
 11
571.195
 21
306.305
  0
TEXT
  8
Layer1
 62
7
 10
582.214
 20
272.987
 72
1
 11
582.214
 21
272.987
 40
8
 41
1
  1
20ストローク
  0
LINE
  8
Layer1
  6
CONTINUOUS
 62
7
 10
570.195
 20
307.305
 11
570.195
 21
281.305
  0
LINE
  8
Layer1
  6
CONTINUOUS
 62
7
 10
590.195
 20
307.305
 11
590.195
 21
281.305
  0
POLYLINE
  8
Layer1
  6
CONTINUOUS
 62
7
 66
1
 10
0
 20
0
 30
0
  0
VERTEX
  8
Layer1
 10
570.195
 20
283.305
  0
VERTEX
  8
Layer1
 10
590.195
 20
283.305
  0
SEQEND
  0
POLYLINE
  8
Layer1
  6
CONTINUOUS
 62
7
 66
1
 10
0
 20
0
 30
0
 70
1
  0
VERTEX
  8
Layer1
 10
574.058
 20
282.269
  0
VERTEX
  8
Layer1
 10
570.195
 20
283.305
  0
VERTEX
  8
Layer1
 10
574.058
 20
284.341
  0
SEQEND
  0
POLYLINE
  8
Layer1
  6
CONTINUOUS
 62
7
 66
1
 10
0
 20
0
 30
0
 70
1
  0
VERTEX
  8
Layer1
 10
586.331
 20
284.341
  0
VERTEX
  8
Layer1
 10
590.195
 20
283.305
  0
VERTEX
  8
Layer1
 10
586.331
 20
282.269
  0
SEQEND
  0
LINE
  8
Layer1
  6
CONTINUOUS
 62
7
 10
663.195
 20
360.135
 11
670.195
 21
353.135
  0
LINE
  8
Layer1
  6
CONTINUOUS
 62
7
 10
663.195
 20
364.135
 11
670.195
 21
357.135
  0
LINE
  8
Layer1
  6
CONTINUOUS
 62
7
 10
663.61
 20
367.719
 11
670.195
 21
361.135
  0
LINE
  8
Layer1
  6
CONTINUOUS
 62
7
 10
667.024
 20
368.305
 11
670.195
 21
365.135
  0
LINE
  8
Layer1
  6
CONTINUOUS
 62
7
 10
663.005
 20
356.325
 11
670.195
 21
349.135
  0
LINE
  8
Layer1
  6
CONTINUOUS
 62
7
 10
660.901
 20
354.428
 11
670.195
 21
345.135
  0
LINE
  8
Layer1
  6
CONTINUOUS
 62
7
 10
657.024
 20
354.305
 11
669.61
 21
341.719
  0
LINE
  8
Layer1
  6
CONTINUOUS
 62
7
 10
653.024
 20
354.305
 11
666.024
 21
341.305
  0
LINE
  8
Layer1
  6
CONTINUOUS
 62
7
 10
649.024
 20
354.305
 11
662.024
 21
341.305
  0
LINE
  8
Layer1
  6
CONTINUOUS
 62
7
 10
645.144
 20
354.185
 11
658.024
 21
341.305
  0
LINE
  8
Layer1
  6
CONTINUOUS
 62
7
 10
645.144
 20
350.185
 11
646.954
 21
348.375
  0
LINE
  8
Layer1
  6
CONTINUOUS
 62
7
 10
652.187
 20
343.143
 11
654.024
 21
341.305
  0
LINE
  8
Layer1
  6
CONTINUOUS
 62
7
 10
630.774
 20
354.305
 11
634.645
 21
350.433
  0
LINE
  8
Layer1
  6
CONTINUOUS
 62
7
 10
634.774
 20
354.305
 11
639.144
 21
349.935
  0
LINE
  8
Layer1
  6
CONTINUOUS
 62
7
 10
638.774
 20
354.305
 11
639.144
 21
353.935
  0
LINE
  8
Layer1
  6
CONTINUOUS
 62
7
 10
641.187
 20
341.305
 11
641.187
 21
328.01
  0
LINE
  8
Layer1
  6
CONTINUOUS
 62
7
 10
643.187
 20
341.305
 11
643.187
 21
325.472
  0
LINE
  8
Layer1
  6
CONTINUOUS
 62
7
 10
643.187
 20
340.305
 11
641.187
 21
340.305
  0
LINE
  8
Layer1
  6
PHANTOM1
 62
7
 10
690.195
 20
316.188
 11
669.195
 21
341.305
  0
LINE
  8
Layer1
  6
PHANTOM1
 62
7
 10
690.195
 20
316.188
 11
690.195
 21
306.305
  0
LINE
  8
Layer1
  6
PHANTOM1
 62
7
 10
708.731
 20
373.305
 11
670.731
 21
373.305
  0
LINE
  8
Layer1
  6
PHANTOM1
 62
7
 10
670.731
 20
373.305
 11
669.731
 21
372.305
  0
LINE
  8
Layer1
  6
PHANTOM1
 62
7
 10
708.731
 20
373.305
 11
709.731
 21
372.305
  0
TEXT
  8
Layer1
 62
7
 10
744.081
 20
289.305
 72
1
 11
744.081
 21
289.305
 40
8
 41
1
 50
90
  1
 12 
  0
LINE
  8
Layer1
  6
CONTINUOUS
 62
7
 10
709.195
 20
283.305
 11
746.081
 21
283.305
  0
LINE
  8
Layer1
  6
CONTINUOUS
 62
7
 10
721.195
 20
295.305
 11
746.081
 21
295.305
  0
POLYLINE
  8
Layer1
  6
CONTINUOUS
 62
7
 66
1
 10
0
 20
0
 30
0
  0
VERTEX
  8
Layer1
 10
744.081
 20
273.305
  0
VERTEX
  8
Layer1
 10
744.081
 20
283.305
  0
SEQEND
  0
POLYLINE
  8
Layer1
  6
CONTINUOUS
 62
7
 66
1
 10
0
 20
0
 30
0
 70
1
  0
VERTEX
  8
Layer1
 10
743.045
 20
279.442
  0
VERTEX
  8
Layer1
 10
744.081
 20
283.305
  0
VERTEX
  8
Layer1
 10
745.117
 20
279.442
  0
SEQEND
  0
POLYLINE
  8
Layer1
  6
CONTINUOUS
 62
7
 66
1
 10
0
 20
0
 30
0
  0
VERTEX
  8
Layer1
 10
744.081
 20
305.305
  0
VERTEX
  8
Layer1
 10
744.081
 20
295.305
  0
SEQEND
  0
POLYLINE
  8
Layer1
  6
CONTINUOUS
 62
7
 66
1
 10
0
 20
0
 30
0
 70
1
  0
VERTEX
  8
Layer1
 10
745.117
 20
299.168
  0
VERTEX
  8
Layer1
 10
744.081
 20
295.305
  0
VERTEX
  8
Layer1
 10
743.045
 20
299.168
  0
SEQEND
  0
LINE
  8
Layer1
  6
CONTINUOUS
 62
7
 10
744.081
 20
283.305
 11
744.081
 21
295.305
  0
TEXT
  8
Layer1
 62
7
 10
744.081
 20
320.805
 72
1
 11
744.081
 21
320.805
 40
8
 41
1
 50
90
  1
 25 
  0
LINE
  8
Layer1
  6
CONTINUOUS
 62
7
 10
727.746
 20
308.305
 11
746.081
 21
308.305
  0
LINE
  8
Layer1
  6
CONTINUOUS
 62
7
 10
730.195
 20
333.305
 11
746.081
 21
333.305
  0
POLYLINE
  8
Layer1
  6
CONTINUOUS
 62
7
 66
1
 10
0
 20
0
 30
0
  0
VERTEX
  8
Layer1
 10
744.081
 20
308.305
  0
VERTEX
  8
Layer1
 10
744.081
 20
333.305
  0
SEQEND
  0
POLYLINE
  8
Layer1
  6
CONTINUOUS
 62
7
 66
1
 10
0
 20
0
 30
0
 70
1
  0
VERTEX
  8
Layer1
 10
745.117
 20
312.168
  0
VERTEX
  8
Layer1
 10
744.081
 20
308.305
  0
VERTEX
  8
Layer1
 10
743.045
 20
312.168
  0
SEQEND
  0
POLYLINE
  8
Layer1
  6
CONTINUOUS
 62
7
 66
1
 10
0
 20
0
 30
0
 70
1
  0
VERTEX
  8
Layer1
 10
743.045
 20
329.441
  0
VERTEX
  8
Layer1
 10
744.081
 20
333.305
  0
VERTEX
  8
Layer1
 10
745.117
 20
329.441
  0
SEQEND
  0
TEXT
  8
Layer1
 62
7
 10
744.081
 20
301.805
 72
1
 11
744.081
 21
301.805
 40
8
 41
1
 50
90
  1
 13 
  0
POLYLINE
  8
Layer1
  6
CONTINUOUS
 62
7
 66
1
 10
0
 20
0
 30
0
  0
VERTEX
  8
Layer1
 10
744.081
 20
318.305
  0
VERTEX
  8
Layer1
 10
744.081
 20
308.305
  0
SEQEND
  0
POLYLINE
  8
Layer1
  6
CONTINUOUS
 62
7
 66
1
 10
0
 20
0
 30
0
 70
1
  0
VERTEX
  8
Layer1
 10
745.117
 20
312.168
  0
VERTEX
  8
Layer1
 10
744.081
 20
308.305
  0
VERTEX
  8
Layer1
 10
743.045
 20
312.168
  0
SEQEND
  0
POLYLINE
  8
Layer1
  6
CONTINUOUS
 62
7
 66
1
 10
0
 20
0
 30
0
  0
VERTEX
  8
Layer1
 10
744.081
 20
285.305
  0
VERTEX
  8
Layer1
 10
744.081
 20
295.305
  0
SEQEND
  0
POLYLINE
  8
Layer1
  6
CONTINUOUS
 62
7
 66
1
 10
0
 20
0
 30
0
 70
1
  0
VERTEX
  8
Layer1
 10
743.045
 20
291.442
  0
VERTEX
  8
Layer1
 10
744.081
 20
295.305
  0
VERTEX
  8
Layer1
 10
745.117
 20
291.442
  0
SEQEND
  0
LINE
  8
Layer1
  6
CONTINUOUS
 62
7
 10
744.081
 20
308.305
 11
744.081
 21
295.305
  0
POLYLINE
  8
Layer1
  6
CONTINUOUS
 62
7
 66
1
 10
0
 20
0
 30
0
  0
VERTEX
  8
Layer1
 10
713.77
 20
307.805
  0
VERTEX
  8
Layer1
 10
726.574
 20
263.913
  0
VERTEX
  8
Layer1
 10
726.574
 20
263.913
  0
SEQEND
  0
POLYLINE
  8
Layer1
  6
CONTINUOUS
 62
7
 66
1
 10
0
 20
0
 30
0
 70
1
  0
VERTEX
  8
Layer1
 10
713.859
 20
303.807
  0
VERTEX
  8
Layer1
 10
713.77
 20
307.805
  0
VERTEX
  8
Layer1
 10
715.846
 20
304.385
  0
SEQEND
  0
LINE
  8
Layer1
  6
CONTINUOUS
 62
7
 10
726.574
 20
263.913
 11
750.574
 21
263.913
  0
TEXT
  8
Layer1
 62
7
 10
750.574
 20
265.913
 72
2
 11
750.574
 21
265.913
 40
6
 41
1
  1
M6タップ
  0
TEXT
  8
Layer1
 62
7
 10
744.081
 20
345.805
 72
1
 11
744.081
 21
345.805
 40
8
 41
1
 50
90
  1
 25 
  0
LINE
  8
Layer1
  6
CONTINUOUS
 62
7
 10
730.195
 20
358.305
 11
746.081
 21
358.305
  0
POLYLINE
  8
Layer1
  6
CONTINUOUS
 62
7
 66
1
 10
0
 20
0
 30
0
  0
VERTEX
  8
Layer1
 10
744.081
 20
358.305
  0
VERTEX
  8
Layer1
 10
744.081
 20
333.305
  0
SEQEND
  0
POLYLINE
  8
Layer1
  6
CONTINUOUS
 62
7
 66
1
 10
0
 20
0
 30
0
 70
1
  0
VERTEX
  8
Layer1
 10
743.045
 20
354.441
  0
VERTEX
  8
Layer1
 10
744.081
 20
358.305
  0
VERTEX
  8
Layer1
 10
745.117
 20
354.441
  0
SEQEND
  0
POLYLINE
  8
Layer1
  6
CONTINUOUS
 62
7
 66
1
 10
0
 20
0
 30
0
 70
1
  0
VERTEX
  8
Layer1
 10
745.117
 20
337.168
  0
VERTEX
  8
Layer1
 10
744.081
 20
333.305
  0
VERTEX
  8
Layer1
 10
743.045
 20
337.168
  0
SEQEND
  0
TEXT
  8
Layer1
 62
7
 10
785.365
 20
315.126
 72
1
 11
785.365
 21
315.126
 40
8
 41
1
 50
90
  1
 113.8 
  0
LINE
  8
Layer1
  6
CONTINUOUS
 62
7
 10
709.195
 20
397.106
 11
787.365
 21
397.106
  0
LINE
  8
Layer1
  6
CONTINUOUS
 62
7
 10
744.081
 20
283.305
 11
787.365
 21
283.305
  0
POLYLINE
  8
Layer1
  6
CONTINUOUS
 62
7
 66
1
 10
0
 20
0
 30
0
  0
VERTEX
  8
Layer1
 10
785.365
 20
397.106
  0
VERTEX
  8
Layer1
 10
785.365
 20
283.305
  0
SEQEND
  0
POLYLINE
  8
Layer1
  6
CONTINUOUS
 62
7
 66
1
 10
0
 20
0
 30
0
 70
1
  0
VERTEX
  8
Layer1
 10
784.331
 20
393.241
  0
VERTEX
  8
Layer1
 10
785.365
 20
397.106
  0
VERTEX
  8
Layer1
 10
786.401
 20
393.241
  0
SEQEND
  0
POLYLINE
  8
Layer1
  6
CONTINUOUS
 62
7
 66
1
 10
0
 20
0
 30
0
 70
1
  0
VERTEX
  8
Layer1
 10
786.401
 20
287.168
  0
VERTEX
  8
Layer1
 10
785.365
 20
283.305
  0
VERTEX
  8
Layer1
 10
784.331
 20
287.168
  0
SEQEND
  0
TEXT
  8
Layer1
 62
7
 10
766.553
 20
318.784
 72
1
 11
766.553
 21
318.784
 40
8
 41
1
 50
90
  1
 90 
  0
LINE
  8
Layer1
  6
CONTINUOUS
 62
7
 10
708.731
 20
373.305
 11
768.553
 21
373.305
  0
LINE
  8
Layer1
  6
CONTINUOUS
 62
7
 10
744.081
 20
283.305
 11
768.553
 21
283.305
  0
POLYLINE
  8
Layer1
  6
CONTINUOUS
 62
7
 66
1
 10
0
 20
0
 30
0
  0
VERTEX
  8
Layer1
 10
766.553
 20
373.305
  0
VERTEX
  8
Layer1
 10
766.553
 20
283.305
  0
SEQEND
  0
POLYLINE
  8
Layer1
  6
CONTINUOUS
 62
7
 66
1
 10
0
 20
0
 30
0
 70
1
  0
VERTEX
  8
Layer1
 10
765.517
 20
369.441
  0
VERTEX
  8
Layer1
 10
766.553
 20
373.305
  0
VERTEX
  8
Layer1
 10
767.588
 20
369.441
  0
SEQEND
  0
POLYLINE
  8
Layer1
  6
CONTINUOUS
 62
7
 66
1
 10
0
 20
0
 30
0
 70
1
  0
VERTEX
  8
Layer1
 10
767.588
 20
287.168
  0
VERTEX
  8
Layer1
 10
766.553
 20
283.305
  0
VERTEX
  8
Layer1
 10
765.517
 20
287.168
  0
SEQEND
  0
TEXT
  8
Layer1
 62
7
 10
760.543
 20
303.305
 72
1
 11
760.543
 21
303.305
 40
8
 41
1
 50
90
  1
 16 
  0
LINE
  8
Layer1
  6
CONTINUOUS
 62
7
 10
727.407
 20
311.305
 11
762.543
 21
311.305
  0
LINE
  8
Layer1
  6
CONTINUOUS
 62
7
 10
726.313
 20
295.305
 11
762.543
 21
295.305
  0
POLYLINE
  8
Layer1
  6
CONTINUOUS
 62
7
 66
1
 10
0
 20
0
 30
0
  0
VERTEX
  8
Layer1
 10
760.543
 20
311.305
  0
VERTEX
  8
Layer1
 10
760.543
 20
295.305
  0
SEQEND
  0
POLYLINE
  8
Layer1
  6
CONTINUOUS
 62
7
 66
1
 10
0
 20
0
 30
0
 70
1
  0
VERTEX
  8
Layer1
 10
759.507
 20
307.442
  0
VERTEX
  8
Layer1
 10
760.543
 20
311.305
  0
VERTEX
  8
Layer1
 10
761.578
 20
307.442
  0
SEQEND
  0
POLYLINE
  8
Layer1
  6
CONTINUOUS
 62
7
 66
1
 10
0
 20
0
 30
0
 70
1
  0
VERTEX
  8
Layer1
 10
761.578
 20
299.168
  0
VERTEX
  8
Layer1
 10
760.543
 20
295.305
  0
VERTEX
  8
Layer1
 10
759.507
 20
299.168
  0
SEQEND
  0
TEXT
  8
Layer1
 62
7
 10
762.879
 20
350.14
 72
1
 11
762.879
 21
350.14
 40
6
 41
1
 50
90
  1
(シャットハイト）
  0
TEXT
  8
Layer1
 62
7
 10
782.737
 20
365.818
 72
1
 11
782.737
 21
365.818
 40
6
 41
1
 50
90
  1
(オープンハイト）
  0
LINE
  8
Layer1
  6
DASHED1
 62
7
 10
670.195
 20
367.135
 11
683.195
 21
367.135
  0
LINE
  8
Layer1
  6
DASHED1
 62
7
 10
697.195
 20
367.135
 11
706.195
 21
367.135
  0
LINE
  8
Layer1
  6
DASHED1
 62
7
 10
670.195
 20
363.106
 11
683.195
 21
363.106
  0
LINE
  8
Layer1
  6
DASHED1
 62
7
 10
697.195
 20
363.106
 11
706.195
 21
363.106
  0
LINE
  8
Layer1
  6
CONTINUOUS
 62
7
 10
697.195
 20
363.106
 11
697.195
 21
361.106
  0
LINE
  8
Layer1
  6
CONTINUOUS
 62
7
 10
683.195
 20
363.106
 11
683.195
 21
361.106
  0
LINE
  8
Layer1
  6
CONTINUOUS
 62
7
 10
676.695
 20
367.135
 11
676.695
 21
363.106
  0
TEXT
  8
Layer1
 62
7
 10
600.196
 20
363.727
 72
1
 11
600.196
 21
363.727
 40
8
 41
1
  1
 20 
  0
LINE
  8
Layer1
  6
CONTINUOUS
 62
7
 10
590.195
 20
340.305
 11
590.195
 21
365.727
  0
LINE
  8
Layer1
  6
CONTINUOUS
 62
7
 10
610.197
 20
353.305
 11
610.197
 21
365.727
  0
POLYLINE
  8
Layer1
  6
CONTINUOUS
 62
7
 66
1
 10
0
 20
0
 30
0
  0
VERTEX
  8
Layer1
 10
590.195
 20
363.727
  0
VERTEX
  8
Layer1
 10
610.197
 20
363.727
  0
SEQEND
  0
POLYLINE
  8
Layer1
  6
CONTINUOUS
 62
7
 66
1
 10
0
 20
0
 30
0
 70
1
  0
VERTEX
  8
Layer1
 10
594.058
 20
362.693
  0
VERTEX
  8
Layer1
 10
590.195
 20
363.727
  0
VERTEX
  8
Layer1
 10
594.058
 20
364.763
  0
SEQEND
  0
POLYLINE
  8
Layer1
  6
CONTINUOUS
 62
7
 66
1
 10
0
 20
0
 30
0
 70
1
  0
VERTEX
  8
Layer1
 10
606.333
 20
364.763
  0
VERTEX
  8
Layer1
 10
610.197
 20
363.727
  0
VERTEX
  8
Layer1
 10
606.333
 20
362.693
  0
SEQEND
  0
TEXT
  8
Layer1
 62
7
 10
756.111
 20
497.346
 72
1
 11
756.111
 21
497.346
 40
8
 41
1
 50
90
  1
 51 
  0
LINE
  8
Layer1
  6
CONTINUOUS
 62
7
 10
732.688
 20
522.846
 11
758.111
 21
522.846
  0
LINE
  8
Layer1
  6
CONTINUOUS
 62
7
 10
732.688
 20
471.846
 11
758.111
 21
471.846
  0
POLYLINE
  8
Layer1
  6
CONTINUOUS
 62
7
 66
1
 10
0
 20
0
 30
0
  0
VERTEX
  8
Layer1
 10
756.111
 20
522.846
  0
VERTEX
  8
Layer1
 10
756.111
 20
471.846
  0
SEQEND
  0
POLYLINE
  8
Layer1
  6
CONTINUOUS
 62
7
 66
1
 10
0
 20
0
 30
0
 70
1
  0
VERTEX
  8
Layer1
 10
755.075
 20
518.982
  0
VERTEX
  8
Layer1
 10
756.111
 20
522.846
  0
VERTEX
  8
Layer1
 10
757.147
 20
518.982
  0
SEQEND
  0
POLYLINE
  8
Layer1
  6
CONTINUOUS
 62
7
 66
1
 10
0
 20
0
 30
0
 70
1
  0
VERTEX
  8
Layer1
 10
757.147
 20
475.709
  0
VERTEX
  8
Layer1
 10
756.111
 20
471.846
  0
VERTEX
  8
Layer1
 10
755.075
 20
475.709
  0
SEQEND
  0
TEXT
  8
Layer1
 62
7
 10
767.609
 20
497.346
 72
1
 11
767.609
 21
497.346
 40
8
 41
1
 50
90
  1
67
  0
LINE
  8
Layer1
  6
CONTINUOUS
 62
7
 10
716.195
 20
530.846
 11
769.609
 21
530.846
  0
LINE
  8
Layer1
  6
CONTINUOUS
 62
7
 10
721.195
 20
463.846
 11
769.609
 21
463.846
  0
POLYLINE
  8
Layer1
  6
CONTINUOUS
 62
7
 66
1
 10
0
 20
0
 30
0
  0
VERTEX
  8
Layer1
 10
767.609
 20
530.846
  0
VERTEX
  8
Layer1
 10
767.609
 20
463.846
  0
SEQEND
  0
POLYLINE
  8
Layer1
  6
CONTINUOUS
 62
7
 66
1
 10
0
 20
0
 30
0
 70
1
  0
VERTEX
  8
Layer1
 10
766.572
 20
526.982
  0
VERTEX
  8
Layer1
 10
767.609
 20
530.846
  0
VERTEX
  8
Layer1
 10
768.643
 20
526.982
  0
SEQEND
  0
POLYLINE
  8
Layer1
  6
CONTINUOUS
 62
7
 66
1
 10
0
 20
0
 30
0
 70
1
  0
VERTEX
  8
Layer1
 10
768.643
 20
467.709
  0
VERTEX
  8
Layer1
 10
767.609
 20
463.846
  0
VERTEX
  8
Layer1
 10
766.572
 20
467.709
  0
SEQEND
  0
TEXT
  8
Layer1
 62
7
 10
781.196
 20
497.346
 72
1
 11
781.196
 21
497.346
 40
8
 41
1
 50
90
  1
 84 
  0
LINE
  8
Layer1
  6
CONTINUOUS
 62
7
 10
713.851
 20
539.346
 11
783.196
 21
539.346
  0
LINE
  8
Layer1
  6
CONTINUOUS
 62
7
 10
713.851
 20
455.346
 11
783.196
 21
455.346
  0
POLYLINE
  8
Layer1
  6
CONTINUOUS
 62
7
 66
1
 10
0
 20
0
 30
0
  0
VERTEX
  8
Layer1
 10
781.196
 20
539.346
  0
VERTEX
  8
Layer1
 10
781.196
 20
455.346
  0
SEQEND
  0
POLYLINE
  8
Layer1
  6
CONTINUOUS
 62
7
 66
1
 10
0
 20
0
 30
0
 70
1
  0
VERTEX
  8
Layer1
 10
780.16
 20
535.482
  0
VERTEX
  8
Layer1
 10
781.196
 20
539.346
  0
VERTEX
  8
Layer1
 10
782.23
 20
535.482
  0
SEQEND
  0
POLYLINE
  8
Layer1
  6
CONTINUOUS
 62
7
 66
1
 10
0
 20
0
 30
0
 70
1
  0
VERTEX
  8
Layer1
 10
782.23
 20
459.209
  0
VERTEX
  8
Layer1
 10
781.196
 20
455.346
  0
VERTEX
  8
Layer1
 10
780.16
 20
459.209
  0
SEQEND
  0
TEXT
  8
Layer1
 62
7
 10
795.305
 20
497.346
 72
1
 11
795.305
 21
497.346
 40
8
 41
1
 50
90
  1
 102 
  0
LINE
  8
Layer1
  6
CONTINUOUS
 62
7
 10
700.195
 20
548.346
 11
797.305
 21
548.346
  0
LINE
  8
Layer1
  6
CONTINUOUS
 62
7
 10
705.195
 20
446.346
 11
797.305
 21
446.346
  0
POLYLINE
  8
Layer1
  6
CONTINUOUS
 62
7
 66
1
 10
0
 20
0
 30
0
  0
VERTEX
  8
Layer1
 10
795.305
 20
548.346
  0
VERTEX
  8
Layer1
 10
795.305
 20
446.346
  0
SEQEND
  0
POLYLINE
  8
Layer1
  6
CONTINUOUS
 62
7
 66
1
 10
0
 20
0
 30
0
 70
1
  0
VERTEX
  8
Layer1
 10
794.271
 20
544.482
  0
VERTEX
  8
Layer1
 10
795.305
 20
548.346
  0
VERTEX
  8
Layer1
 10
796.341
 20
544.482
  0
SEQEND
  0
POLYLINE
  8
Layer1
  6
CONTINUOUS
 62
7
 66
1
 10
0
 20
0
 30
0
 70
1
  0
VERTEX
  8
Layer1
 10
796.341
 20
450.209
  0
VERTEX
  8
Layer1
 10
795.305
 20
446.346
  0
VERTEX
  8
Layer1
 10
794.271
 20
450.209
  0
SEQEND
  0
TEXT
  8
Layer1
 62
7
 10
740.956
 20
497.846
 72
1
 11
740.956
 21
497.846
 40
8
 41
1
 50
90
  1
 36 
  0
LINE
  8
Layer1
  6
CONTINUOUS
 62
7
 10
709.195
 20
515.846
 11
742.956
 21
515.846
  0
LINE
  8
Layer1
  6
CONTINUOUS
 62
7
 10
709.195
 20
479.846
 11
742.956
 21
479.846
  0
POLYLINE
  8
Layer1
  6
CONTINUOUS
 62
7
 66
1
 10
0
 20
0
 30
0
  0
VERTEX
  8
Layer1
 10
740.956
 20
515.846
  0
VERTEX
  8
Layer1
 10
740.956
 20
479.846
  0
SEQEND
  0
POLYLINE
  8
Layer1
  6
CONTINUOUS
 62
7
 66
1
 10
0
 20
0
 30
0
 70
1
  0
VERTEX
  8
Layer1
 10
739.92
 20
511.982
  0
VERTEX
  8
Layer1
 10
740.956
 20
515.846
  0
VERTEX
  8
Layer1
 10
741.992
 20
511.982
  0
SEQEND
  0
POLYLINE
  8
Layer1
  6
CONTINUOUS
 62
7
 66
1
 10
0
 20
0
 30
0
 70
1
  0
VERTEX
  8
Layer1
 10
741.992
 20
483.709
  0
VERTEX
  8
Layer1
 10
740.956
 20
479.846
  0
VERTEX
  8
Layer1
 10
739.92
 20
483.709
  0
SEQEND
  0
TEXT
  8
Layer1
 62
7
 10
660.195
 20
575.802
 72
1
 11
660.195
 21
575.802
 40
8
 41
1
  1
 100 
  0
LINE
  8
Layer1
  6
CONTINUOUS
 62
7
 10
610.195
 20
543.346
 11
610.195
 21
577.802
  0
LINE
  8
Layer1
  6
CONTINUOUS
 62
7
 10
710.195
 20
543.346
 11
710.195
 21
577.802
  0
POLYLINE
  8
Layer1
  6
CONTINUOUS
 62
7
 66
1
 10
0
 20
0
 30
0
  0
VERTEX
  8
Layer1
 10
610.195
 20
575.802
  0
VERTEX
  8
Layer1
 10
710.195
 20
575.802
  0
SEQEND
  0
POLYLINE
  8
Layer1
  6
CONTINUOUS
 62
7
 66
1
 10
0
 20
0
 30
0
 70
1
  0
VERTEX
  8
Layer1
 10
614.058
 20
574.766
  0
VERTEX
  8
Layer1
 10
610.195
 20
575.802
  0
VERTEX
  8
Layer1
 10
614.058
 20
576.836
  0
SEQEND
  0
POLYLINE
  8
Layer1
  6
CONTINUOUS
 62
7
 66
1
 10
0
 20
0
 30
0
 70
1
  0
VERTEX
  8
Layer1
 10
706.331
 20
576.836
  0
VERTEX
  8
Layer1
 10
710.195
 20
575.802
  0
VERTEX
  8
Layer1
 10
706.331
 20
574.766
  0
SEQEND
  0
TEXT
  8
Layer1
 62
7
 10
716.195
 20
575.802
 72
1
 11
716.195
 21
575.802
 40
8
 41
1
  1
 12 
  0
LINE
  8
Layer1
  6
CONTINUOUS
 62
7
 10
722.195
 20
528.846
 11
722.195
 21
577.802
  0
POLYLINE
  8
Layer1
  6
CONTINUOUS
 62
7
 66
1
 10
0
 20
0
 30
0
  0
VERTEX
  8
Layer1
 10
732.195
 20
575.802
  0
VERTEX
  8
Layer1
 10
722.195
 20
575.802
  0
SEQEND
  0
POLYLINE
  8
Layer1
  6
CONTINUOUS
 62
7
 66
1
 10
0
 20
0
 30
0
 70
1
  0
VERTEX
  8
Layer1
 10
726.058
 20
574.766
  0
VERTEX
  8
Layer1
 10
722.195
 20
575.802
  0
VERTEX
  8
Layer1
 10
726.058
 20
576.836
  0
SEQEND
  0
POLYLINE
  8
Layer1
  6
CONTINUOUS
 62
7
 66
1
 10
0
 20
0
 30
0
  0
VERTEX
  8
Layer1
 10
700.195
 20
575.802
  0
VERTEX
  8
Layer1
 10
710.195
 20
575.802
  0
SEQEND
  0
POLYLINE
  8
Layer1
  6
CONTINUOUS
 62
7
 66
1
 10
0
 20
0
 30
0
 70
1
  0
VERTEX
  8
Layer1
 10
706.331
 20
576.836
  0
VERTEX
  8
Layer1
 10
710.195
 20
575.802
  0
VERTEX
  8
Layer1
 10
706.331
 20
574.766
  0
SEQEND
  0
LINE
  8
Layer1
  6
CONTINUOUS
 62
7
 10
722.195
 20
575.802
 11
710.195
 21
575.802
  0
TEXT
  8
Layer1
 62
7
 10
615.195
 20
558.555
 72
1
 11
615.195
 21
558.555
 40
8
 41
1
  1
 10 
  0
LINE
  8
Layer1
  6
CONTINUOUS
 62
7
 10
620.195
 20
552.457
 11
620.195
 21
560.555
  0
LINE
  8
Layer1
  6
CONTINUOUS
 62
7
 10
610.195
 20
558.034
 11
610.195
 21
560.555
  0
POLYLINE
  8
Layer1
  6
CONTINUOUS
 62
7
 66
1
 10
0
 20
0
 30
0
  0
VERTEX
  8
Layer1
 10
630.195
 20
558.555
  0
VERTEX
  8
Layer1
 10
620.195
 20
558.555
  0
SEQEND
  0
POLYLINE
  8
Layer1
  6
CONTINUOUS
 62
7
 66
1
 10
0
 20
0
 30
0
 70
1
  0
VERTEX
  8
Layer1
 10
624.058
 20
557.52
  0
VERTEX
  8
Layer1
 10
620.195
 20
558.555
  0
VERTEX
  8
Layer1
 10
624.058
 20
559.591
  0
SEQEND
  0
POLYLINE
  8
Layer1
  6
CONTINUOUS
 62
7
 66
1
 10
0
 20
0
 30
0
  0
VERTEX
  8
Layer1
 10
600.195
 20
558.555
  0
VERTEX
  8
Layer1
 10
610.195
 20
558.555
  0
SEQEND
  0
POLYLINE
  8
Layer1
  6
CONTINUOUS
 62
7
 66
1
 10
0
 20
0
 30
0
 70
1
  0
VERTEX
  8
Layer1
 10
606.331
 20
559.591
  0
VERTEX
  8
Layer1
 10
610.195
 20
558.555
  0
VERTEX
  8
Layer1
 10
606.331
 20
557.52
  0
SEQEND
  0
LINE
  8
Layer1
  6
CONTINUOUS
 62
7
 10
620.195
 20
558.555
 11
610.195
 21
558.555
  0
TEXT
  8
Layer1
 62
7
 10
660.195
 20
558.555
 72
1
 11
660.195
 21
558.555
 40
8
 41
1
  1
 80 
  0
LINE
  8
Layer1
  6
CONTINUOUS
 62
7
 10
700.195
 20
552.457
 11
700.195
 21
560.555
  0
POLYLINE
  8
Layer1
  6
CONTINUOUS
 62
7
 66
1
 10
0
 20
0
 30
0
  0
VERTEX
  8
Layer1
 10
620.195
 20
558.555
  0
VERTEX
  8
Layer1
 10
700.195
 20
558.555
  0
SEQEND
  0
POLYLINE
  8
Layer1
  6
CONTINUOUS
 62
7
 66
1
 10
0
 20
0
 30
0
 70
1
  0
VERTEX
  8
Layer1
 10
624.058
 20
557.52
  0
VERTEX
  8
Layer1
 10
620.195
 20
558.555
  0
VERTEX
  8
Layer1
 10
624.058
 20
559.591
  0
SEQEND
  0
POLYLINE
  8
Layer1
  6
CONTINUOUS
 62
7
 66
1
 10
0
 20
0
 30
0
 70
1
  0
VERTEX
  8
Layer1
 10
696.331
 20
559.591
  0
VERTEX
  8
Layer1
 10
700.195
 20
558.555
  0
VERTEX
  8
Layer1
 10
696.331
 20
557.52
  0
SEQEND
  0
TEXT
  8
Layer1
 62
7
 10
690.195
 20
427.907
 72
1
 11
690.195
 21
427.907
 40
8
 41
1
  1
 40 
  0
LINE
  8
Layer1
  6
CONTINUOUS
 62
7
 10
670.195
 20
471.846
 11
670.195
 21
425.907
  0
LINE
  8
Layer1
  6
CONTINUOUS
 62
7
 10
710.195
 20
451.346
 11
710.195
 21
425.907
  0
POLYLINE
  8
Layer1
  6
CONTINUOUS
 62
7
 66
1
 10
0
 20
0
 30
0
  0
VERTEX
  8
Layer1
 10
670.195
 20
427.907
  0
VERTEX
  8
Layer1
 10
710.195
 20
427.907
  0
SEQEND
  0
POLYLINE
  8
Layer1
  6
CONTINUOUS
 62
7
 66
1
 10
0
 20
0
 30
0
 70
1
  0
VERTEX
  8
Layer1
 10
674.058
 20
426.871
  0
VERTEX
  8
Layer1
 10
670.195
 20
427.907
  0
VERTEX
  8
Layer1
 10
674.058
 20
428.943
  0
SEQEND
  0
POLYLINE
  8
Layer1
  6
CONTINUOUS
 62
7
 66
1
 10
0
 20
0
 30
0
 70
1
  0
VERTEX
  8
Layer1
 10
706.331
 20
428.943
  0
VERTEX
  8
Layer1
 10
710.195
 20
427.907
  0
VERTEX
  8
Layer1
 10
706.331
 20
426.871
  0
SEQEND
  0
POLYLINE
  8
Layer1
  6
CONTINUOUS
 62
7
 66
1
 10
0
 20
0
 30
0
  0
VERTEX
  8
Layer1
 10
648.584
 20
325.541
  0
VERTEX
  8
Layer1
 10
613.678
 20
265.205
  0
VERTEX
  8
Layer1
 10
613.678
 20
265.205
  0
SEQEND
  0
CIRCLE
  8
Layer1
  6
CONTINUOUS
 62
7
 10
648.584
 20
325.541
 40
1
  0
CIRCLE
  8
Layer1
  6
CONTINUOUS
 62
7
 10
611.998
 20
262.301
 40
3.3541
  0
TEXT
  8
Layer1
 62
7
 10
611.998
 20
262.301
 72
1
 73
2
 11
611.998
 21
262.301
 40
6
 41
1
  1
2
  0
POLYLINE
  8
Layer1
  6
CONTINUOUS
 62
7
 66
1
 10
0
 20
0
 30
0
  0
VERTEX
  8
Layer1
 10
703.195
 20
298.229
  0
VERTEX
  8
Layer1
 10
695.391
 20
266.962
  0
VERTEX
  8
Layer1
 10
695.391
 20
266.962
  0
SEQEND
  0
CIRCLE
  8
Layer1
  6
CONTINUOUS
 62
7
 10
703.195
 20
298.229
 40
1
  0
CIRCLE
  8
Layer1
  6
CONTINUOUS
 62
7
 10
694.365
 20
262.846
 40
4.24264
  0
TEXT
  8
Layer1
 62
7
 10
694.365
 20
262.846
 72
1
 73
2
 11
694.365
 21
262.846
 40
6
 41
1
  1
10
  0
POLYLINE
  8
Layer1
  6
CONTINUOUS
 62
7
 66
1
 10
0
 20
0
 30
0
  0
VERTEX
  8
Layer1
 10
616.654
 20
468.31
  0
VERTEX
  8
Layer1
 10
583.531
 20
438.661
  0
VERTEX
  8
Layer1
 10
583.531
 20
438.661
  0
SEQEND
  0
CIRCLE
  8
Layer1
  6
CONTINUOUS
 62
7
 10
616.654
 20
468.31
 40
1
  0
CIRCLE
  8
Layer1
  6
CONTINUOUS
 62
7
 10
580.37
 20
435.832
 40
4.24264
  0
TEXT
  8
Layer1
 62
7
 10
580.37
 20
435.832
 72
1
 73
2
 11
580.37
 21
435.832
 40
6
 41
1
  1
11
  0
POLYLINE
  8
Layer1
  6
CONTINUOUS
 62
7
 66
1
 10
0
 20
0
 30
0
  0
VERTEX
  8
Layer1
 10
615.741
 20
288.069
  0
VERTEX
  8
Layer1
 10
602.279
 20
265.231
  0
VERTEX
  8
Layer1
 10
602.279
 20
265.231
  0
SEQEND
  0
CIRCLE
  8
Layer1
  6
CONTINUOUS
 62
7
 10
615.741
 20
288.069
 40
1
  0
CIRCLE
  8
Layer1
  6
CONTINUOUS
 62
7
 10
600.577
 20
262.341
 40
3.3541
  0
TEXT
  8
Layer1
 62
7
 10
600.577
 20
262.341
 72
1
 73
2
 11
600.577
 21
262.341
 40
6
 41
1
  1
1
  0
POLYLINE
  8
Layer1
  6
CONTINUOUS
 62
7
 66
1
 10
0
 20
0
 30
0
  0
VERTEX
  8
Layer1
 10
682.568
 20
288.601
  0
VERTEX
  8
Layer1
 10
669.106
 20
265.761
  0
VERTEX
  8
Layer1
 10
669.106
 20
265.761
  0
SEQEND
  0
CIRCLE
  8
Layer1
  6
CONTINUOUS
 62
7
 10
682.568
 20
288.601
 40
1
  0
CIRCLE
  8
Layer1
  6
CONTINUOUS
 62
7
 10
667.404
 20
262.872
 40
3.3541
  0
TEXT
  8
Layer1
 62
7
 10
667.404
 20
262.872
 72
1
 73
2
 11
667.404
 21
262.872
 40
6
 41
1
  1
7
  0
POLYLINE
  8
Layer1
  6
CONTINUOUS
 62
7
 66
1
 10
0
 20
0
 30
0
  0
VERTEX
  8
Layer1
 10
694.695
 20
287.229
  0
VERTEX
  8
Layer1
 10
683.365
 20
265.63
  0
VERTEX
  8
Layer1
 10
683.365
 20
265.63
  0
SEQEND
  0
CIRCLE
  8
Layer1
  6
CONTINUOUS
 62
7
 10
694.695
 20
287.229
 40
1
  0
CIRCLE
  8
Layer1
  6
CONTINUOUS
 62
7
 10
681.806
 20
262.66
 40
3.3541
  0
TEXT
  8
Layer1
 62
7
 10
681.806
 20
262.66
 72
1
 73
2
 11
681.806
 21
262.66
 40
6
 41
1
  1
6
  0
POLYLINE
  8
Layer1
  6
CONTINUOUS
 62
7
 66
1
 10
0
 20
0
 30
0
  0
VERTEX
  8
Layer1
 10
715.664
 20
349.135
  0
VERTEX
  8
Layer1
 10
741.437
 20
408.253
  0
VERTEX
  8
Layer1
 10
741.437
 20
408.253
  0
SEQEND
  0
CIRCLE
  8
Layer1
  6
CONTINUOUS
 62
7
 10
715.664
 20
349.135
 40
1
  0
CIRCLE
  8
Layer1
  6
CONTINUOUS
 62
7
 10
742.776
 20
411.327
 40
3.3541
  0
TEXT
  8
Layer1
 62
7
 10
742.776
 20
411.327
 72
1
 73
2
 11
742.776
 21
411.327
 40
6
 41
1
  1
5
  0
POLYLINE
  8
Layer1
  6
CONTINUOUS
 62
7
 66
1
 10
0
 20
0
 30
0
  0
VERTEX
  8
Layer1
 10
666.901
 20
364.428
  0
VERTEX
  8
Layer1
 10
641.217
 20
408.281
  0
VERTEX
  8
Layer1
 10
641.217
 20
408.281
  0
SEQEND
  0
CIRCLE
  8
Layer1
  6
CONTINUOUS
 62
7
 10
666.901
 20
364.428
 40
1
  0
CIRCLE
  8
Layer1
  6
CONTINUOUS
 62
7
 10
639.522
 20
411.176
 40
3.3541
  0
TEXT
  8
Layer1
 62
7
 10
639.522
 20
411.176
 72
1
 73
2
 11
639.522
 21
411.176
 40
6
 41
1
  1
4
  0
POLYLINE
  8
Layer1
  6
CONTINUOUS
 62
7
 66
1
 10
0
 20
0
 30
0
  0
VERTEX
  8
Layer1
 10
642.187
 20
361.161
  0
VERTEX
  8
Layer1
 10
627.62
 20
408.815
  0
VERTEX
  8
Layer1
 10
627.62
 20
408.815
  0
SEQEND
  0
CIRCLE
  8
Layer1
  6
CONTINUOUS
 62
7
 10
642.187
 20
361.161
 40
1
  0
CIRCLE
  8
Layer1
  6
CONTINUOUS
 62
7
 10
626.639
 20
412.022
 40
3.3541
  0
TEXT
  8
Layer1
 62
7
 10
626.639
 20
412.022
 72
1
 73
2
 11
626.639
 21
412.022
 40
6
 41
1
  1
8
  0
POLYLINE
  8
Layer1
  6
CONTINUOUS
 62
7
 66
1
 10
0
 20
0
 30
0
  0
VERTEX
  8
Layer1
 10
674.029
 20
392.159
  0
VERTEX
  8
Layer1
 10
663.7
 20
409.681
  0
VERTEX
  8
Layer1
 10
663.7
 20
409.681
  0
SEQEND
  0
CIRCLE
  8
Layer1
  6
CONTINUOUS
 62
7
 10
674.029
 20
392.159
 40
1
  0
CIRCLE
  8
Layer1
  6
CONTINUOUS
 62
7
 10
661.997
 20
412.57
 40
3.3541
  0
TEXT
  8
Layer1
 62
7
 10
661.997
 20
412.57
 72
1
 73
2
 11
661.997
 21
412.57
 40
6
 41
1
  1
3
  0
POLYLINE
  8
Layer1
  6
CONTINUOUS
 62
7
 66
1
 10
0
 20
0
 30
0
  0
VERTEX
  8
Layer1
 10
723.926
 20
361.805
  0
VERTEX
  8
Layer1
 10
757.514
 20
408.301
  0
VERTEX
  8
Layer1
 10
757.514
 20
408.301
  0
SEQEND
  0
CIRCLE
  8
Layer1
  6
CONTINUOUS
 62
7
 10
723.926
 20
361.805
 40
1
  0
CIRCLE
  8
Layer1
  6
CONTINUOUS
 62
7
 10
759.998
 20
411.739
 40
4.24264
  0
TEXT
  8
Layer1
 62
7
 10
759.998
 20
411.739
 72
1
 73
2
 11
759.998
 21
411.739
 40
6
 41
1
  1
12
  0
POLYLINE
  8
Layer1
  6
CONTINUOUS
 62
7
 66
1
 10
0
 20
0
 30
0
  0
VERTEX
  8
Layer1
 10
725.945
 20
338.805
  0
VERTEX
  8
Layer1
 10
779.065
 20
408.863
  0
VERTEX
  8
Layer1
 10
779.065
 20
408.863
  0
SEQEND
  0
CIRCLE
  8
Layer1
  6
CONTINUOUS
 62
7
 10
725.945
 20
338.805
 40
1
  0
CIRCLE
  8
Layer1
  6
CONTINUOUS
 62
7
 10
781.092
 20
411.536
 40
3.3541
  0
TEXT
  8
Layer1
 62
7
 10
781.092
 20
411.536
 72
1
 73
2
 11
781.092
 21
411.536
 40
6
 41
1
  1
9
  0
POLYLINE
  8
Layer1
  6
CONTINUOUS
 62
7
 66
1
 10
0
 20
0
 30
0
  0
VERTEX
  8
Layer1
 10
594.371
 20
332.405
  0
VERTEX
  8
Layer1
 10
576.072
 20
363.652
  0
VERTEX
  8
Layer1
 10
576.072
 20
363.652
  0
SEQEND
  0
CIRCLE
  8
Layer1
  6
CONTINUOUS
 62
7
 10
594.371
 20
332.405
 40
1
  0
CIRCLE
  8
Layer1
  6
CONTINUOUS
 62
7
 10
573.927
 20
367.313
 40
4.24264
  0
TEXT
  8
Layer1
 62
7
 10
573.927
 20
367.313
 72
1
 73
2
 11
573.927
 21
367.313
 40
6
 41
1
  1
14
  0
POLYLINE
  8
Layer1
  6
CONTINUOUS
 62
7
 66
1
 10
0
 20
0
 30
0
  0
VERTEX
  8
Layer1
 10
593.902
 20
316.947
  0
VERTEX
  8
Layer1
 10
575.861
 20
352.339
  0
VERTEX
  8
Layer1
 10
575.861
 20
352.339
  0
SEQEND
  0
CIRCLE
  8
Layer1
  6
CONTINUOUS
 62
7
 10
593.902
 20
316.947
 40
1
  0
CIRCLE
  8
Layer1
  6
CONTINUOUS
 62
7
 10
573.933
 20
356.118
 40
4.24264
  0
TEXT
  8
Layer1
 62
7
 10
573.933
 20
356.118
 72
1
 73
2
 11
573.933
 21
356.118
 40
6
 41
1
  1
13
  0
POLYLINE
  8
Layer1
  6
CONTINUOUS
 62
7
 66
1
 10
0
 20
0
 30
0
  0
VERTEX
  8
Layer1
 10
700.629
 20
365.095
  0
VERTEX
  8
Layer1
 10
680.652
 20
409.681
  0
VERTEX
  8
Layer1
 10
680.652
 20
409.681
  0
SEQEND
  0
CIRCLE
  8
Layer1
  6
CONTINUOUS
 62
7
 10
700.629
 20
365.095
 40
1
  0
CIRCLE
  8
Layer1
  6
CONTINUOUS
 62
7
 10
678.918
 20
413.553
 40
4.24264
  0
TEXT
  8
Layer1
 62
7
 10
678.918
 20
413.553
 72
1
 73
2
 11
678.918
 21
413.553
 40
6
 41
1
  1
15
  0
LINE
  8
Layer1
  6
CONTINUOUS
 62
7
 10
610.195
 20
340.315
 11
610.195
 21
284.305
  0
TEXT
  8
Layer1
 62
7
 10
699.646
 20
345.168
 72
1
 11
699.646
 21
345.168
 40
3
 41
1
 50
20
  1
 40°
  0
ARC
  8
Layer1
  6
CONTINUOUS
 62
7
 10
710.195
 20
316.188
 40
29.8405
 50
90
 51
130
  0
TEXT
  8
Layer1
 62
7
 10
565.675
 20
497.346
 72
1
 11
565.675
 21
497.346
 40
7
 41
1
 50
90
  1
 65 
  0
LINE
  8
Layer1
  6
CONTINUOUS
 62
7
 10
614.105
 20
529.846
 11
564.675
 21
529.846
  0
LINE
  8
Layer1
  6
CONTINUOUS
 62
7
 10
610.784
 20
464.846
 11
564.675
 21
464.846
  0
POLYLINE
  8
Layer1
  6
CONTINUOUS
 62
7
 66
1
 10
0
 20
0
 30
0
  0
VERTEX
  8
Layer1
 10
566.675
 20
529.846
  0
VERTEX
  8
Layer1
 10
566.675
 20
464.846
  0
SEQEND
  0
POLYLINE
  8
Layer1
  6
CONTINUOUS
 62
7
 66
1
 10
0
 20
0
 30
0
  0
VERTEX
  8
Layer1
 10
565.899
 20
526.949
  0
VERTEX
  8
Layer1
 10
566.675
 20
529.846
  0
VERTEX
  8
Layer1
 10
567.452
 20
526.949
  0
SEQEND
  0
POLYLINE
  8
Layer1
  6
CONTINUOUS
 62
7
 66
1
 10
0
 20
0
 30
0
  0
VERTEX
  8
Layer1
 10
567.452
 20
467.744
  0
VERTEX
  8
Layer1
 10
566.675
 20
464.846
  0
VERTEX
  8
Layer1
 10
565.899
 20
467.744
  0
SEQEND
  0
ENDSEC
  0
EOF
