  0
SECTION
  2
HEADER
  9
$EXTMIN
 10
0
 20
0
  9
$EXTMAX
 10
1189
 20
841
  9
$LTSCALE
 40
1
  9
$LIMMIN
 10
0
 20
0
  9
$LIMMAX
 10
1189
 20
841
  9
$DIMSCALE
 40
1
  0
ENDSEC
  0
SECTION
  2
TABLES
  0
TABLE
  2
LTYPE
 70
9
  0
LTYPE
  2
CONTINUOUS
 70
64
  3
----------
 72
65
 73
0
 40
0
  0
LTYPE
  2
DASHED1
 70
64
  3
--  --  --  --  --  --  --  --  
 72
65
 73
2
 40
2.5
 49
1.25
 49
-1.25
  0
LTYPE
  2
DASHED2
 70
64
  3
----    ----    ----    ----    
 72
65
 73
2
 40
5
 49
2.5
 49
-2.5
  0
LTYPE
  2
DASHED3
 70
64
  3
------  ------  ------  ------  
 72
65
 73
2
 40
5
 49
3.75
 49
-1.25
  0
LTYPE
  2
CENTER1
 70
64
  3
----- - ----- - ----- - ----- - 
 72
65
 73
4
 40
7.5
 49
3.75
 49
-1.25
 49
1.25
 49
-1.25
  0
LTYPE
  2
CENTER2
 70
64
  3
----------  --  ----------  --  
 72
65
 73
4
 40
13.75
 49
6.25
 49
-2.5
 49
2.5
 49
-2.5
  0
LTYPE
  2
PHANTOM1
 70
64
  3
--- - - --- - - --- - - --- - - 
 72
65
 73
6
 40
9.5
 49
3.25
 49
-1.25
 49
1.25
 49
-1.25
 49
1.25
 49
-1.25
  0
LTYPE
  2
PHANTOM2
 70
64
  3
--------  -  -  --------  -  -  
 72
65
 73
6
 40
18
 49
8
 49
-2.5
 49
1.25
 49
-2.5
 49
1.25
 49
-2.5
  0
LTYPE
  2
DOT
 70
64
  3
-   -   -   -   -   -   -   -   
 72
65
 73
2
 40
2.5
 49
0.625
 49
-1.875
  0
LTYPE
  2
HOJO
 70
64
  3
-   -   -   -   -   -   -   -   
 72
65
 73
2
 40
2.5
 49
0.625
 49
-1.875
  0
ENDTAB
  0
TABLE
  2
STYLE
 70
2
  0
STYLE
  2
STANDARD
 70
64
 40
0
 41
1
 42
0
 50
0
 71
0
  3
TXT
  4
BIGFONT
  0
STYLE
  2
TATEGAKI
 70
68
 40
0
 41
1
 42
0
 50
0
 71
0
  3
TXT
  4
EXTFONT
  0
ENDTAB
  0
TABLE
  2
LAYER
 70
1
  0
LAYER
  2
Layer2
 70
64
 62
7
  6
CONTINUOUS
  0
ENDTAB
  0
ENDSEC
  0
SECTION
  2
ENTITIES
  0
CIRCLE
  8
Layer2
  6
CONTINUOUS
 62
7
 10
622.593
 20
488.036
 40
3.76681
  0
ARC
  8
Layer2
  6
CONTINUOUS
 62
7
 10
618.12
 20
488.071
 40
1
 50
140.711
 51
225
  0
LINE
  8
Layer2
  6
CONTINUOUS
 62
7
 10
627.103
 20
489.68
 11
629.367
 21
489.68
  0
LINE
  8
Layer2
  6
CONTINUOUS
 62
7
 10
627.103
 20
486.195
 11
629.367
 21
486.195
  0
LINE
  8
Layer2
  6
CONTINUOUS
 62
7
 10
629.367
 20
489.68
 11
629.367
 21
486.195
  0
ARC
  8
Layer2
  6
CONTINUOUS
 62
7
 10
622.593
 20
488.036
 40
4.80058
 50
20.031
 51
140.098
  0
ARC
  8
Layer2
  6
CONTINUOUS
 62
7
 10
622.593
 20
488.036
 40
4.80058
 50
218.056
 51
337.793
  0
ARC
  8
Layer2
  6
CONTINUOUS
 62
7
 10
609.7
 20
480.786
 40
10.1292
 50
24.1178
 51
40.4581
  0
ARC
  8
Layer2
  6
CONTINUOUS
 62
7
 10
609.639
 20
495.277
 40
10.1292
 50
319.542
 51
335.882
  0
ARC
  8
Layer2
  6
CONTINUOUS
 62
7
 10
628.235
 20
489.68
 40
0.542282
 50
0
 51
180
  0
ARC
  8
Layer2
  6
CONTINUOUS
 62
7
 10
628.235
 20
486.195
 40
0.657613
 50
180
 51
2.03555e-013
  0
LINE
  8
Layer2
  6
CONTINUOUS
 62
7
 10
618.619
 20
402.47
 11
626.73
 21
402.47
  0
LINE
  8
Layer2
  6
CONTINUOUS
 62
7
 10
618.619
 20
400.361
 11
625.757
 21
400.361
  0
LINE
  8
Layer2
  6
CONTINUOUS
 62
7
 10
626.73
 20
402.47
 11
628.028
 21
400.956
  0
LINE
  8
Layer2
  6
CONTINUOUS
 62
7
 10
628.028
 20
400.361
 11
628.028
 21
400.956
  0
ARC
  8
Layer2
  6
CONTINUOUS
 62
7
 10
626.892
 20
400.349
 40
1.13567
 50
179.415
 51
0.584631
  0
LINE
  8
Layer2
  6
CONTINUOUS
 62
7
 10
618.619
 20
402.47
 11
616.42
 21
400.166
  0
LINE
  8
Layer2
  6
CONTINUOUS
 62
7
 10
618.619
 20
400.361
 11
617.321
 21
399.225
  0
ARC
  8
Layer2
  6
CONTINUOUS
 62
7
 10
616.891
 20
399.716
 40
0.652073
 50
136.332
 51
311.186
  0
LINE
  8
Layer2
  6
CONTINUOUS
 62
7
 10
619.822
 20
400.361
 11
619.822
 21
397.515
  0
LINE
  8
Layer2
  6
CONTINUOUS
 62
7
 10
625.207
 20
400.361
 11
625.207
 21
397.515
  0
LINE
  8
Layer2
  6
CONTINUOUS
 62
7
 10
620.556
 20
387.765
 11
624.554
 21
387.765
  0
LINE
  8
Layer2
  6
CONTINUOUS
 62
7
 10
619.822
 20
388.265
 11
625.289
 21
388.265
  0
LINE
  8
Layer2
  6
CONTINUOUS
 62
7
 10
624.554
 20
393.615
 11
624.554
 21
387.765
  0
LINE
  8
Layer2
  6
CONTINUOUS
 62
7
 10
620.556
 20
393.615
 11
620.556
 21
387.765
  0
LINE
  8
Layer2
  6
CONTINUOUS
 62
7
 10
620.556
 20
393.615
 11
624.554
 21
393.615
  0
LINE
  8
Layer2
  6
CONTINUOUS
 62
7
 10
625.289
 20
394.115
 11
624.554
 21
393.615
  0
LINE
  8
Layer2
  6
CONTINUOUS
 62
7
 10
620.556
 20
393.615
 11
619.822
 21
394.115
  0
LINE
  8
Layer2
  6
CONTINUOUS
 62
7
 10
620.556
 20
387.765
 11
619.822
 21
388.265
  0
LINE
  8
Layer2
  6
CONTINUOUS
 62
7
 10
624.554
 20
387.765
 11
625.289
 21
388.265
  0
LINE
  8
Layer2
  6
CONTINUOUS
 62
7
 10
619.822
 20
388.265
 11
619.822
 21
394.115
  0
LINE
  8
Layer2
  6
CONTINUOUS
 62
7
 10
625.289
 20
388.265
 11
625.289
 21
394.115
  0
LINE
  8
Layer2
  6
CONTINUOUS
 62
7
 10
627.212
 20
394.115
 11
627.212
 21
396.927
  0
LINE
  8
Layer2
  6
CONTINUOUS
 62
7
 10
627.212
 20
396.927
 11
626.193
 21
397.515
  0
LINE
  8
Layer2
  6
CONTINUOUS
 62
7
 10
626.193
 20
397.515
 11
618.993
 21
397.515
  0
LINE
  8
Layer2
  6
CONTINUOUS
 62
7
 10
618.993
 20
397.515
 11
617.974
 21
396.927
  0
LINE
  8
Layer2
  6
CONTINUOUS
 62
7
 10
617.974
 20
396.927
 11
617.974
 21
394.115
  0
LINE
  8
Layer2
  6
CONTINUOUS
 62
7
 10
624.902
 20
394.115
 11
624.902
 21
396.927
  0
LINE
  8
Layer2
  6
CONTINUOUS
 62
7
 10
620.284
 20
394.115
 11
620.284
 21
396.927
  0
ARC
  8
Layer2
  6
CONTINUOUS
 62
7
 10
622.593
 20
389.641
 40
7.643
 50
72.412
 51
107.588
  0
ARC
  8
Layer2
  6
CONTINUOUS
 62
7
 10
626.057
 20
395.239
 40
2.045
 50
55.616
 51
124.384
  0
ARC
  8
Layer2
  6
CONTINUOUS
 62
7
 10
619.129
 20
395.239
 40
2.045
 50
55.616
 51
124.384
  0
CIRCLE
  8
Layer2
  6
CONTINUOUS
 62
7
 10
626.892
 20
400.349
 40
0.497482
  0
LINE
  8
Layer2
  6
CONTINUOUS
 62
7
 10
528.064
 20
332.115
 11
480.064
 21
332.115
  0
LINE
  8
Layer2
  6
CONTINUOUS
 62
7
 10
479.064
 20
376.115
 11
479.064
 21
393.115
  0
LINE
  8
Layer2
  6
CONTINUOUS
 62
7
 10
480.064
 20
394.115
 11
528.064
 21
394.115
  0
LINE
  8
Layer2
  6
CONTINUOUS
 62
7
 10
529.064
 20
376.115
 11
529.064
 21
393.115
  0
LINE
  8
Layer2
  6
CONTINUOUS
 62
7
 10
528.064
 20
375.115
 11
480.064
 21
375.115
  0
LINE
  8
Layer2
  6
CONTINUOUS
 62
7
 10
514.064
 20
350.115
 11
494.064
 21
350.115
  0
LINE
  8
Layer2
  6
CONTINUOUS
 62
7
 10
480.064
 20
375.115
 11
479.064
 21
374.115
  0
LINE
  8
Layer2
  6
CONTINUOUS
 62
7
 10
480.064
 20
332.115
 11
479.064
 21
333.115
  0
LINE
  8
Layer2
  6
CONTINUOUS
 62
7
 10
528.064
 20
332.115
 11
529.064
 21
333.115
  0
LINE
  8
Layer2
  6
CONTINUOUS
 62
7
 10
529.064
 20
374.115
 11
528.064
 21
375.115
  0
LINE
  8
Layer2
  6
CONTINUOUS
 62
7
 10
529.064
 20
393.115
 11
528.064
 21
394.115
  0
LINE
  8
Layer2
  6
CONTINUOUS
 62
7
 10
480.064
 20
394.115
 11
479.064
 21
393.115
  0
LINE
  8
Layer2
  6
CONTINUOUS
 62
7
 10
479.064
 20
374.115
 11
479.064
 21
333.115
  0
LINE
  8
Layer2
  6
CONTINUOUS
 62
7
 10
529.064
 20
374.115
 11
529.064
 21
333.115
  0
LINE
  8
Layer2
  6
CONTINUOUS
 62
7
 10
479.064
 20
376.115
 11
480.064
 21
375.115
  0
LINE
  8
Layer2
  6
CONTINUOUS
 62
7
 10
528.064
 20
375.115
 11
529.064
 21
376.115
  0
LINE
  8
Layer2
  6
CENTER1
 62
7
 10
504.064
 20
328.142
 11
504.064
 21
409.386
  0
LINE
  8
Layer2
  6
CONTINUOUS
 62
7
 10
515.064
 20
374.115
 11
515.064
 21
351.115
  0
LINE
  8
Layer2
  6
CONTINUOUS
 62
7
 10
493.064
 20
374.115
 11
493.064
 21
351.115
  0
LINE
  8
Layer2
  6
CONTINUOUS
 62
7
 10
493.064
 20
351.115
 11
494.064
 21
350.115
  0
LINE
  8
Layer2
  6
CONTINUOUS
 62
7
 10
514.064
 20
350.115
 11
515.064
 21
351.115
  0
LINE
  8
Layer2
  6
CONTINUOUS
 62
7
 10
514.064
 20
375.115
 11
494.064
 21
375.115
  0
LINE
  8
Layer2
  6
CONTINUOUS
 62
7
 10
494.064
 20
375.115
 11
493.064
 21
374.115
  0
LINE
  8
Layer2
  6
CONTINUOUS
 62
7
 10
514.064
 20
375.115
 11
515.064
 21
374.115
  0
LINE
  8
Layer2
  6
CENTER1
 62
7
 10
522.064
 20
326.539
 11
522.064
 21
401.818
  0
LINE
  8
Layer2
  6
CENTER1
 62
7
 10
486.064
 20
326.539
 11
486.064
 21
401.818
  0
LINE
  8
Layer2
  6
CONTINUOUS
 62
7
 10
514.564
 20
421.415
 11
493.564
 21
421.415
  0
LINE
  8
Layer2
  6
CONTINUOUS
 62
7
 10
515.564
 20
420.415
 11
515.564
 21
394.115
  0
LINE
  8
Layer2
  6
CONTINUOUS
 62
7
 10
492.564
 20
420.415
 11
492.564
 21
394.115
  0
LINE
  8
Layer2
  6
CONTINUOUS
 62
7
 10
493.564
 20
421.415
 11
492.564
 21
420.415
  0
LINE
  8
Layer2
  6
CONTINUOUS
 62
7
 10
514.564
 20
421.415
 11
515.564
 21
420.415
  0
LINE
  8
Layer2
  6
CENTER1
 62
7
 10
518.564
 20
362.615
 11
489.564
 21
362.615
  0
LINE
  8
Layer2
  6
CENTER1
 62
7
 10
494.049
 20
370.615
 11
501.08
 21
370.615
  0
LINE
  8
Layer2
  6
CENTER1
 62
7
 10
493.064
 20
354.615
 11
502.213
 21
354.615
  0
LINE
  8
Layer2
  6
CENTER1
 62
7
 10
497.564
 20
348.522
 11
497.564
 21
358.948
  0
CIRCLE
  8
Layer2
  6
CONTINUOUS
 62
7
 10
510.564
 20
354.615
 40
1.25
  0
CIRCLE
  8
Layer2
  6
CONTINUOUS
 62
7
 10
497.564
 20
370.615
 40
1.25
  0
CIRCLE
  8
Layer2
  6
CONTINUOUS
 62
7
 10
510.564
 20
370.615
 40
3.5
  0
POLYLINE
  8
Layer2
  6
CONTINUOUS
 62
7
 66
1
 10
0
 20
0
 30
0
 70
1
  0
VERTEX
  8
Layer2
 10
512.054
 20
371.475
  0
VERTEX
  8
Layer2
 10
510.564
 20
372.335
  0
VERTEX
  8
Layer2
 10
509.075
 20
371.475
  0
VERTEX
  8
Layer2
 10
509.075
 20
369.755
  0
VERTEX
  8
Layer2
 10
510.564
 20
368.895
  0
VERTEX
  8
Layer2
 10
512.054
 20
369.755
  0
SEQEND
  0
CIRCLE
  8
Layer2
  6
CONTINUOUS
 62
7
 10
510.564
 20
370.615
 40
1.72
  0
CIRCLE
  8
Layer2
  6
CONTINUOUS
 62
7
 10
497.564
 20
354.615
 40
3.5
  0
POLYLINE
  8
Layer2
  6
CONTINUOUS
 62
7
 66
1
 10
0
 20
0
 30
0
 70
1
  0
VERTEX
  8
Layer2
 10
499.054
 20
355.475
  0
VERTEX
  8
Layer2
 10
497.564
 20
356.335
  0
VERTEX
  8
Layer2
 10
496.075
 20
355.475
  0
VERTEX
  8
Layer2
 10
496.075
 20
353.755
  0
VERTEX
  8
Layer2
 10
497.564
 20
352.895
  0
VERTEX
  8
Layer2
 10
499.054
 20
353.755
  0
SEQEND
  0
CIRCLE
  8
Layer2
  6
CONTINUOUS
 62
7
 10
497.564
 20
354.615
 40
1.72
  0
LINE
  8
Layer2
  6
CENTER1
 62
7
 10
497.564
 20
366.571
 11
497.564
 21
374.136
  0
LINE
  8
Layer2
  6
CENTER1
 62
7
 10
506.344
 20
370.615
 11
516.007
 21
370.615
  0
LINE
  8
Layer2
  6
CENTER1
 62
7
 10
510.564
 20
365.612
 11
510.564
 21
375.874
  0
LINE
  8
Layer2
  6
CENTER1
 62
7
 10
507.153
 20
354.615
 11
514.318
 21
354.615
  0
LINE
  8
Layer2
  6
CENTER1
 62
7
 10
510.564
 20
351.481
 11
510.564
 21
358.646
  0
LINE
  8
Layer2
  6
CONTINUOUS
 62
7
 10
665.593
 20
332.115
 11
601.593
 21
332.115
  0
LINE
  8
Layer2
  6
CONTINUOUS
 62
7
 10
666.593
 20
420.415
 11
666.593
 21
371.415
  0
LINE
  8
Layer2
  6
CONTINUOUS
 62
7
 10
665.593
 20
421.415
 11
643.093
 21
421.415
  0
LINE
  8
Layer2
  6
CONTINUOUS
 62
7
 10
641.093
 20
394.115
 11
601.593
 21
394.115
  0
LINE
  8
Layer2
  6
CONTINUOUS
 62
7
 10
598.593
 20
375.115
 11
583.593
 21
375.115
  0
LINE
  8
Layer2
  6
CONTINUOUS
 62
7
 10
598.593
 20
350.115
 11
583.593
 21
350.115
  0
LINE
  8
Layer2
  6
CONTINUOUS
 62
7
 10
674.593
 20
392.115
 11
674.593
 21
344.115
  0
LINE
  8
Layer2
  6
CONTINUOUS
 62
7
 10
600.593
 20
376.115
 11
600.593
 21
393.115
  0
LINE
  8
Layer2
  6
CONTINUOUS
 62
7
 10
599.593
 20
351.115
 11
599.593
 21
374.115
  0
LINE
  8
Layer2
  6
CONTINUOUS
 62
7
 10
582.593
 20
351.115
 11
582.593
 21
374.115
  0
LINE
  8
Layer2
  6
CONTINUOUS
 62
7
 10
642.093
 20
420.415
 11
642.093
 21
389.271
  0
LINE
  8
Layer2
  6
CONTINUOUS
 62
7
 10
665.593
 20
350.115
 11
600.593
 21
350.115
  0
LINE
  8
Layer2
  6
CONTINUOUS
 62
7
 10
600.593
 20
375.115
 11
654.007
 21
375.115
  0
LINE
  8
Layer2
  6
CONTINUOUS
 62
7
 10
583.593
 20
375.115
 11
582.593
 21
374.115
  0
LINE
  8
Layer2
  6
CONTINUOUS
 62
7
 10
583.593
 20
350.115
 11
582.593
 21
351.115
  0
LINE
  8
Layer2
  6
CONTINUOUS
 62
7
 10
598.593
 20
375.115
 11
599.593
 21
374.115
  0
LINE
  8
Layer2
  6
CONTINUOUS
 62
7
 10
599.593
 20
351.115
 11
598.593
 21
350.115
  0
LINE
  8
Layer2
  6
CONTINUOUS
 62
7
 10
599.593
 20
374.115
 11
600.593
 21
375.115
  0
LINE
  8
Layer2
  6
CONTINUOUS
 62
7
 10
599.593
 20
351.115
 11
600.593
 21
350.115
  0
LINE
  8
Layer2
  6
CONTINUOUS
 62
7
 10
600.593
 20
393.115
 11
601.593
 21
394.115
  0
LINE
  8
Layer2
  6
CONTINUOUS
 62
7
 10
600.593
 20
333.115
 11
601.593
 21
332.115
  0
LINE
  8
Layer2
  6
CONTINUOUS
 62
7
 10
665.593
 20
332.115
 11
666.593
 21
333.115
  0
LINE
  8
Layer2
  6
CONTINUOUS
 62
7
 10
642.093
 20
420.415
 11
643.093
 21
421.415
  0
LINE
  8
Layer2
  6
DASHED1
 62
7
 10
665.593
 20
421.415
 11
666.593
 21
420.415
  0
LINE
  8
Layer2
  6
CONTINUOUS
 62
7
 10
673.593
 20
343.115
 11
667.593
 21
343.115
  0
LINE
  8
Layer2
  6
CENTER1
 62
7
 10
677.525
 20
354.115
 11
660.996
 21
354.115
  0
LINE
  8
Layer2
  6
CONTINUOUS
 62
7
 10
659.593
 20
368.415
 11
663.593
 21
368.415
  0
LINE
  8
Layer2
  6
CONTINUOUS
 62
7
 10
666.593
 20
360.073
 11
642.093
 21
389.271
  0
LINE
  8
Layer2
  6
CONTINUOUS
 62
7
 10
642.093
 20
376.115
 11
642.093
 21
393.115
  0
LINE
  8
Layer2
  6
CONTINUOUS
 62
7
 10
642.093
 20
393.115
 11
641.093
 21
394.115
  0
LINE
  8
Layer2
  6
CONTINUOUS
 62
7
 10
641.093
 20
375.115
 11
642.093
 21
376.115
  0
LINE
  8
Layer2
  6
CONTINUOUS
 62
7
 10
601.593
 20
375.115
 11
600.593
 21
376.115
  0
LINE
  8
Layer2
  6
CONTINUOUS
 62
7
 10
600.593
 20
374.115
 11
600.593
 21
333.115
  0
LINE
  8
Layer2
  6
CONTINUOUS
 62
7
 10
600.593
 20
374.115
 11
601.593
 21
375.115
  0
LINE
  8
Layer2
  6
CONTINUOUS
 62
7
 10
666.593
 20
371.415
 11
666.593
 21
333.115
  0
ARC
  8
Layer2
  6
CONTINUOUS
 62
7
 10
663.593
 20
371.415
 40
3
 50
270
 51
0
  0
LINE
  8
Layer2
  6
CONTINUOUS
 62
7
 10
666.593
 20
392.115
 11
666.593
 21
344.115
  0
LINE
  8
Layer2
  6
CONTINUOUS
 62
7
 10
666.593
 20
344.115
 11
667.593
 21
343.115
  0
LINE
  8
Layer2
  6
CONTINUOUS
 62
7
 10
673.593
 20
343.115
 11
674.593
 21
344.115
  0
LINE
  8
Layer2
  6
CONTINUOUS
 62
7
 10
666.593
 20
351.115
 11
666.593
 21
362.014
  0
LINE
  8
Layer2
  6
CONTINUOUS
 62
7
 10
666.593
 20
351.115
 11
665.593
 21
350.115
  0
LINE
  8
Layer2
  6
CONTINUOUS
 62
7
 10
660.729
 20
350.115
 11
666.593
 21
350.115
  0
LINE
  8
Layer2
  6
CENTER1
 62
7
 10
607.593
 20
321.764
 11
607.593
 21
402.263
  0
LINE
  8
Layer2
  6
CENTER1
 62
7
 10
639.593
 20
400.664
 11
639.593
 21
322.831
  0
LINE
  8
Layer2
  6
CONTINUOUS
 62
7
 10
582.593
 20
478.036
 11
582.593
 21
498.036
  0
LINE
  8
Layer2
  6
CONTINUOUS
 62
7
 10
600.593
 20
464.036
 11
600.593
 21
512.036
  0
LINE
  8
Layer2
  6
CONTINUOUS
 62
7
 10
642.093
 20
477.536
 11
642.093
 21
498.536
  0
LINE
  8
Layer2
  6
CONTINUOUS
 62
7
 10
666.593
 20
464.036
 11
666.593
 21
512.036
  0
LINE
  8
Layer2
  6
CONTINUOUS
 62
7
 10
674.593
 20
464.036
 11
674.593
 21
512.036
  0
LINE
  8
Layer2
  6
CONTINUOUS
 62
7
 10
601.593
 20
463.036
 11
665.593
 21
463.036
  0
LINE
  8
Layer2
  6
CONTINUOUS
 62
7
 10
665.593
 20
513.036
 11
601.593
 21
513.036
  0
LINE
  8
Layer2
  6
CONTINUOUS
 62
7
 10
600.593
 20
512.036
 11
601.593
 21
513.036
  0
LINE
  8
Layer2
  6
CONTINUOUS
 62
7
 10
673.593
 20
513.036
 11
667.593
 21
513.036
  0
LINE
  8
Layer2
  6
CONTINUOUS
 62
7
 10
667.593
 20
463.036
 11
673.593
 21
463.036
  0
LINE
  8
Layer2
  6
CONTINUOUS
 62
7
 10
665.593
 20
513.036
 11
666.593
 21
512.036
  0
LINE
  8
Layer2
  6
CONTINUOUS
 62
7
 10
666.593
 20
464.036
 11
665.593
 21
463.036
  0
LINE
  8
Layer2
  6
CONTINUOUS
 62
7
 10
601.593
 20
463.036
 11
600.593
 21
464.036
  0
LINE
  8
Layer2
  6
CONTINUOUS
 62
7
 10
666.593
 20
512.036
 11
667.593
 21
513.036
  0
LINE
  8
Layer2
  6
CONTINUOUS
 62
7
 10
673.593
 20
513.036
 11
674.593
 21
512.036
  0
LINE
  8
Layer2
  6
CONTINUOUS
 62
7
 10
674.593
 20
464.036
 11
673.593
 21
463.036
  0
LINE
  8
Layer2
  6
CONTINUOUS
 62
7
 10
667.593
 20
463.036
 11
666.593
 21
464.036
  0
LINE
  8
Layer2
  6
CENTER1
 62
7
 10
682.355
 20
488.036
 11
579.464
 21
488.036
  0
LINE
  8
Layer2
  6
CONTINUOUS
 62
7
 10
598.593
 20
499.036
 11
583.593
 21
499.036
  0
LINE
  8
Layer2
  6
CONTINUOUS
 62
7
 10
598.593
 20
477.036
 11
583.593
 21
477.036
  0
LINE
  8
Layer2
  6
CONTINUOUS
 62
7
 10
599.593
 20
498.036
 11
599.593
 21
478.036
  0
LINE
  8
Layer2
  6
CONTINUOUS
 62
7
 10
583.593
 20
499.036
 11
582.593
 21
498.036
  0
LINE
  8
Layer2
  6
CONTINUOUS
 62
7
 10
582.593
 20
478.036
 11
583.593
 21
477.036
  0
LINE
  8
Layer2
  6
DASHED1
 62
7
 10
600.593
 20
477.036
 11
666.593
 21
477.036
  0
LINE
  8
Layer2
  6
DASHED1
 62
7
 10
600.593
 20
499.036
 11
666.593
 21
499.036
  0
LINE
  8
Layer2
  6
CONTINUOUS
 62
7
 10
599.593
 20
498.036
 11
598.593
 21
499.036
  0
LINE
  8
Layer2
  6
CONTINUOUS
 62
7
 10
599.593
 20
478.036
 11
598.593
 21
477.036
  0
LINE
  8
Layer2
  6
CONTINUOUS
 62
7
 10
599.593
 20
478.036
 11
600.593
 21
477.036
  0
LINE
  8
Layer2
  6
CONTINUOUS
 62
7
 10
599.593
 20
498.036
 11
600.593
 21
499.036
  0
LINE
  8
Layer2
  6
CONTINUOUS
 62
7
 10
643.093
 20
499.536
 11
666.593
 21
499.536
  0
LINE
  8
Layer2
  6
CONTINUOUS
 62
7
 10
643.093
 20
476.536
 11
666.593
 21
476.536
  0
LINE
  8
Layer2
  6
CONTINUOUS
 62
7
 10
642.093
 20
498.536
 11
643.093
 21
499.536
  0
LINE
  8
Layer2
  6
CONTINUOUS
 62
7
 10
642.093
 20
477.536
 11
643.093
 21
476.536
  0
LINE
  8
Layer2
  6
CENTER1
 62
7
 10
654.393
 20
471.566
 11
654.393
 21
507.017
  0
LINE
  8
Layer2
  6
CENTER1
 62
7
 10
607.593
 20
512.036
 11
607.593
 21
496.301
  0
LINE
  8
Layer2
  6
CENTER1
 62
7
 10
607.593
 20
479.492
 11
607.593
 21
461.3
  0
LINE
  8
Layer2
  6
CENTER1
 62
7
 10
639.593
 20
496.301
 11
639.593
 21
516.273
  0
CIRCLE
  8
Layer2
  6
CONTINUOUS
 62
7
 10
654.393
 20
488.036
 40
4.5
  0
LINE
  8
Layer2
  6
CENTER1
 62
7
 10
597.016
 20
506.036
 11
681.787
 21
506.036
  0
LINE
  8
Layer2
  6
CENTER1
 62
7
 10
598.796
 20
470.036
 11
681.849
 21
470.036
  0
CIRCLE
  8
Layer2
  6
CONTINUOUS
 62
7
 10
607.593
 20
506.036
 40
3.5
  0
CIRCLE
  8
Layer2
  6
CONTINUOUS
 62
7
 10
639.593
 20
506.036
 40
3.5
  0
CIRCLE
  8
Layer2
  6
CONTINUOUS
 62
7
 10
639.593
 20
470.036
 40
3.5
  0
CIRCLE
  8
Layer2
  6
CONTINUOUS
 62
7
 10
639.593
 20
470.036
 40
5
  0
CIRCLE
  8
Layer2
  6
CONTINUOUS
 62
7
 10
607.593
 20
470.036
 40
3.5
  0
CIRCLE
  8
Layer2
  6
CONTINUOUS
 62
7
 10
607.593
 20
506.036
 40
5
  0
CIRCLE
  8
Layer2
  6
CONTINUOUS
 62
7
 10
607.593
 20
470.036
 40
5
  0
CIRCLE
  8
Layer2
  6
CONTINUOUS
 62
7
 10
639.593
 20
506.036
 40
5
  0
CIRCLE
  8
Layer2
  6
CONTINUOUS
 62
7
 10
618.593
 20
506.036
 40
4.25
  0
POLYLINE
  8
Layer2
  6
CONTINUOUS
 62
7
 66
1
 10
0
 20
0
 30
0
 70
1
  0
VERTEX
  8
Layer2
 10
618.593
 20
508.326
  0
VERTEX
  8
Layer2
 10
616.61
 20
507.181
  0
VERTEX
  8
Layer2
 10
616.61
 20
504.891
  0
VERTEX
  8
Layer2
 10
618.593
 20
503.746
  0
VERTEX
  8
Layer2
 10
620.576
 20
504.891
  0
VERTEX
  8
Layer2
 10
620.576
 20
507.181
  0
SEQEND
  0
CIRCLE
  8
Layer2
  6
CONTINUOUS
 62
7
 10
618.593
 20
506.036
 40
2.29
  0
CIRCLE
  8
Layer2
  6
CONTINUOUS
 62
7
 10
618.593
 20
470.036
 40
4.25
  0
POLYLINE
  8
Layer2
  6
CONTINUOUS
 62
7
 66
1
 10
0
 20
0
 30
0
 70
1
  0
VERTEX
  8
Layer2
 10
618.593
 20
472.326
  0
VERTEX
  8
Layer2
 10
616.61
 20
471.181
  0
VERTEX
  8
Layer2
 10
616.61
 20
468.891
  0
VERTEX
  8
Layer2
 10
618.593
 20
467.746
  0
VERTEX
  8
Layer2
 10
620.576
 20
468.891
  0
VERTEX
  8
Layer2
 10
620.576
 20
471.181
  0
SEQEND
  0
CIRCLE
  8
Layer2
  6
CONTINUOUS
 62
7
 10
618.593
 20
470.036
 40
2.29
  0
CIRCLE
  8
Layer2
  6
CONTINUOUS
 62
7
 10
628.593
 20
470.036
 40
3.5
  0
CIRCLE
  8
Layer2
  6
CONTINUOUS
 62
7
 10
628.593
 20
506.036
 40
3.5
  0
CIRCLE
  8
Layer2
  6
CONTINUOUS
 62
7
 10
628.593
 20
506.036
 40
1.25
  0
CIRCLE
  8
Layer2
  6
CONTINUOUS
 62
7
 10
628.593
 20
470.036
 40
1.25
  0
LINE
  8
Layer2
  6
CENTER1
 62
7
 10
628.593
 20
515.878
 11
628.593
 21
496.301
  0
LINE
  8
Layer2
  6
CENTER1
 62
7
 10
639.593
 20
461.3
 11
639.593
 21
479.492
  0
LINE
  8
Layer2
  6
CENTER1
 62
7
 10
618.593
 20
512.952
 11
618.593
 21
499.036
  0
LINE
  8
Layer2
  6
CENTER1
 62
7
 10
628.593
 20
479.492
 11
628.593
 21
461.3
  0
LINE
  8
Layer2
  6
CENTER1
 62
7
 10
618.593
 20
479.492
 11
618.593
 21
461.3
  0
LINE
  8
Layer2
  6
CONTINUOUS
 62
7
 10
674.593
 20
501.036
 11
680.193
 21
501.036
  0
LINE
  8
Layer2
  6
CONTINUOUS
 62
7
 10
674.593
 20
511.036
 11
680.193
 21
511.036
  0
LINE
  8
Layer2
  6
CONTINUOUS
 62
7
 10
680.193
 20
501.036
 11
680.193
 21
511.036
  0
LINE
  8
Layer2
  6
CONTINUOUS
 62
7
 10
680.593
 20
501.436
 11
680.593
 21
510.636
  0
LINE
  8
Layer2
  6
CONTINUOUS
 62
7
 10
680.193
 20
501.036
 11
680.593
 21
501.436
  0
LINE
  8
Layer2
  6
CONTINUOUS
 62
7
 10
680.193
 20
511.036
 11
680.593
 21
510.636
  0
LINE
  8
Layer2
  6
CONTINUOUS
 62
7
 10
674.593
 20
511.036
 11
674.593
 21
501.036
  0
LINE
  8
Layer2
  6
CONTINUOUS
 62
7
 10
679.633
 20
510.036
 11
675.153
 21
510.036
  0
LINE
  8
Layer2
  6
CONTINUOUS
 62
7
 10
679.073
 20
509.036
 11
675.713
 21
509.036
  0
LINE
  8
Layer2
  6
CONTINUOUS
 62
7
 10
678.513
 20
508.036
 11
676.273
 21
508.036
  0
LINE
  8
Layer2
  6
CONTINUOUS
 62
7
 10
674.593
 20
465.036
 11
680.193
 21
465.036
  0
LINE
  8
Layer2
  6
CONTINUOUS
 62
7
 10
674.593
 20
475.036
 11
680.193
 21
475.036
  0
LINE
  8
Layer2
  6
CONTINUOUS
 62
7
 10
680.193
 20
465.036
 11
680.193
 21
475.036
  0
LINE
  8
Layer2
  6
CONTINUOUS
 62
7
 10
680.593
 20
465.436
 11
680.593
 21
474.636
  0
LINE
  8
Layer2
  6
CONTINUOUS
 62
7
 10
680.193
 20
465.036
 11
680.593
 21
465.436
  0
LINE
  8
Layer2
  6
CONTINUOUS
 62
7
 10
680.193
 20
475.036
 11
680.593
 21
474.636
  0
LINE
  8
Layer2
  6
CONTINUOUS
 62
7
 10
674.593
 20
475.036
 11
674.593
 21
465.036
  0
LINE
  8
Layer2
  6
CONTINUOUS
 62
7
 10
679.633
 20
474.036
 11
675.153
 21
474.036
  0
LINE
  8
Layer2
  6
CONTINUOUS
 62
7
 10
679.073
 20
473.036
 11
675.713
 21
473.036
  0
LINE
  8
Layer2
  6
CONTINUOUS
 62
7
 10
678.513
 20
472.036
 11
676.273
 21
472.036
  0
LINE
  8
Layer2
  6
CONTINUOUS
 62
7
 10
674.593
 20
492.655
 11
678.005
 21
492.655
  0
LINE
  8
Layer2
  6
CENTER1
 62
7
 10
622.593
 20
401.252
 11
622.593
 21
367.58
  0
LINE
  8
Layer2
  6
CONTINUOUS
 62
7
 10
617.974
 20
394.115
 11
627.212
 21
394.115
  0
LINE
  8
Layer2
  6
CENTER1
 62
7
 10
622.593
 20
477.036
 11
622.593
 21
501.712
  0
LINE
  8
Layer2
  6
CONTINUOUS
 62
7
 10
662.593
 20
491.036
 11
666.593
 21
491.036
  0
LINE
  8
Layer2
  6
CONTINUOUS
 62
7
 10
662.593
 20
485.036
 11
666.593
 21
485.036
  0
LINE
  8
Layer2
  6
CONTINUOUS
 62
7
 10
662.593
 20
491.036
 11
662.593
 21
485.036
  0
LINE
  8
Layer2
  6
CONTINUOUS
 62
7
 10
678.005
 20
492.655
 11
678.593
 21
491.636
  0
LINE
  8
Layer2
  6
CONTINUOUS
 62
7
 10
678.593
 20
491.636
 11
678.593
 21
484.436
  0
LINE
  8
Layer2
  6
CONTINUOUS
 62
7
 10
678.593
 20
484.436
 11
678.005
 21
483.417
  0
LINE
  8
Layer2
  6
CONTINUOUS
 62
7
 10
678.005
 20
483.417
 11
674.593
 21
483.417
  0
LINE
  8
Layer2
  6
CONTINUOUS
 62
7
 10
674.593
 20
490.345
 11
678.005
 21
490.345
  0
LINE
  8
Layer2
  6
CONTINUOUS
 62
7
 10
674.593
 20
485.727
 11
678.005
 21
485.727
  0
LINE
  8
Layer2
  6
CONTINUOUS
 62
7
 10
666.593
 20
490.536
 11
663.493
 21
490.536
  0
ARC
  8
Layer2
  6
CONTINUOUS
 62
7
 10
670.719
 20
488.036
 40
7.643
 50
342.412
 51
17.588
  0
ARC
  8
Layer2
  6
CONTINUOUS
 62
7
 10
676.317
 20
491.5
 40
2.045
 50
325.616
 51
34.384
  0
ARC
  8
Layer2
  6
CONTINUOUS
 62
7
 10
676.317
 20
484.572
 40
2.045
 50
325.616
 51
34.384
  0
LINE
  8
Layer2
  6
CONTINUOUS
 62
7
 10
674.593
 20
492.655
 11
674.593
 21
483.417
  0
LINE
  8
Layer2
  6
CONTINUOUS
 62
7
 10
666.593
 20
485.536
 11
663.493
 21
485.536
  0
LINE
  8
Layer2
  6
CONTINUOUS
 62
7
 10
663.493
 20
490.536
 11
663.493
 21
485.536
  0
LINE
  8
Layer2
  6
CONTINUOUS
 62
7
 10
662.593
 20
489.636
 11
662.593
 21
486.436
  0
LINE
  8
Layer2
  6
CONTINUOUS
 62
7
 10
663.493
 20
490.536
 11
662.593
 21
489.636
  0
LINE
  8
Layer2
  6
CONTINUOUS
 62
7
 10
663.493
 20
485.536
 11
662.593
 21
486.436
  0
LINE
  8
Layer2
  6
CONTINUOUS
 62
7
 10
666.593
 20
490.136
 11
663.093
 21
490.136
  0
LINE
  8
Layer2
  6
CONTINUOUS
 62
7
 10
666.593
 20
485.936
 11
663.093
 21
485.936
  0
LINE
  8
Layer2
  6
CENTER1
 62
7
 10
579.464
 20
494.536
 11
603.118
 21
494.536
  0
LINE
  8
Layer2
  6
CENTER1
 62
7
 10
579.464
 20
481.536
 11
603.118
 21
481.536
  0
LINE
  8
Layer2
  6
DASHED1
 62
7
 10
662.593
 20
421.415
 11
662.593
 21
383.415
  0
LINE
  8
Layer2
  6
DASHED1
 62
7
 10
662.593
 20
383.415
 11
666.593
 21
383.415
  0
LINE
  8
Layer2
  6
CONTINUOUS
 62
7
 10
667.593
 20
393.115
 11
673.593
 21
393.115
  0
LINE
  8
Layer2
  6
CONTINUOUS
 62
7
 10
673.593
 20
393.115
 11
674.593
 21
392.115
  0
LINE
  8
Layer2
  6
CONTINUOUS
 62
7
 10
667.593
 20
393.115
 11
666.593
 21
392.115
  0
LINE
  8
Layer2
  6
CENTER1
 62
7
 10
664.471
 20
352.115
 11
681.872
 21
352.115
  0
LINE
  8
Layer2
  6
CENTER1
 62
7
 10
665.028
 20
369.115
 11
681.594
 21
369.115
  0
LINE
  8
Layer2
  6
CENTER1
 62
7
 10
663.976
 20
387.115
 11
677.42
 21
387.115
  0
LINE
  8
Layer2
  6
CONTINUOUS
 62
7
 10
674.593
 20
391.734
 11
678.005
 21
391.734
  0
LINE
  8
Layer2
  6
CONTINUOUS
 62
7
 10
678.005
 20
391.734
 11
678.593
 21
390.715
  0
LINE
  8
Layer2
  6
CONTINUOUS
 62
7
 10
678.593
 20
390.715
 11
678.593
 21
383.515
  0
LINE
  8
Layer2
  6
CONTINUOUS
 62
7
 10
678.593
 20
383.515
 11
678.005
 21
382.496
  0
LINE
  8
Layer2
  6
CONTINUOUS
 62
7
 10
678.005
 20
382.496
 11
674.593
 21
382.496
  0
LINE
  8
Layer2
  6
CONTINUOUS
 62
7
 10
674.593
 20
389.424
 11
678.005
 21
389.424
  0
LINE
  8
Layer2
  6
CONTINUOUS
 62
7
 10
674.593
 20
384.806
 11
678.005
 21
384.806
  0
ARC
  8
Layer2
  6
CONTINUOUS
 62
7
 10
670.719
 20
387.115
 40
7.643
 50
342.412
 51
17.588
  0
ARC
  8
Layer2
  6
CONTINUOUS
 62
7
 10
676.317
 20
390.579
 40
2.045
 50
325.616
 51
34.384
  0
ARC
  8
Layer2
  6
CONTINUOUS
 62
7
 10
676.317
 20
383.651
 40
2.045
 50
325.616
 51
34.384
  0
LINE
  8
Layer2
  6
CONTINUOUS
 62
7
 10
674.593
 20
391.734
 11
674.593
 21
382.496
  0
LINE
  8
Layer2
  6
CONTINUOUS
 62
7
 10
674.593
 20
347.115
 11
680.193
 21
347.115
  0
LINE
  8
Layer2
  6
CONTINUOUS
 62
7
 10
674.593
 20
357.115
 11
680.193
 21
357.115
  0
LINE
  8
Layer2
  6
CONTINUOUS
 62
7
 10
680.193
 20
347.115
 11
680.193
 21
357.115
  0
LINE
  8
Layer2
  6
CONTINUOUS
 62
7
 10
680.593
 20
347.515
 11
680.593
 21
356.715
  0
LINE
  8
Layer2
  6
CONTINUOUS
 62
7
 10
680.193
 20
347.115
 11
680.593
 21
347.515
  0
LINE
  8
Layer2
  6
CONTINUOUS
 62
7
 10
680.193
 20
357.115
 11
680.593
 21
356.715
  0
LINE
  8
Layer2
  6
CONTINUOUS
 62
7
 10
674.593
 20
357.115
 11
674.593
 21
347.115
  0
LINE
  8
Layer2
  6
CONTINUOUS
 62
7
 10
679.633
 20
356.115
 11
675.153
 21
356.115
  0
LINE
  8
Layer2
  6
CONTINUOUS
 62
7
 10
679.073
 20
355.115
 11
675.713
 21
355.115
  0
LINE
  8
Layer2
  6
CONTINUOUS
 62
7
 10
678.513
 20
354.115
 11
676.273
 21
354.115
  0
LINE
  8
Layer2
  6
CONTINUOUS
 62
7
 10
674.593
 20
364.115
 11
680.193
 21
364.115
  0
LINE
  8
Layer2
  6
CONTINUOUS
 62
7
 10
674.593
 20
374.115
 11
680.193
 21
374.115
  0
LINE
  8
Layer2
  6
CONTINUOUS
 62
7
 10
680.193
 20
364.115
 11
680.193
 21
374.115
  0
LINE
  8
Layer2
  6
CONTINUOUS
 62
7
 10
680.593
 20
364.515
 11
680.593
 21
373.715
  0
LINE
  8
Layer2
  6
CONTINUOUS
 62
7
 10
680.193
 20
364.115
 11
680.593
 21
364.515
  0
LINE
  8
Layer2
  6
CONTINUOUS
 62
7
 10
680.193
 20
374.115
 11
680.593
 21
373.715
  0
LINE
  8
Layer2
  6
CONTINUOUS
 62
7
 10
674.593
 20
374.115
 11
674.593
 21
364.115
  0
LINE
  8
Layer2
  6
CONTINUOUS
 62
7
 10
679.633
 20
373.115
 11
675.153
 21
373.115
  0
LINE
  8
Layer2
  6
CONTINUOUS
 62
7
 10
679.073
 20
372.115
 11
675.713
 21
372.115
  0
LINE
  8
Layer2
  6
CONTINUOUS
 62
7
 10
678.513
 20
371.115
 11
676.273
 21
371.115
  0
LINE
  8
Layer2
  6
CENTER1
 62
7
 10
576.403
 20
370.615
 11
603.397
 21
370.615
  0
LINE
  8
Layer2
  6
CENTER1
 62
7
 10
576.403
 20
354.615
 11
603.118
 21
354.615
  0
LINE
  8
Layer2
  6
CENTER1
 62
7
 10
661.593
 20
358.953
 11
661.593
 21
340.586
  0
LINE
  8
Layer2
  6
CONTINUOUS
 62
7
 10
656.593
 20
348.115
 11
666.593
 21
348.115
  0
LINE
  8
Layer2
  6
CONTINUOUS
 62
7
 10
654.593
 20
350.115
 11
654.593
 21
334.115
  0
LINE
  8
Layer2
  6
CONTINUOUS
 62
7
 10
656.593
 20
334.115
 11
656.593
 21
348.115
  0
LINE
  8
Layer2
  6
CONTINUOUS
 62
7
 10
654.593
 20
334.115
 11
656.593
 21
334.115
  0
LINE
  8
Layer2
  6
CONTINUOUS
 62
7
 10
658.093
 20
348.115
 11
658.093
 21
344.415
  0
LINE
  8
Layer2
  6
CONTINUOUS
 62
7
 10
665.093
 20
348.115
 11
665.093
 21
344.415
  0
LINE
  8
Layer2
  6
CONTINUOUS
 62
7
 10
658.093
 20
344.415
 11
665.093
 21
344.415
  0
LINE
  8
Layer2
  6
CONTINUOUS
 62
7
 10
658.393
 20
344.115
 11
664.793
 21
344.115
  0
LINE
  8
Layer2
  6
CONTINUOUS
 62
7
 10
658.093
 20
344.415
 11
658.393
 21
344.115
  0
LINE
  8
Layer2
  6
CONTINUOUS
 62
7
 10
665.093
 20
344.415
 11
664.793
 21
344.115
  0
LINE
  8
Layer2
  6
CONTINUOUS
 62
7
 10
665.093
 20
348.115
 11
658.093
 21
348.115
  0
LINE
  8
Layer2
  6
CONTINUOUS
 62
7
 10
664.093
 20
344.944
 11
664.093
 21
347.586
  0
LINE
  8
Layer2
  6
CONTINUOUS
 62
7
 10
663.093
 20
345.472
 11
663.093
 21
347.058
  0
LINE
  8
Layer2
  6
DASHED1
 62
7
 10
654.641
 20
335.807
 11
654.641
 21
338.524
  0
LINE
  8
Layer2
  6
DASHED1
 62
7
 10
604.162
 20
347.218
 11
604.162
 21
335.212
  0
LINE
  8
Layer2
  6
DASHED1
 62
7
 10
654.641
 20
346.675
 11
654.641
 21
341.241
  0
LINE
  8
Layer2
  6
DASHED1
 62
7
 10
654.593
 20
335.212
 11
654.593
 21
338.213
  0
LINE
  8
Layer2
  6
DASHED1
 62
7
 10
606.444
 20
335.212
 11
608.154
 21
335.212
  0
LINE
  8
Layer2
  6
DASHED1
 62
7
 10
627.527
 20
347.218
 11
625.818
 21
347.218
  0
LINE
  8
Layer2
  6
DASHED1
 62
7
 10
624.108
 20
347.218
 11
622.399
 21
347.218
  0
LINE
  8
Layer2
  6
DASHED1
 62
7
 10
620.69
 20
347.218
 11
618.98
 21
347.218
  0
LINE
  8
Layer2
  6
DASHED1
 62
7
 10
617.271
 20
347.218
 11
615.561
 21
347.218
  0
LINE
  8
Layer2
  6
DASHED1
 62
7
 10
607.014
 20
347.218
 11
605.305
 21
347.218
  0
LINE
  8
Layer2
  6
DASHED1
 62
7
 10
654.593
 20
347.218
 11
654.593
 21
335.212
  0
LINE
  8
Layer2
  6
DASHED1
 62
7
 10
605.305
 20
344.221
 11
607.014
 21
344.221
  0
LINE
  8
Layer2
  6
DASHED1
 62
7
 10
606.444
 20
338.225
 11
608.154
 21
338.225
  0
LINE
  8
Layer2
  6
DASHED1
 62
7
 10
607.014
 20
347.218
 11
607.014
 21
344.221
  0
LINE
  8
Layer2
  6
DASHED1
 62
7
 10
605.305
 20
347.218
 11
605.305
 21
344.221
  0
LINE
  8
Layer2
  6
DASHED1
 62
7
 10
606.444
 20
338.225
 11
606.444
 21
335.212
  0
LINE
  8
Layer2
  6
DASHED1
 62
7
 10
608.154
 20
338.225
 11
608.154
 21
335.212
  0
LINE
  8
Layer2
  6
DASHED1
 62
7
 10
605.305
 20
344.221
 11
606.444
 21
338.225
  0
LINE
  8
Layer2
  6
DASHED1
 62
7
 10
607.014
 20
344.221
 11
608.154
 21
338.225
  0
LINE
  8
Layer2
  6
DASHED1
 62
7
 10
605.874
 20
341.223
 11
606.444
 21
335.212
  0
LINE
  8
Layer2
  6
DASHED1
 62
7
 10
607.157
 20
347.218
 11
607.584
 21
341.223
  0
LINE
  8
Layer2
  6
DASHED1
 62
7
 10
609.863
 20
335.212
 11
611.573
 21
335.212
  0
LINE
  8
Layer2
  6
DASHED1
 62
7
 10
610.433
 20
347.218
 11
608.724
 21
347.218
  0
LINE
  8
Layer2
  6
DASHED1
 62
7
 10
608.724
 20
344.221
 11
610.433
 21
344.221
  0
LINE
  8
Layer2
  6
DASHED1
 62
7
 10
609.863
 20
338.225
 11
611.573
 21
338.225
  0
LINE
  8
Layer2
  6
DASHED1
 62
7
 10
610.433
 20
347.218
 11
610.433
 21
344.221
  0
LINE
  8
Layer2
  6
DASHED1
 62
7
 10
608.724
 20
347.218
 11
608.724
 21
344.221
  0
LINE
  8
Layer2
  6
DASHED1
 62
7
 10
609.863
 20
338.225
 11
609.863
 21
335.212
  0
LINE
  8
Layer2
  6
DASHED1
 62
7
 10
611.573
 20
338.225
 11
611.573
 21
335.212
  0
LINE
  8
Layer2
  6
DASHED1
 62
7
 10
608.724
 20
344.221
 11
609.863
 21
338.225
  0
LINE
  8
Layer2
  6
DASHED1
 62
7
 10
610.433
 20
344.221
 11
611.573
 21
338.225
  0
LINE
  8
Layer2
  6
DASHED1
 62
7
 10
609.293
 20
341.223
 11
609.863
 21
335.212
  0
LINE
  8
Layer2
  6
DASHED1
 62
7
 10
610.575
 20
347.218
 11
611.003
 21
341.223
  0
LINE
  8
Layer2
  6
DASHED1
 62
7
 10
613.282
 20
335.212
 11
614.991
 21
335.212
  0
LINE
  8
Layer2
  6
DASHED1
 62
7
 10
613.852
 20
347.218
 11
612.142
 21
347.218
  0
LINE
  8
Layer2
  6
DASHED1
 62
7
 10
612.142
 20
344.221
 11
613.852
 21
344.221
  0
LINE
  8
Layer2
  6
DASHED1
 62
7
 10
613.282
 20
338.225
 11
614.991
 21
338.225
  0
LINE
  8
Layer2
  6
DASHED1
 62
7
 10
613.852
 20
347.218
 11
613.852
 21
344.221
  0
LINE
  8
Layer2
  6
DASHED1
 62
7
 10
612.142
 20
347.218
 11
612.142
 21
344.221
  0
LINE
  8
Layer2
  6
DASHED1
 62
7
 10
613.282
 20
338.225
 11
613.282
 21
335.212
  0
LINE
  8
Layer2
  6
DASHED1
 62
7
 10
614.991
 20
338.225
 11
614.991
 21
335.212
  0
LINE
  8
Layer2
  6
DASHED1
 62
7
 10
612.142
 20
344.221
 11
613.282
 21
338.225
  0
LINE
  8
Layer2
  6
DASHED1
 62
7
 10
613.852
 20
344.221
 11
614.991
 21
338.225
  0
LINE
  8
Layer2
  6
DASHED1
 62
7
 10
612.712
 20
341.223
 11
613.282
 21
335.212
  0
LINE
  8
Layer2
  6
DASHED1
 62
7
 10
613.994
 20
347.218
 11
614.422
 21
341.223
  0
LINE
  8
Layer2
  6
DASHED1
 62
7
 10
616.701
 20
335.212
 11
618.41
 21
335.212
  0
LINE
  8
Layer2
  6
DASHED1
 62
7
 10
617.271
 20
347.218
 11
615.561
 21
347.218
  0
LINE
  8
Layer2
  6
DASHED1
 62
7
 10
615.561
 20
344.221
 11
617.271
 21
344.221
  0
LINE
  8
Layer2
  6
DASHED1
 62
7
 10
616.701
 20
338.225
 11
618.41
 21
338.225
  0
LINE
  8
Layer2
  6
DASHED1
 62
7
 10
617.271
 20
347.218
 11
617.271
 21
344.221
  0
LINE
  8
Layer2
  6
DASHED1
 62
7
 10
615.561
 20
347.218
 11
615.561
 21
344.221
  0
LINE
  8
Layer2
  6
DASHED1
 62
7
 10
616.701
 20
338.225
 11
616.701
 21
335.212
  0
LINE
  8
Layer2
  6
DASHED1
 62
7
 10
618.41
 20
338.225
 11
618.41
 21
335.212
  0
LINE
  8
Layer2
  6
DASHED1
 62
7
 10
615.561
 20
344.221
 11
616.701
 21
338.225
  0
LINE
  8
Layer2
  6
DASHED1
 62
7
 10
617.271
 20
344.221
 11
618.41
 21
338.225
  0
LINE
  8
Layer2
  6
DASHED1
 62
7
 10
616.131
 20
341.223
 11
616.701
 21
335.212
  0
LINE
  8
Layer2
  6
DASHED1
 62
7
 10
617.413
 20
347.218
 11
617.84
 21
341.223
  0
LINE
  8
Layer2
  6
DASHED1
 62
7
 10
620.12
 20
335.212
 11
621.829
 21
335.212
  0
LINE
  8
Layer2
  6
DASHED1
 62
7
 10
620.69
 20
347.218
 11
618.98
 21
347.218
  0
LINE
  8
Layer2
  6
DASHED1
 62
7
 10
618.98
 20
344.221
 11
620.69
 21
344.221
  0
LINE
  8
Layer2
  6
DASHED1
 62
7
 10
620.12
 20
338.225
 11
621.829
 21
338.225
  0
LINE
  8
Layer2
  6
DASHED1
 62
7
 10
620.69
 20
347.218
 11
620.69
 21
344.221
  0
LINE
  8
Layer2
  6
DASHED1
 62
7
 10
618.98
 20
347.218
 11
618.98
 21
344.221
  0
LINE
  8
Layer2
  6
DASHED1
 62
7
 10
620.12
 20
338.225
 11
620.12
 21
335.212
  0
LINE
  8
Layer2
  6
DASHED1
 62
7
 10
621.829
 20
338.225
 11
621.829
 21
335.212
  0
LINE
  8
Layer2
  6
DASHED1
 62
7
 10
618.98
 20
344.221
 11
620.12
 21
338.225
  0
LINE
  8
Layer2
  6
DASHED1
 62
7
 10
620.69
 20
344.221
 11
621.829
 21
338.225
  0
LINE
  8
Layer2
  6
DASHED1
 62
7
 10
619.55
 20
341.223
 11
620.12
 21
335.212
  0
LINE
  8
Layer2
  6
DASHED1
 62
7
 10
620.832
 20
347.218
 11
621.259
 21
341.223
  0
LINE
  8
Layer2
  6
DASHED1
 62
7
 10
623.539
 20
335.212
 11
625.248
 21
335.212
  0
LINE
  8
Layer2
  6
DASHED1
 62
7
 10
624.108
 20
347.218
 11
622.399
 21
347.218
  0
LINE
  8
Layer2
  6
DASHED1
 62
7
 10
622.399
 20
344.221
 11
624.108
 21
344.221
  0
LINE
  8
Layer2
  6
DASHED1
 62
7
 10
623.539
 20
338.225
 11
625.248
 21
338.225
  0
LINE
  8
Layer2
  6
DASHED1
 62
7
 10
624.108
 20
347.218
 11
624.108
 21
344.221
  0
LINE
  8
Layer2
  6
DASHED1
 62
7
 10
622.399
 20
347.218
 11
622.399
 21
344.221
  0
LINE
  8
Layer2
  6
DASHED1
 62
7
 10
623.539
 20
338.225
 11
623.539
 21
335.212
  0
LINE
  8
Layer2
  6
DASHED1
 62
7
 10
625.248
 20
338.225
 11
625.248
 21
335.212
  0
LINE
  8
Layer2
  6
DASHED1
 62
7
 10
622.399
 20
344.221
 11
623.539
 21
338.225
  0
LINE
  8
Layer2
  6
DASHED1
 62
7
 10
624.108
 20
344.221
 11
625.248
 21
338.225
  0
LINE
  8
Layer2
  6
DASHED1
 62
7
 10
622.969
 20
341.223
 11
623.539
 21
335.212
  0
LINE
  8
Layer2
  6
DASHED1
 62
7
 10
624.251
 20
347.218
 11
624.678
 21
341.223
  0
LINE
  8
Layer2
  6
DASHED1
 62
7
 10
626.957
 20
335.212
 11
628.667
 21
335.212
  0
LINE
  8
Layer2
  6
DASHED1
 62
7
 10
644.052
 20
335.212
 11
645.761
 21
335.212
  0
LINE
  8
Layer2
  6
DASHED1
 62
7
 10
654.593
 20
347.218
 11
653.169
 21
347.218
  0
LINE
  8
Layer2
  6
DASHED1
 62
7
 10
642.912
 20
344.221
 11
644.622
 21
344.221
  0
LINE
  8
Layer2
  6
DASHED1
 62
7
 10
644.052
 20
338.225
 11
645.761
 21
338.225
  0
LINE
  8
Layer2
  6
DASHED1
 62
7
 10
644.622
 20
347.218
 11
644.622
 21
344.221
  0
LINE
  8
Layer2
  6
DASHED1
 62
7
 10
642.912
 20
347.218
 11
642.912
 21
344.221
  0
LINE
  8
Layer2
  6
DASHED1
 62
7
 10
644.052
 20
338.225
 11
644.052
 21
335.212
  0
LINE
  8
Layer2
  6
DASHED1
 62
7
 10
645.761
 20
338.225
 11
645.761
 21
335.212
  0
LINE
  8
Layer2
  6
DASHED1
 62
7
 10
642.912
 20
344.221
 11
644.052
 21
338.225
  0
LINE
  8
Layer2
  6
DASHED1
 62
7
 10
644.622
 20
344.221
 11
645.761
 21
338.225
  0
LINE
  8
Layer2
  6
DASHED1
 62
7
 10
643.482
 20
341.223
 11
644.052
 21
335.212
  0
LINE
  8
Layer2
  6
DASHED1
 62
7
 10
644.764
 20
347.218
 11
645.191
 21
341.223
  0
LINE
  8
Layer2
  6
DASHED1
 62
7
 10
647.471
 20
335.212
 11
649.18
 21
335.212
  0
LINE
  8
Layer2
  6
DASHED1
 62
7
 10
648.04
 20
347.218
 11
646.331
 21
347.218
  0
LINE
  8
Layer2
  6
DASHED1
 62
7
 10
646.331
 20
344.221
 11
648.04
 21
344.221
  0
LINE
  8
Layer2
  6
DASHED1
 62
7
 10
647.471
 20
338.225
 11
649.18
 21
338.225
  0
LINE
  8
Layer2
  6
DASHED1
 62
7
 10
648.04
 20
347.218
 11
648.04
 21
344.221
  0
LINE
  8
Layer2
  6
DASHED1
 62
7
 10
646.331
 20
347.218
 11
646.331
 21
344.221
  0
LINE
  8
Layer2
  6
DASHED1
 62
7
 10
647.471
 20
338.225
 11
647.471
 21
335.212
  0
LINE
  8
Layer2
  6
DASHED1
 62
7
 10
649.18
 20
338.225
 11
649.18
 21
335.212
  0
LINE
  8
Layer2
  6
DASHED1
 62
7
 10
646.331
 20
344.221
 11
647.471
 21
338.225
  0
LINE
  8
Layer2
  6
DASHED1
 62
7
 10
648.04
 20
344.221
 11
649.18
 21
338.225
  0
LINE
  8
Layer2
  6
DASHED1
 62
7
 10
646.901
 20
341.223
 11
647.471
 21
335.212
  0
LINE
  8
Layer2
  6
DASHED1
 62
7
 10
648.183
 20
347.218
 11
648.61
 21
341.223
  0
LINE
  8
Layer2
  6
DASHED1
 62
7
 10
650.889
 20
335.212
 11
652.599
 21
335.212
  0
LINE
  8
Layer2
  6
DASHED1
 62
7
 10
651.459
 20
347.218
 11
649.75
 21
347.218
  0
LINE
  8
Layer2
  6
DASHED1
 62
7
 10
649.75
 20
344.221
 11
651.459
 21
344.221
  0
LINE
  8
Layer2
  6
DASHED1
 62
7
 10
650.889
 20
338.225
 11
652.599
 21
338.225
  0
LINE
  8
Layer2
  6
DASHED1
 62
7
 10
651.459
 20
347.218
 11
651.459
 21
344.221
  0
LINE
  8
Layer2
  6
DASHED1
 62
7
 10
649.75
 20
347.218
 11
649.75
 21
344.221
  0
LINE
  8
Layer2
  6
DASHED1
 62
7
 10
650.889
 20
338.225
 11
650.889
 21
335.212
  0
LINE
  8
Layer2
  6
DASHED1
 62
7
 10
652.599
 20
338.225
 11
652.599
 21
335.212
  0
LINE
  8
Layer2
  6
DASHED1
 62
7
 10
649.75
 20
344.221
 11
650.889
 21
338.225
  0
LINE
  8
Layer2
  6
DASHED1
 62
7
 10
651.459
 20
344.221
 11
652.599
 21
338.225
  0
LINE
  8
Layer2
  6
DASHED1
 62
7
 10
650.32
 20
341.223
 11
650.889
 21
335.212
  0
LINE
  8
Layer2
  6
DASHED1
 62
7
 10
651.602
 20
347.218
 11
652.029
 21
341.223
  0
LINE
  8
Layer2
  6
DASHED1
 62
7
 10
654.308
 20
335.212
 11
654.593
 21
335.212
  0
LINE
  8
Layer2
  6
DASHED1
 62
7
 10
653.169
 20
344.221
 11
654.593
 21
344.217
  0
LINE
  8
Layer2
  6
DASHED1
 62
7
 10
654.308
 20
338.225
 11
654.593
 21
338.213
  0
LINE
  8
Layer2
  6
DASHED1
 62
7
 10
653.169
 20
347.218
 11
653.169
 21
344.221
  0
LINE
  8
Layer2
  6
DASHED1
 62
7
 10
654.308
 20
338.225
 11
654.308
 21
335.212
  0
LINE
  8
Layer2
  6
DASHED1
 62
7
 10
653.169
 20
344.221
 11
654.308
 21
338.225
  0
LINE
  8
Layer2
  6
DASHED1
 62
7
 10
653.739
 20
341.223
 11
654.308
 21
335.212
  0
LINE
  8
Layer2
  6
DASHED1
 62
7
 10
644.622
 20
347.218
 11
642.912
 21
347.218
  0
LINE
  8
Layer2
  6
DASHED1
 62
7
 10
641.203
 20
347.218
 11
639.493
 21
347.218
  0
LINE
  8
Layer2
  6
DASHED1
 62
7
 10
637.784
 20
347.218
 11
636.074
 21
347.218
  0
LINE
  8
Layer2
  6
DASHED1
 62
7
 10
627.527
 20
347.218
 11
625.818
 21
347.218
  0
LINE
  8
Layer2
  6
DASHED1
 62
7
 10
625.818
 20
344.221
 11
627.527
 21
344.221
  0
LINE
  8
Layer2
  6
DASHED1
 62
7
 10
626.957
 20
338.225
 11
628.667
 21
338.225
  0
LINE
  8
Layer2
  6
DASHED1
 62
7
 10
627.527
 20
347.218
 11
627.527
 21
344.221
  0
LINE
  8
Layer2
  6
DASHED1
 62
7
 10
625.818
 20
347.218
 11
625.818
 21
344.221
  0
LINE
  8
Layer2
  6
DASHED1
 62
7
 10
626.957
 20
338.225
 11
626.957
 21
335.212
  0
LINE
  8
Layer2
  6
DASHED1
 62
7
 10
628.667
 20
338.225
 11
628.667
 21
335.212
  0
LINE
  8
Layer2
  6
DASHED1
 62
7
 10
625.818
 20
344.221
 11
626.957
 21
338.225
  0
LINE
  8
Layer2
  6
DASHED1
 62
7
 10
627.527
 20
344.221
 11
628.667
 21
338.225
  0
LINE
  8
Layer2
  6
DASHED1
 62
7
 10
626.388
 20
341.223
 11
626.957
 21
335.212
  0
LINE
  8
Layer2
  6
DASHED1
 62
7
 10
627.67
 20
347.218
 11
628.097
 21
341.223
  0
LINE
  8
Layer2
  6
DASHED1
 62
7
 10
630.376
 20
335.212
 11
632.086
 21
335.212
  0
LINE
  8
Layer2
  6
DASHED1
 62
7
 10
630.946
 20
347.218
 11
629.237
 21
347.218
  0
LINE
  8
Layer2
  6
DASHED1
 62
7
 10
629.237
 20
344.221
 11
630.946
 21
344.221
  0
LINE
  8
Layer2
  6
DASHED1
 62
7
 10
630.376
 20
338.225
 11
632.086
 21
338.225
  0
LINE
  8
Layer2
  6
DASHED1
 62
7
 10
630.946
 20
347.218
 11
630.946
 21
344.221
  0
LINE
  8
Layer2
  6
DASHED1
 62
7
 10
629.237
 20
347.218
 11
629.237
 21
344.221
  0
LINE
  8
Layer2
  6
DASHED1
 62
7
 10
630.376
 20
338.225
 11
630.376
 21
335.212
  0
LINE
  8
Layer2
  6
DASHED1
 62
7
 10
632.086
 20
338.225
 11
632.086
 21
335.212
  0
LINE
  8
Layer2
  6
DASHED1
 62
7
 10
629.237
 20
344.221
 11
630.376
 21
338.225
  0
LINE
  8
Layer2
  6
DASHED1
 62
7
 10
630.946
 20
344.221
 11
632.086
 21
338.225
  0
LINE
  8
Layer2
  6
DASHED1
 62
7
 10
629.806
 20
341.223
 11
630.376
 21
335.212
  0
LINE
  8
Layer2
  6
DASHED1
 62
7
 10
631.089
 20
347.218
 11
631.516
 21
341.223
  0
LINE
  8
Layer2
  6
DASHED1
 62
7
 10
633.795
 20
335.212
 11
635.505
 21
335.212
  0
LINE
  8
Layer2
  6
DASHED1
 62
7
 10
634.365
 20
347.218
 11
632.656
 21
347.218
  0
LINE
  8
Layer2
  6
DASHED1
 62
7
 10
632.656
 20
344.221
 11
634.365
 21
344.221
  0
LINE
  8
Layer2
  6
DASHED1
 62
7
 10
633.795
 20
338.225
 11
635.505
 21
338.225
  0
LINE
  8
Layer2
  6
DASHED1
 62
7
 10
634.365
 20
347.218
 11
634.365
 21
344.221
  0
LINE
  8
Layer2
  6
DASHED1
 62
7
 10
632.656
 20
347.218
 11
632.656
 21
344.221
  0
LINE
  8
Layer2
  6
DASHED1
 62
7
 10
633.795
 20
338.225
 11
633.795
 21
335.212
  0
LINE
  8
Layer2
  6
DASHED1
 62
7
 10
635.505
 20
338.225
 11
635.505
 21
335.212
  0
LINE
  8
Layer2
  6
DASHED1
 62
7
 10
632.656
 20
344.221
 11
633.795
 21
338.225
  0
LINE
  8
Layer2
  6
DASHED1
 62
7
 10
634.365
 20
344.221
 11
635.505
 21
338.225
  0
LINE
  8
Layer2
  6
DASHED1
 62
7
 10
633.225
 20
341.223
 11
633.795
 21
335.212
  0
LINE
  8
Layer2
  6
DASHED1
 62
7
 10
634.507
 20
347.218
 11
634.935
 21
341.223
  0
LINE
  8
Layer2
  6
DASHED1
 62
7
 10
637.214
 20
335.212
 11
638.923
 21
335.212
  0
LINE
  8
Layer2
  6
DASHED1
 62
7
 10
637.784
 20
347.218
 11
636.074
 21
347.218
  0
LINE
  8
Layer2
  6
DASHED1
 62
7
 10
636.074
 20
344.221
 11
637.784
 21
344.221
  0
LINE
  8
Layer2
  6
DASHED1
 62
7
 10
637.214
 20
338.225
 11
638.923
 21
338.225
  0
LINE
  8
Layer2
  6
DASHED1
 62
7
 10
637.784
 20
347.218
 11
637.784
 21
344.221
  0
LINE
  8
Layer2
  6
DASHED1
 62
7
 10
636.074
 20
347.218
 11
636.074
 21
344.221
  0
LINE
  8
Layer2
  6
DASHED1
 62
7
 10
637.214
 20
338.225
 11
637.214
 21
335.212
  0
LINE
  8
Layer2
  6
DASHED1
 62
7
 10
638.923
 20
338.225
 11
638.923
 21
335.212
  0
LINE
  8
Layer2
  6
DASHED1
 62
7
 10
636.074
 20
344.221
 11
637.214
 21
338.225
  0
LINE
  8
Layer2
  6
DASHED1
 62
7
 10
637.784
 20
344.221
 11
638.923
 21
338.225
  0
LINE
  8
Layer2
  6
DASHED1
 62
7
 10
636.644
 20
341.223
 11
637.214
 21
335.212
  0
LINE
  8
Layer2
  6
DASHED1
 62
7
 10
637.926
 20
347.218
 11
638.354
 21
341.223
  0
LINE
  8
Layer2
  6
DASHED1
 62
7
 10
640.633
 20
335.212
 11
642.342
 21
335.212
  0
LINE
  8
Layer2
  6
DASHED1
 62
7
 10
641.203
 20
347.218
 11
639.493
 21
347.218
  0
LINE
  8
Layer2
  6
DASHED1
 62
7
 10
639.493
 20
344.221
 11
641.203
 21
344.221
  0
LINE
  8
Layer2
  6
DASHED1
 62
7
 10
640.633
 20
338.225
 11
642.342
 21
338.225
  0
LINE
  8
Layer2
  6
DASHED1
 62
7
 10
641.203
 20
347.218
 11
641.203
 21
344.221
  0
LINE
  8
Layer2
  6
DASHED1
 62
7
 10
639.493
 20
347.218
 11
639.493
 21
344.221
  0
LINE
  8
Layer2
  6
DASHED1
 62
7
 10
640.633
 20
338.225
 11
640.633
 21
335.212
  0
LINE
  8
Layer2
  6
DASHED1
 62
7
 10
642.342
 20
338.225
 11
642.342
 21
335.212
  0
LINE
  8
Layer2
  6
DASHED1
 62
7
 10
639.493
 20
344.221
 11
640.633
 21
338.225
  0
LINE
  8
Layer2
  6
DASHED1
 62
7
 10
641.203
 20
344.221
 11
642.342
 21
338.225
  0
LINE
  8
Layer2
  6
DASHED1
 62
7
 10
640.063
 20
341.223
 11
640.633
 21
335.212
  0
LINE
  8
Layer2
  6
DASHED1
 62
7
 10
641.345
 20
347.218
 11
641.773
 21
341.223
  0
LINE
  8
Layer2
  6
DASHED1
 62
7
 10
644.052
 20
335.212
 11
645.761
 21
335.212
  0
LINE
  8
Layer2
  6
DASHED1
 62
7
 10
644.622
 20
347.218
 11
642.912
 21
347.218
  0
LINE
  8
Layer2
  6
DASHED1
 62
7
 10
642.912
 20
344.221
 11
644.622
 21
344.221
  0
LINE
  8
Layer2
  6
DASHED1
 62
7
 10
644.052
 20
338.225
 11
645.761
 21
338.225
  0
LINE
  8
Layer2
  6
DASHED1
 62
7
 10
644.622
 20
347.218
 11
644.622
 21
344.221
  0
LINE
  8
Layer2
  6
DASHED1
 62
7
 10
642.912
 20
347.218
 11
642.912
 21
344.221
  0
LINE
  8
Layer2
  6
DASHED1
 62
7
 10
644.052
 20
338.225
 11
644.052
 21
335.212
  0
LINE
  8
Layer2
  6
DASHED1
 62
7
 10
645.761
 20
338.225
 11
645.761
 21
335.212
  0
LINE
  8
Layer2
  6
DASHED1
 62
7
 10
642.912
 20
344.221
 11
644.052
 21
338.225
  0
LINE
  8
Layer2
  6
DASHED1
 62
7
 10
644.622
 20
344.221
 11
645.761
 21
338.225
  0
LINE
  8
Layer2
  6
DASHED1
 62
7
 10
643.482
 20
341.223
 11
644.052
 21
335.212
  0
LINE
  8
Layer2
  6
DASHED1
 62
7
 10
644.764
 20
347.218
 11
645.191
 21
341.223
  0
LINE
  8
Layer2
  6
DASHED1
 62
7
 10
604.162
 20
335.212
 11
605.017
 21
335.212
  0
LINE
  8
Layer2
  6
DASHED1
 62
7
 10
605.017
 20
338.209
 11
604.162
 21
338.209
  0
LINE
  8
Layer2
  6
DASHED1
 62
7
 10
605.017
 20
335.212
 11
605.017
 21
338.209
  0
LINE
  8
Layer2
  6
DASHED1
 62
7
 10
605.017
 20
338.209
 11
604.447
 21
341.207
  0
LINE
  8
Layer2
  6
DASHED1
 62
7
 10
604.162
 20
335.212
 11
604.162
 21
341.207
  0
LINE
  8
Layer2
  6
DASHED1
 62
7
 10
604.447
 20
341.207
 11
604.162
 21
341.207
  0
LINE
  8
Layer2
  6
CENTER1
 62
7
 10
601.593
 20
341.215
 11
658.357
 21
341.215
  0
LINE
  8
Layer2
  6
CONTINUOUS
 62
7
 10
500.155
 20
400.603
 11
508
 21
400.603
  0
LINE
  8
Layer2
  6
CONTINUOUS
 62
7
 10
499.827
 20
400
 11
508.301
 21
400
  0
LINE
  8
Layer2
  6
CONTINUOUS
 62
7
 10
499.732
 20
396.62
 11
508.181
 21
396.62
  0
LINE
  8
Layer2
  6
CONTINUOUS
 62
7
 10
508.905
 20
395.896
 11
499.008
 21
395.896
  0
LINE
  8
Layer2
  6
CONTINUOUS
 62
7
 10
508.905
 20
395.896
 11
508.905
 21
394.025
  0
LINE
  8
Layer2
  6
CONTINUOUS
 62
7
 10
499.008
 20
395.896
 11
499.008
 21
394.025
  0
POLYLINE
  8
Layer2
  6
CONTINUOUS
 62
7
 66
1
 10
0
 20
0
 30
0
  0
VERTEX
  8
Layer2
 10
503.95
 20
397.817
  0
VERTEX
  8
Layer2
 10
503.884
 20
397.874
  0
VERTEX
  8
Layer2
 10
503.818
 20
397.929
  0
VERTEX
  8
Layer2
 10
503.749
 20
397.982
  0
VERTEX
  8
Layer2
 10
503.68
 20
398.034
  0
VERTEX
  8
Layer2
 10
503.609
 20
398.084
  0
VERTEX
  8
Layer2
 10
503.537
 20
398.132
  0
VERTEX
  8
Layer2
 10
503.464
 20
398.179
  0
VERTEX
  8
Layer2
 10
503.389
 20
398.223
  0
VERTEX
  8
Layer2
 10
503.313
 20
398.265
  0
VERTEX
  8
Layer2
 10
503.237
 20
398.306
  0
VERTEX
  8
Layer2
 10
503.159
 20
398.344
  0
VERTEX
  8
Layer2
 10
503.08
 20
398.381
  0
VERTEX
  8
Layer2
 10
503.001
 20
398.415
  0
VERTEX
  8
Layer2
 10
502.92
 20
398.447
  0
VERTEX
  8
Layer2
 10
502.839
 20
398.477
  0
VERTEX
  8
Layer2
 10
502.757
 20
398.505
  0
VERTEX
  8
Layer2
 10
502.674
 20
398.531
  0
VERTEX
  8
Layer2
 10
502.591
 20
398.555
  0
VERTEX
  8
Layer2
 10
502.507
 20
398.577
  0
VERTEX
  8
Layer2
 10
502.422
 20
398.596
  0
VERTEX
  8
Layer2
 10
502.337
 20
398.614
  0
VERTEX
  8
Layer2
 10
502.252
 20
398.629
  0
VERTEX
  8
Layer2
 10
502.166
 20
398.641
  0
VERTEX
  8
Layer2
 10
502.08
 20
398.652
  0
VERTEX
  8
Layer2
 10
501.994
 20
398.66
  0
VERTEX
  8
Layer2
 10
501.907
 20
398.667
  0
VERTEX
  8
Layer2
 10
501.821
 20
398.67
  0
VERTEX
  8
Layer2
 10
501.734
 20
398.672
  0
VERTEX
  8
Layer2
 10
501.647
 20
398.672
  0
VERTEX
  8
Layer2
 10
501.56
 20
398.669
  0
VERTEX
  8
Layer2
 10
501.474
 20
398.664
  0
VERTEX
  8
Layer2
 10
501.387
 20
398.656
  0
VERTEX
  8
Layer2
 10
501.301
 20
398.647
  0
VERTEX
  8
Layer2
 10
501.215
 20
398.635
  0
VERTEX
  8
Layer2
 10
501.13
 20
398.621
  0
VERTEX
  8
Layer2
 10
501.045
 20
398.605
  0
VERTEX
  8
Layer2
 10
500.96
 20
398.587
  0
VERTEX
  8
Layer2
 10
500.876
 20
398.566
  0
VERTEX
  8
Layer2
 10
500.792
 20
398.543
  0
VERTEX
  8
Layer2
 10
500.709
 20
398.518
  0
VERTEX
  8
Layer2
 10
500.627
 20
398.491
  0
VERTEX
  8
Layer2
 10
500.545
 20
398.462
  0
VERTEX
  8
Layer2
 10
500.464
 20
398.431
  0
VERTEX
  8
Layer2
 10
500.384
 20
398.398
  0
VERTEX
  8
Layer2
 10
500.305
 20
398.362
  0
VERTEX
  8
Layer2
 10
500.227
 20
398.325
  0
VERTEX
  8
Layer2
 10
500.149
 20
398.285
  0
VERTEX
  8
Layer2
 10
500.073
 20
398.244
  0
SEQEND
  0
POLYLINE
  8
Layer2
  6
CONTINUOUS
 62
7
 66
1
 10
0
 20
0
 30
0
  0
VERTEX
  8
Layer2
 10
508.302
 20
398.189
  0
VERTEX
  8
Layer2
 10
508.215
 20
398.225
  0
VERTEX
  8
Layer2
 10
508.126
 20
398.258
  0
VERTEX
  8
Layer2
 10
508.038
 20
398.291
  0
VERTEX
  8
Layer2
 10
507.948
 20
398.321
  0
VERTEX
  8
Layer2
 10
507.858
 20
398.349
  0
VERTEX
  8
Layer2
 10
507.768
 20
398.376
  0
VERTEX
  8
Layer2
 10
507.676
 20
398.401
  0
VERTEX
  8
Layer2
 10
507.585
 20
398.424
  0
VERTEX
  8
Layer2
 10
507.493
 20
398.445
  0
VERTEX
  8
Layer2
 10
507.4
 20
398.464
  0
VERTEX
  8
Layer2
 10
507.308
 20
398.482
  0
VERTEX
  8
Layer2
 10
507.214
 20
398.497
  0
VERTEX
  8
Layer2
 10
507.121
 20
398.511
  0
VERTEX
  8
Layer2
 10
507.027
 20
398.523
  0
VERTEX
  8
Layer2
 10
506.933
 20
398.533
  0
VERTEX
  8
Layer2
 10
506.839
 20
398.541
  0
VERTEX
  8
Layer2
 10
506.745
 20
398.547
  0
VERTEX
  8
Layer2
 10
506.651
 20
398.552
  0
VERTEX
  8
Layer2
 10
506.556
 20
398.554
  0
VERTEX
  8
Layer2
 10
506.462
 20
398.555
  0
VERTEX
  8
Layer2
 10
506.368
 20
398.553
  0
VERTEX
  8
Layer2
 10
506.273
 20
398.55
  0
VERTEX
  8
Layer2
 10
506.179
 20
398.545
  0
VERTEX
  8
Layer2
 10
506.085
 20
398.538
  0
VERTEX
  8
Layer2
 10
505.991
 20
398.529
  0
VERTEX
  8
Layer2
 10
505.897
 20
398.519
  0
VERTEX
  8
Layer2
 10
505.803
 20
398.506
  0
VERTEX
  8
Layer2
 10
505.71
 20
398.492
  0
VERTEX
  8
Layer2
 10
505.617
 20
398.475
  0
VERTEX
  8
Layer2
 10
505.524
 20
398.457
  0
VERTEX
  8
Layer2
 10
505.432
 20
398.437
  0
VERTEX
  8
Layer2
 10
505.34
 20
398.415
  0
VERTEX
  8
Layer2
 10
505.249
 20
398.391
  0
VERTEX
  8
Layer2
 10
505.158
 20
398.366
  0
VERTEX
  8
Layer2
 10
505.067
 20
398.339
  0
VERTEX
  8
Layer2
 10
504.978
 20
398.309
  0
VERTEX
  8
Layer2
 10
504.888
 20
398.279
  0
VERTEX
  8
Layer2
 10
504.8
 20
398.246
  0
VERTEX
  8
Layer2
 10
504.712
 20
398.211
  0
VERTEX
  8
Layer2
 10
504.625
 20
398.175
  0
VERTEX
  8
Layer2
 10
504.538
 20
398.137
  0
VERTEX
  8
Layer2
 10
504.452
 20
398.097
  0
VERTEX
  8
Layer2
 10
504.368
 20
398.056
  0
VERTEX
  8
Layer2
 10
504.284
 20
398.013
  0
VERTEX
  8
Layer2
 10
504.2
 20
397.968
  0
VERTEX
  8
Layer2
 10
504.118
 20
397.922
  0
VERTEX
  8
Layer2
 10
504.037
 20
397.874
  0
VERTEX
  8
Layer2
 10
503.957
 20
397.824
  0
SEQEND
  0
LINE
  8
Layer2
  6
CONTINUOUS
 62
7
 10
500.419
 20
398.413
 11
500.085
 21
398.223
  0
LINE
  8
Layer2
  6
CONTINUOUS
 62
7
 10
500.155
 20
400.603
 11
499.295
 21
399.02
  0
LINE
  8
Layer2
  6
CONTINUOUS
 62
7
 10
508
 20
400.603
 11
508.887
 21
398.788
  0
LINE
  8
Layer2
  6
CONTINUOUS
 62
7
 10
507.818
 20
398.333
 11
508.302
 21
398.189
  0
POLYLINE
  8
Layer2
  6
CONTINUOUS
 62
7
 66
1
 10
0
 20
0
 30
0
  0
VERTEX
  8
Layer2
 10
499.295
 20
399.02
  0
VERTEX
  8
Layer2
 10
499.28
 20
398.992
  0
VERTEX
  8
Layer2
 10
499.267
 20
398.963
  0
VERTEX
  8
Layer2
 10
499.255
 20
398.934
  0
VERTEX
  8
Layer2
 10
499.244
 20
398.904
  0
VERTEX
  8
Layer2
 10
499.236
 20
398.874
  0
VERTEX
  8
Layer2
 10
499.228
 20
398.843
  0
VERTEX
  8
Layer2
 10
499.223
 20
398.812
  0
VERTEX
  8
Layer2
 10
499.219
 20
398.78
  0
VERTEX
  8
Layer2
 10
499.217
 20
398.749
  0
VERTEX
  8
Layer2
 10
499.217
 20
398.717
  0
VERTEX
  8
Layer2
 10
499.218
 20
398.686
  0
VERTEX
  8
Layer2
 10
499.222
 20
398.654
  0
VERTEX
  8
Layer2
 10
499.226
 20
398.623
  0
VERTEX
  8
Layer2
 10
499.233
 20
398.592
  0
VERTEX
  8
Layer2
 10
499.241
 20
398.561
  0
VERTEX
  8
Layer2
 10
499.251
 20
398.531
  0
VERTEX
  8
Layer2
 10
499.263
 20
398.502
  0
VERTEX
  8
Layer2
 10
499.276
 20
398.473
  0
VERTEX
  8
Layer2
 10
499.29
 20
398.445
  0
VERTEX
  8
Layer2
 10
499.307
 20
398.418
  0
VERTEX
  8
Layer2
 10
499.324
 20
398.391
  0
VERTEX
  8
Layer2
 10
499.343
 20
398.366
  0
VERTEX
  8
Layer2
 10
499.364
 20
398.342
  0
VERTEX
  8
Layer2
 10
499.385
 20
398.319
  0
VERTEX
  8
Layer2
 10
499.408
 20
398.297
  0
VERTEX
  8
Layer2
 10
499.432
 20
398.276
  0
VERTEX
  8
Layer2
 10
499.457
 20
398.257
  0
VERTEX
  8
Layer2
 10
499.483
 20
398.239
  0
VERTEX
  8
Layer2
 10
499.51
 20
398.223
  0
VERTEX
  8
Layer2
 10
499.538
 20
398.208
  0
VERTEX
  8
Layer2
 10
499.567
 20
398.195
  0
VERTEX
  8
Layer2
 10
499.596
 20
398.183
  0
VERTEX
  8
Layer2
 10
499.626
 20
398.173
  0
VERTEX
  8
Layer2
 10
499.657
 20
398.164
  0
VERTEX
  8
Layer2
 10
499.688
 20
398.157
  0
VERTEX
  8
Layer2
 10
499.719
 20
398.152
  0
VERTEX
  8
Layer2
 10
499.75
 20
398.149
  0
VERTEX
  8
Layer2
 10
499.782
 20
398.147
  0
VERTEX
  8
Layer2
 10
499.813
 20
398.147
  0
VERTEX
  8
Layer2
 10
499.845
 20
398.149
  0
VERTEX
  8
Layer2
 10
499.877
 20
398.152
  0
VERTEX
  8
Layer2
 10
499.908
 20
398.157
  0
VERTEX
  8
Layer2
 10
499.939
 20
398.164
  0
VERTEX
  8
Layer2
 10
499.969
 20
398.173
  0
VERTEX
  8
Layer2
 10
499.999
 20
398.183
  0
VERTEX
  8
Layer2
 10
500.028
 20
398.194
  0
VERTEX
  8
Layer2
 10
500.057
 20
398.208
  0
VERTEX
  8
Layer2
 10
500.085
 20
398.223
  0
SEQEND
  0
POLYLINE
  8
Layer2
  6
CONTINUOUS
 62
7
 66
1
 10
0
 20
0
 30
0
  0
VERTEX
  8
Layer2
 10
508.302
 20
398.189
  0
VERTEX
  8
Layer2
 10
508.323
 20
398.183
  0
VERTEX
  8
Layer2
 10
508.344
 20
398.179
  0
VERTEX
  8
Layer2
 10
508.365
 20
398.175
  0
VERTEX
  8
Layer2
 10
508.386
 20
398.172
  0
VERTEX
  8
Layer2
 10
508.407
 20
398.17
  0
VERTEX
  8
Layer2
 10
508.429
 20
398.17
  0
VERTEX
  8
Layer2
 10
508.45
 20
398.17
  0
VERTEX
  8
Layer2
 10
508.471
 20
398.171
  0
VERTEX
  8
Layer2
 10
508.493
 20
398.173
  0
VERTEX
  8
Layer2
 10
508.514
 20
398.176
  0
VERTEX
  8
Layer2
 10
508.535
 20
398.18
  0
VERTEX
  8
Layer2
 10
508.556
 20
398.185
  0
VERTEX
  8
Layer2
 10
508.576
 20
398.191
  0
VERTEX
  8
Layer2
 10
508.597
 20
398.197
  0
VERTEX
  8
Layer2
 10
508.617
 20
398.205
  0
VERTEX
  8
Layer2
 10
508.636
 20
398.214
  0
VERTEX
  8
Layer2
 10
508.655
 20
398.223
  0
VERTEX
  8
Layer2
 10
508.674
 20
398.233
  0
VERTEX
  8
Layer2
 10
508.692
 20
398.245
  0
VERTEX
  8
Layer2
 10
508.71
 20
398.256
  0
VERTEX
  8
Layer2
 10
508.727
 20
398.269
  0
VERTEX
  8
Layer2
 10
508.744
 20
398.283
  0
VERTEX
  8
Layer2
 10
508.76
 20
398.297
  0
VERTEX
  8
Layer2
 10
508.775
 20
398.312
  0
VERTEX
  8
Layer2
 10
508.79
 20
398.328
  0
VERTEX
  8
Layer2
 10
508.804
 20
398.344
  0
VERTEX
  8
Layer2
 10
508.817
 20
398.361
  0
VERTEX
  8
Layer2
 10
508.829
 20
398.378
  0
VERTEX
  8
Layer2
 10
508.841
 20
398.396
  0
VERTEX
  8
Layer2
 10
508.852
 20
398.415
  0
VERTEX
  8
Layer2
 10
508.861
 20
398.434
  0
VERTEX
  8
Layer2
 10
508.87
 20
398.453
  0
VERTEX
  8
Layer2
 10
508.879
 20
398.473
  0
VERTEX
  8
Layer2
 10
508.886
 20
398.493
  0
VERTEX
  8
Layer2
 10
508.892
 20
398.514
  0
VERTEX
  8
Layer2
 10
508.897
 20
398.534
  0
VERTEX
  8
Layer2
 10
508.902
 20
398.555
  0
VERTEX
  8
Layer2
 10
508.905
 20
398.576
  0
VERTEX
  8
Layer2
 10
508.908
 20
398.598
  0
VERTEX
  8
Layer2
 10
508.909
 20
398.619
  0
VERTEX
  8
Layer2
 10
508.91
 20
398.64
  0
VERTEX
  8
Layer2
 10
508.91
 20
398.662
  0
VERTEX
  8
Layer2
 10
508.908
 20
398.683
  0
VERTEX
  8
Layer2
 10
508.906
 20
398.704
  0
VERTEX
  8
Layer2
 10
508.903
 20
398.726
  0
VERTEX
  8
Layer2
 10
508.898
 20
398.747
  0
VERTEX
  8
Layer2
 10
508.893
 20
398.767
  0
VERTEX
  8
Layer2
 10
508.887
 20
398.788
  0
SEQEND
  0
LINE
  8
Layer2
  6
CONTINUOUS
 62
7
 10
507.024
 20
398.523
 11
507.024
 21
396.62
  0
LINE
  8
Layer2
  6
CONTINUOUS
 62
7
 10
500.879
 20
398.567
 11
500.879
 21
396.62
  0
LINE
  8
Layer2
  6
CONTINUOUS
 62
7
 10
499.732
 20
396.62
 11
499.008
 21
395.896
  0
LINE
  8
Layer2
  6
CONTINUOUS
 62
7
 10
508.181
 20
396.62
 11
508.905
 21
395.896
  0
TEXT
  8
Layer2
 62
7
 10
539.215
 20
362.615
 72
1
 11
539.215
 21
362.615
 40
6
 41
1
 50
90
  1
 16 
  0
LINE
  8
Layer2
  6
CONTINUOUS
 62
7
 10
516.007
 20
370.615
 11
545.215
 21
370.615
  0
LINE
  8
Layer2
  6
CONTINUOUS
 62
7
 10
514.318
 20
354.615
 11
545.215
 21
354.615
  0
POLYLINE
  8
Layer2
  6
CONTINUOUS
 62
7
 66
1
 10
0
 20
0
 30
0
  0
VERTEX
  8
Layer2
 10
541.215
 20
370.615
  0
VERTEX
  8
Layer2
 10
541.215
 20
354.615
  0
SEQEND
  0
POLYLINE
  8
Layer2
  6
CONTINUOUS
 62
7
 66
1
 10
0
 20
0
 30
0
 70
1
  0
VERTEX
  8
Layer2
 10
540.179
 20
366.751
  0
VERTEX
  8
Layer2
 10
541.215
 20
370.615
  0
VERTEX
  8
Layer2
 10
542.25
 20
366.751
  0
SEQEND
  0
POLYLINE
  8
Layer2
  6
CONTINUOUS
 62
7
 66
1
 10
0
 20
0
 30
0
 70
1
  0
VERTEX
  8
Layer2
 10
542.25
 20
358.479
  0
VERTEX
  8
Layer2
 10
541.215
 20
354.615
  0
VERTEX
  8
Layer2
 10
540.179
 20
358.479
  0
SEQEND
  0
TEXT
  8
Layer2
 62
7
 10
552.321
 20
347.365
 72
1
 11
552.321
 21
347.365
 40
6
 41
1
 50
90
  1
 30.5 
  0
LINE
  8
Layer2
  6
CONTINUOUS
 62
7
 10
518.564
 20
362.615
 11
558.321
 21
362.615
  0
LINE
  8
Layer2
  6
CONTINUOUS
 62
7
 10
528.064
 20
332.115
 11
558.321
 21
332.115
  0
POLYLINE
  8
Layer2
  6
CONTINUOUS
 62
7
 66
1
 10
0
 20
0
 30
0
  0
VERTEX
  8
Layer2
 10
554.321
 20
362.615
  0
VERTEX
  8
Layer2
 10
554.321
 20
332.115
  0
SEQEND
  0
POLYLINE
  8
Layer2
  6
CONTINUOUS
 62
7
 66
1
 10
0
 20
0
 30
0
 70
1
  0
VERTEX
  8
Layer2
 10
553.286
 20
358.751
  0
VERTEX
  8
Layer2
 10
554.321
 20
362.615
  0
VERTEX
  8
Layer2
 10
555.357
 20
358.751
  0
SEQEND
  0
POLYLINE
  8
Layer2
  6
CONTINUOUS
 62
7
 66
1
 10
0
 20
0
 30
0
 70
1
  0
VERTEX
  8
Layer2
 10
555.357
 20
335.979
  0
VERTEX
  8
Layer2
 10
554.321
 20
332.115
  0
VERTEX
  8
Layer2
 10
553.286
 20
335.979
  0
SEQEND
  0
TEXT
  8
Layer2
 62
7
 10
504.064
 20
321.405
 72
1
 11
504.064
 21
321.405
 40
6
 41
1
  1
 13 
  0
LINE
  8
Layer2
  6
CONTINUOUS
 62
7
 10
497.564
 20
348.522
 11
497.564
 21
315.405
  0
LINE
  8
Layer2
  6
CONTINUOUS
 62
7
 10
510.564
 20
351.481
 11
510.564
 21
315.405
  0
POLYLINE
  8
Layer2
  6
CONTINUOUS
 62
7
 66
1
 10
0
 20
0
 30
0
  0
VERTEX
  8
Layer2
 10
497.564
 20
319.405
  0
VERTEX
  8
Layer2
 10
510.564
 20
319.405
  0
SEQEND
  0
POLYLINE
  8
Layer2
  6
CONTINUOUS
 62
7
 66
1
 10
0
 20
0
 30
0
 70
1
  0
VERTEX
  8
Layer2
 10
501.428
 20
318.369
  0
VERTEX
  8
Layer2
 10
497.564
 20
319.405
  0
VERTEX
  8
Layer2
 10
501.428
 20
320.44
  0
SEQEND
  0
POLYLINE
  8
Layer2
  6
CONTINUOUS
 62
7
 66
1
 10
0
 20
0
 30
0
 70
1
  0
VERTEX
  8
Layer2
 10
506.701
 20
320.44
  0
VERTEX
  8
Layer2
 10
510.564
 20
319.405
  0
VERTEX
  8
Layer2
 10
506.701
 20
318.369
  0
SEQEND
  0
TEXT
  8
Layer2
 62
7
 10
504.064
 20
307.901
 72
1
 11
504.064
 21
307.901
 40
6
 41
1
  1
 22 
  0
LINE
  8
Layer2
  6
CONTINUOUS
 62
7
 10
493.064
 20
351.115
 11
493.064
 21
301.901
  0
LINE
  8
Layer2
  6
CONTINUOUS
 62
7
 10
515.064
 20
351.115
 11
515.064
 21
301.901
  0
POLYLINE
  8
Layer2
  6
CONTINUOUS
 62
7
 66
1
 10
0
 20
0
 30
0
  0
VERTEX
  8
Layer2
 10
493.064
 20
305.901
  0
VERTEX
  8
Layer2
 10
515.064
 20
305.901
  0
SEQEND
  0
POLYLINE
  8
Layer2
  6
CONTINUOUS
 62
7
 66
1
 10
0
 20
0
 30
0
 70
1
  0
VERTEX
  8
Layer2
 10
496.928
 20
304.865
  0
VERTEX
  8
Layer2
 10
493.064
 20
305.901
  0
VERTEX
  8
Layer2
 10
496.928
 20
306.936
  0
SEQEND
  0
POLYLINE
  8
Layer2
  6
CONTINUOUS
 62
7
 66
1
 10
0
 20
0
 30
0
 70
1
  0
VERTEX
  8
Layer2
 10
511.201
 20
306.936
  0
VERTEX
  8
Layer2
 10
515.064
 20
305.901
  0
VERTEX
  8
Layer2
 10
511.201
 20
304.865
  0
SEQEND
  0
LINE
  8
Layer2
  6
CONTINUOUS
 62
7
 10
665.593
 20
421.415
 11
695.093
 21
421.415
  0
LINE
  8
Layer2
  6
CONTINUOUS
 62
7
 10
661.593
 20
368.415
 11
695.093
 21
368.415
  0
TEXT
  8
Layer2
 62
7
 10
720.47
 20
376.765
 72
1
 11
720.47
 21
376.765
 40
6
 41
1
 50
90
  1
 89.3 
  0
LINE
  8
Layer2
  6
CONTINUOUS
 62
7
 10
665.593
 20
332.115
 11
726.47
 21
332.115
  0
LINE
  8
Layer2
  6
CONTINUOUS
 62
7
 10
685.93
 20
421.415
 11
726.47
 21
421.415
  0
POLYLINE
  8
Layer2
  6
CONTINUOUS
 62
7
 66
1
 10
0
 20
0
 30
0
  0
VERTEX
  8
Layer2
 10
722.47
 20
332.115
  0
VERTEX
  8
Layer2
 10
722.47
 20
421.415
  0
SEQEND
  0
POLYLINE
  8
Layer2
  6
CONTINUOUS
 62
7
 66
1
 10
0
 20
0
 30
0
 70
1
  0
VERTEX
  8
Layer2
 10
723.505
 20
335.979
  0
VERTEX
  8
Layer2
 10
722.47
 20
332.115
  0
VERTEX
  8
Layer2
 10
721.434
 20
335.979
  0
SEQEND
  0
POLYLINE
  8
Layer2
  6
CONTINUOUS
 62
7
 66
1
 10
0
 20
0
 30
0
 70
1
  0
VERTEX
  8
Layer2
 10
721.434
 20
417.551
  0
VERTEX
  8
Layer2
 10
722.47
 20
421.415
  0
VERTEX
  8
Layer2
 10
723.505
 20
417.551
  0
SEQEND
  0
TEXT
  8
Layer2
 62
7
 10
708.697
 20
347.835
 72
1
 11
708.697
 21
347.835
 40
6
 41
1
 50
90
  1
 72.7 
  0
LINE
  8
Layer2
  6
CONTINUOUS
 62
7
 10
666.593
 20
404.797
 11
713.76
 21
404.797
  0
POLYLINE
  8
Layer2
  6
CONTINUOUS
 62
7
 66
1
 10
0
 20
0
 30
0
  0
VERTEX
  8
Layer2
 10
709.76
 20
404.797
  0
VERTEX
  8
Layer2
 10
709.76
 20
332.115
  0
SEQEND
  0
POLYLINE
  8
Layer2
  6
CONTINUOUS
 62
7
 66
1
 10
0
 20
0
 30
0
 70
1
  0
VERTEX
  8
Layer2
 10
708.725
 20
400.934
  0
VERTEX
  8
Layer2
 10
709.76
 20
404.797
  0
VERTEX
  8
Layer2
 10
710.795
 20
400.934
  0
SEQEND
  0
POLYLINE
  8
Layer2
  6
CONTINUOUS
 62
7
 66
1
 10
0
 20
0
 30
0
 70
1
  0
VERTEX
  8
Layer2
 10
710.795
 20
335.979
  0
VERTEX
  8
Layer2
 10
709.76
 20
332.115
  0
VERTEX
  8
Layer2
 10
708.725
 20
335.979
  0
SEQEND
  0
TEXT
  8
Layer2
 62
7
 10
695.448
 20
360.615
 72
1
 11
695.448
 21
360.615
 40
6
 41
1
 50
90
  1
 17 
  0
LINE
  8
Layer2
  6
CONTINUOUS
 62
7
 10
681.872
 20
352.115
 11
701.448
 21
352.115
  0
POLYLINE
  8
Layer2
  6
CONTINUOUS
 62
7
 66
1
 10
0
 20
0
 30
0
  0
VERTEX
  8
Layer2
 10
697.448
 20
369.115
  0
VERTEX
  8
Layer2
 10
697.448
 20
352.115
  0
SEQEND
  0
POLYLINE
  8
Layer2
  6
CONTINUOUS
 62
7
 66
1
 10
0
 20
0
 30
0
 70
1
  0
VERTEX
  8
Layer2
 10
696.412
 20
365.251
  0
VERTEX
  8
Layer2
 10
697.448
 20
369.115
  0
VERTEX
  8
Layer2
 10
698.483
 20
365.251
  0
SEQEND
  0
POLYLINE
  8
Layer2
  6
CONTINUOUS
 62
7
 66
1
 10
0
 20
0
 30
0
 70
1
  0
VERTEX
  8
Layer2
 10
698.483
 20
355.979
  0
VERTEX
  8
Layer2
 10
697.448
 20
352.115
  0
VERTEX
  8
Layer2
 10
696.412
 20
355.979
  0
SEQEND
  0
TEXT
  8
Layer2
 62
7
 10
695.448
 20
347.615
 72
1
 11
695.448
 21
347.615
 40
6
 41
1
 50
90
  1
 9 
  0
LINE
  8
Layer2
  6
CONTINUOUS
 62
7
 10
670.593
 20
343.115
 11
701.448
 21
343.115
  0
POLYLINE
  8
Layer2
  6
CONTINUOUS
 62
7
 66
1
 10
0
 20
0
 30
0
  0
VERTEX
  8
Layer2
 10
697.448
 20
343.115
  0
VERTEX
  8
Layer2
 10
697.448
 20
352.115
  0
SEQEND
  0
POLYLINE
  8
Layer2
  6
CONTINUOUS
 62
7
 66
1
 10
0
 20
0
 30
0
 70
1
  0
VERTEX
  8
Layer2
 10
698.483
 20
346.979
  0
VERTEX
  8
Layer2
 10
697.448
 20
343.115
  0
VERTEX
  8
Layer2
 10
696.412
 20
346.979
  0
SEQEND
  0
POLYLINE
  8
Layer2
  6
CONTINUOUS
 62
7
 66
1
 10
0
 20
0
 30
0
 70
1
  0
VERTEX
  8
Layer2
 10
696.412
 20
348.251
  0
VERTEX
  8
Layer2
 10
697.448
 20
352.115
  0
VERTEX
  8
Layer2
 10
698.483
 20
348.251
  0
SEQEND
  0
TEXT
  8
Layer2
 62
7
 10
695.448
 20
337.615
 72
1
 11
695.448
 21
337.615
 40
6
 41
1
 50
90
  1
 11 
  0
LINE
  8
Layer2
  6
CONTINUOUS
 62
7
 10
692.681
 20
332.115
 11
701.448
 21
332.115
  0
POLYLINE
  8
Layer2
  6
CONTINUOUS
 62
7
 66
1
 10
0
 20
0
 30
0
  0
VERTEX
  8
Layer2
 10
697.448
 20
359.115
  0
VERTEX
  8
Layer2
 10
697.448
 20
343.115
  0
SEQEND
  0
POLYLINE
  8
Layer2
  6
CONTINUOUS
 62
7
 66
1
 10
0
 20
0
 30
0
 70
1
  0
VERTEX
  8
Layer2
 10
698.483
 20
346.979
  0
VERTEX
  8
Layer2
 10
697.448
 20
343.115
  0
VERTEX
  8
Layer2
 10
696.412
 20
346.979
  0
SEQEND
  0
POLYLINE
  8
Layer2
  6
CONTINUOUS
 62
7
 66
1
 10
0
 20
0
 30
0
  0
VERTEX
  8
Layer2
 10
697.448
 20
316.115
  0
VERTEX
  8
Layer2
 10
697.448
 20
332.115
  0
SEQEND
  0
POLYLINE
  8
Layer2
  6
CONTINUOUS
 62
7
 66
1
 10
0
 20
0
 30
0
 70
1
  0
VERTEX
  8
Layer2
 10
696.412
 20
328.251
  0
VERTEX
  8
Layer2
 10
697.448
 20
332.115
  0
VERTEX
  8
Layer2
 10
698.483
 20
328.251
  0
SEQEND
  0
LINE
  8
Layer2
  6
CONTINUOUS
 62
7
 10
697.448
 20
343.115
 11
697.448
 21
332.115
  0
TEXT
  8
Layer2
 62
7
 10
600.093
 20
404.47
 72
1
 11
600.093
 21
404.47
 40
6
 41
1
  1
 1 
  0
LINE
  8
Layer2
  6
CONTINUOUS
 62
7
 10
599.593
 20
374.115
 11
599.593
 21
406.47
  0
LINE
  8
Layer2
  6
CONTINUOUS
 62
7
 10
600.593
 20
393.115
 11
600.593
 21
406.47
  0
POLYLINE
  8
Layer2
  6
CONTINUOUS
 62
7
 66
1
 10
0
 20
0
 30
0
  0
VERTEX
  8
Layer2
 10
583.593
 20
402.47
  0
VERTEX
  8
Layer2
 10
599.593
 20
402.47
  0
SEQEND
  0
POLYLINE
  8
Layer2
  6
CONTINUOUS
 62
7
 66
1
 10
0
 20
0
 30
0
 70
1
  0
VERTEX
  8
Layer2
 10
595.73
 20
403.505
  0
VERTEX
  8
Layer2
 10
599.593
 20
402.47
  0
VERTEX
  8
Layer2
 10
595.73
 20
401.435
  0
SEQEND
  0
POLYLINE
  8
Layer2
  6
CONTINUOUS
 62
7
 66
1
 10
0
 20
0
 30
0
  0
VERTEX
  8
Layer2
 10
616.593
 20
402.47
  0
VERTEX
  8
Layer2
 10
600.593
 20
402.47
  0
SEQEND
  0
POLYLINE
  8
Layer2
  6
CONTINUOUS
 62
7
 66
1
 10
0
 20
0
 30
0
 70
1
  0
VERTEX
  8
Layer2
 10
604.457
 20
401.435
  0
VERTEX
  8
Layer2
 10
600.593
 20
402.47
  0
VERTEX
  8
Layer2
 10
604.457
 20
403.505
  0
SEQEND
  0
LINE
  8
Layer2
  6
CONTINUOUS
 62
7
 10
599.593
 20
402.47
 11
600.593
 21
402.47
  0
TEXT
  8
Layer2
 62
7
 10
591.093
 20
404.47
 72
1
 11
591.093
 21
404.47
 40
6
 41
1
  1
 17 
  0
LINE
  8
Layer2
  6
CONTINUOUS
 62
7
 10
582.593
 20
374.115
 11
582.593
 21
406.47
  0
POLYLINE
  8
Layer2
  6
CONTINUOUS
 62
7
 66
1
 10
0
 20
0
 30
0
  0
VERTEX
  8
Layer2
 10
582.593
 20
402.47
  0
VERTEX
  8
Layer2
 10
599.593
 20
402.47
  0
SEQEND
  0
POLYLINE
  8
Layer2
  6
CONTINUOUS
 62
7
 66
1
 10
0
 20
0
 30
0
 70
1
  0
VERTEX
  8
Layer2
 10
586.457
 20
401.435
  0
VERTEX
  8
Layer2
 10
582.593
 20
402.47
  0
VERTEX
  8
Layer2
 10
586.457
 20
403.505
  0
SEQEND
  0
POLYLINE
  8
Layer2
  6
CONTINUOUS
 62
7
 66
1
 10
0
 20
0
 30
0
 70
1
  0
VERTEX
  8
Layer2
 10
595.73
 20
403.505
  0
VERTEX
  8
Layer2
 10
599.593
 20
402.47
  0
VERTEX
  8
Layer2
 10
595.73
 20
401.435
  0
SEQEND
  0
TEXT
  8
Layer2
 62
7
 10
704.185
 20
488.077
 72
1
 11
704.185
 21
488.077
 40
6
 41
1
 50
90
  1
 36 
  0
LINE
  8
Layer2
  6
CONTINUOUS
 62
7
 10
694.892
 20
506.077
 11
710.185
 21
506.077
  0
LINE
  8
Layer2
  6
CONTINUOUS
 62
7
 10
694.892
 20
470.077
 11
710.185
 21
470.077
  0
POLYLINE
  8
Layer2
  6
CONTINUOUS
 62
7
 66
1
 10
0
 20
0
 30
0
  0
VERTEX
  8
Layer2
 10
706.185
 20
506.077
  0
VERTEX
  8
Layer2
 10
706.185
 20
470.077
  0
SEQEND
  0
POLYLINE
  8
Layer2
  6
CONTINUOUS
 62
7
 66
1
 10
0
 20
0
 30
0
 70
1
  0
VERTEX
  8
Layer2
 10
705.15
 20
502.213
  0
VERTEX
  8
Layer2
 10
706.185
 20
506.077
  0
VERTEX
  8
Layer2
 10
707.221
 20
502.213
  0
SEQEND
  0
POLYLINE
  8
Layer2
  6
CONTINUOUS
 62
7
 66
1
 10
0
 20
0
 30
0
 70
1
  0
VERTEX
  8
Layer2
 10
707.221
 20
473.941
  0
VERTEX
  8
Layer2
 10
706.185
 20
470.077
  0
VERTEX
  8
Layer2
 10
705.15
 20
473.941
  0
SEQEND
  0
TEXT
  8
Layer2
 62
7
 10
718.484
 20
488.036
 72
1
 11
718.484
 21
488.036
 40
6
 41
1
 50
90
  1
 50 
  0
LINE
  8
Layer2
  6
CONTINUOUS
 62
7
 10
673.593
 20
513.036
 11
724.484
 21
513.036
  0
LINE
  8
Layer2
  6
CONTINUOUS
 62
7
 10
673.593
 20
463.036
 11
724.484
 21
463.036
  0
POLYLINE
  8
Layer2
  6
CONTINUOUS
 62
7
 66
1
 10
0
 20
0
 30
0
  0
VERTEX
  8
Layer2
 10
720.484
 20
513.036
  0
VERTEX
  8
Layer2
 10
720.484
 20
463.036
  0
SEQEND
  0
POLYLINE
  8
Layer2
  6
CONTINUOUS
 62
7
 66
1
 10
0
 20
0
 30
0
 70
1
  0
VERTEX
  8
Layer2
 10
719.449
 20
509.173
  0
VERTEX
  8
Layer2
 10
720.484
 20
513.036
  0
VERTEX
  8
Layer2
 10
721.519
 20
509.173
  0
SEQEND
  0
POLYLINE
  8
Layer2
  6
CONTINUOUS
 62
7
 66
1
 10
0
 20
0
 30
0
 70
1
  0
VERTEX
  8
Layer2
 10
721.519
 20
466.9
  0
VERTEX
  8
Layer2
 10
720.484
 20
463.036
  0
VERTEX
  8
Layer2
 10
719.449
 20
466.9
  0
SEQEND
  0
TEXT
  8
Layer2
 62
7
 10
633.593
 20
533.099
 72
1
 11
633.593
 21
533.099
 40
6
 41
1
  1
 66 
  0
LINE
  8
Layer2
  6
CONTINUOUS
 62
7
 10
600.593
 20
512.036
 11
600.593
 21
535.099
  0
LINE
  8
Layer2
  6
CONTINUOUS
 62
7
 10
666.593
 20
512.036
 11
666.593
 21
535.099
  0
POLYLINE
  8
Layer2
  6
CONTINUOUS
 62
7
 66
1
 10
0
 20
0
 30
0
  0
VERTEX
  8
Layer2
 10
600.593
 20
531.099
  0
VERTEX
  8
Layer2
 10
666.593
 20
531.099
  0
SEQEND
  0
POLYLINE
  8
Layer2
  6
CONTINUOUS
 62
7
 66
1
 10
0
 20
0
 30
0
 70
1
  0
VERTEX
  8
Layer2
 10
604.457
 20
530.064
  0
VERTEX
  8
Layer2
 10
600.593
 20
531.099
  0
VERTEX
  8
Layer2
 10
604.457
 20
532.134
  0
SEQEND
  0
POLYLINE
  8
Layer2
  6
CONTINUOUS
 62
7
 66
1
 10
0
 20
0
 30
0
 70
1
  0
VERTEX
  8
Layer2
 10
662.73
 20
532.134
  0
VERTEX
  8
Layer2
 10
666.593
 20
531.099
  0
VERTEX
  8
Layer2
 10
662.73
 20
530.064
  0
SEQEND
  0
TEXT
  8
Layer2
 62
7
 10
670.593
 20
533.099
 72
1
 11
670.593
 21
533.099
 40
6
 41
1
  1
 8 
  0
LINE
  8
Layer2
  6
CONTINUOUS
 62
7
 10
674.593
 20
511.036
 11
674.593
 21
535.099
  0
POLYLINE
  8
Layer2
  6
CONTINUOUS
 62
7
 66
1
 10
0
 20
0
 30
0
  0
VERTEX
  8
Layer2
 10
690.593
 20
531.099
  0
VERTEX
  8
Layer2
 10
674.593
 20
531.099
  0
SEQEND
  0
POLYLINE
  8
Layer2
  6
CONTINUOUS
 62
7
 66
1
 10
0
 20
0
 30
0
 70
1
  0
VERTEX
  8
Layer2
 10
678.457
 20
530.064
  0
VERTEX
  8
Layer2
 10
674.593
 20
531.099
  0
VERTEX
  8
Layer2
 10
678.457
 20
532.134
  0
SEQEND
  0
POLYLINE
  8
Layer2
  6
CONTINUOUS
 62
7
 66
1
 10
0
 20
0
 30
0
  0
VERTEX
  8
Layer2
 10
650.593
 20
531.099
  0
VERTEX
  8
Layer2
 10
666.593
 20
531.099
  0
SEQEND
  0
POLYLINE
  8
Layer2
  6
CONTINUOUS
 62
7
 66
1
 10
0
 20
0
 30
0
 70
1
  0
VERTEX
  8
Layer2
 10
662.73
 20
532.134
  0
VERTEX
  8
Layer2
 10
666.593
 20
531.099
  0
VERTEX
  8
Layer2
 10
662.73
 20
530.064
  0
SEQEND
  0
LINE
  8
Layer2
  6
CONTINUOUS
 62
7
 10
674.593
 20
531.099
 11
666.593
 21
531.099
  0
TEXT
  8
Layer2
 62
7
 10
623.593
 20
521.978
 72
1
 11
623.593
 21
521.978
 40
6
 41
1
  1
 32 
  0
LINE
  8
Layer2
  6
CONTINUOUS
 62
7
 10
607.593
 20
512.036
 11
607.593
 21
523.978
  0
LINE
  8
Layer2
  6
CONTINUOUS
 62
7
 10
639.593
 20
516.273
 11
639.593
 21
523.978
  0
POLYLINE
  8
Layer2
  6
CONTINUOUS
 62
7
 66
1
 10
0
 20
0
 30
0
  0
VERTEX
  8
Layer2
 10
607.593
 20
519.978
  0
VERTEX
  8
Layer2
 10
639.593
 20
519.978
  0
SEQEND
  0
POLYLINE
  8
Layer2
  6
CONTINUOUS
 62
7
 66
1
 10
0
 20
0
 30
0
 70
1
  0
VERTEX
  8
Layer2
 10
611.457
 20
518.943
  0
VERTEX
  8
Layer2
 10
607.593
 20
519.978
  0
VERTEX
  8
Layer2
 10
611.457
 20
521.013
  0
SEQEND
  0
POLYLINE
  8
Layer2
  6
CONTINUOUS
 62
7
 66
1
 10
0
 20
0
 30
0
 70
1
  0
VERTEX
  8
Layer2
 10
635.73
 20
521.013
  0
VERTEX
  8
Layer2
 10
639.593
 20
519.978
  0
VERTEX
  8
Layer2
 10
635.73
 20
518.943
  0
SEQEND
  0
TEXT
  8
Layer2
 62
7
 10
604.093
 20
521.978
 72
1
 11
604.093
 21
521.978
 40
6
 41
1
  1
 7 
  0
LINE
  8
Layer2
  6
CONTINUOUS
 62
7
 10
600.593
 20
519.581
 11
600.593
 21
523.978
  0
POLYLINE
  8
Layer2
  6
CONTINUOUS
 62
7
 66
1
 10
0
 20
0
 30
0
  0
VERTEX
  8
Layer2
 10
623.593
 20
519.978
  0
VERTEX
  8
Layer2
 10
607.593
 20
519.978
  0
SEQEND
  0
POLYLINE
  8
Layer2
  6
CONTINUOUS
 62
7
 66
1
 10
0
 20
0
 30
0
 70
1
  0
VERTEX
  8
Layer2
 10
611.457
 20
518.943
  0
VERTEX
  8
Layer2
 10
607.593
 20
519.978
  0
VERTEX
  8
Layer2
 10
611.457
 20
521.013
  0
SEQEND
  0
POLYLINE
  8
Layer2
  6
CONTINUOUS
 62
7
 66
1
 10
0
 20
0
 30
0
  0
VERTEX
  8
Layer2
 10
584.593
 20
519.978
  0
VERTEX
  8
Layer2
 10
600.593
 20
519.978
  0
SEQEND
  0
POLYLINE
  8
Layer2
  6
CONTINUOUS
 62
7
 66
1
 10
0
 20
0
 30
0
 70
1
  0
VERTEX
  8
Layer2
 10
596.73
 20
521.013
  0
VERTEX
  8
Layer2
 10
600.593
 20
519.978
  0
VERTEX
  8
Layer2
 10
596.73
 20
518.943
  0
SEQEND
  0
LINE
  8
Layer2
  6
CONTINUOUS
 62
7
 10
607.593
 20
519.978
 11
600.593
 21
519.978
  0
TEXT
  8
Layer2
 62
7
 10
654.343
 20
450.487
 72
1
 11
654.343
 21
450.487
 40
6
 41
1
  1
 24.5 
  0
LINE
  8
Layer2
  6
CONTINUOUS
 62
7
 10
642.093
 20
481.849
 11
642.093
 21
444.487
  0
LINE
  8
Layer2
  6
CONTINUOUS
 62
7
 10
666.593
 20
470.036
 11
666.593
 21
444.487
  0
POLYLINE
  8
Layer2
  6
CONTINUOUS
 62
7
 66
1
 10
0
 20
0
 30
0
  0
VERTEX
  8
Layer2
 10
642.093
 20
448.487
  0
VERTEX
  8
Layer2
 10
666.593
 20
448.487
  0
SEQEND
  0
POLYLINE
  8
Layer2
  6
CONTINUOUS
 62
7
 66
1
 10
0
 20
0
 30
0
 70
1
  0
VERTEX
  8
Layer2
 10
645.957
 20
447.451
  0
VERTEX
  8
Layer2
 10
642.093
 20
448.487
  0
VERTEX
  8
Layer2
 10
645.957
 20
449.522
  0
SEQEND
  0
POLYLINE
  8
Layer2
  6
CONTINUOUS
 62
7
 66
1
 10
0
 20
0
 30
0
 70
1
  0
VERTEX
  8
Layer2
 10
662.73
 20
449.522
  0
VERTEX
  8
Layer2
 10
666.593
 20
448.487
  0
VERTEX
  8
Layer2
 10
662.73
 20
447.451
  0
SEQEND
  0
TEXT
  8
Layer2
 62
7
 10
689.887
 20
488.036
 72
1
 11
689.887
 21
488.036
 40
6
 41
1
 50
90
  1
 23 
  0
LINE
  8
Layer2
  6
CONTINUOUS
 62
7
 10
666.593
 20
499.536
 11
695.887
 21
499.536
  0
LINE
  8
Layer2
  6
CONTINUOUS
 62
7
 10
666.593
 20
476.536
 11
695.887
 21
476.536
  0
POLYLINE
  8
Layer2
  6
CONTINUOUS
 62
7
 66
1
 10
0
 20
0
 30
0
  0
VERTEX
  8
Layer2
 10
691.887
 20
499.536
  0
VERTEX
  8
Layer2
 10
691.887
 20
476.536
  0
SEQEND
  0
POLYLINE
  8
Layer2
  6
CONTINUOUS
 62
7
 66
1
 10
0
 20
0
 30
0
 70
1
  0
VERTEX
  8
Layer2
 10
690.852
 20
495.673
  0
VERTEX
  8
Layer2
 10
691.887
 20
499.536
  0
VERTEX
  8
Layer2
 10
692.922
 20
495.673
  0
SEQEND
  0
POLYLINE
  8
Layer2
  6
CONTINUOUS
 62
7
 66
1
 10
0
 20
0
 30
0
 70
1
  0
VERTEX
  8
Layer2
 10
692.922
 20
480.4
  0
VERTEX
  8
Layer2
 10
691.887
 20
476.536
  0
VERTEX
  8
Layer2
 10
690.852
 20
480.4
  0
SEQEND
  0
LINE
  8
Layer2
  6
CENTER1
 62
7
 10
612.343
 20
362.615
 11
568.093
 21
362.615
  0
TEXT
  8
Layer2
 62
7
 10
537.269
 20
434.893
 73
3
 11
537.269
 21
434.893
 40
6
 41
1
  1
センター穴
  0
POLYLINE
  8
Layer2
  6
CONTINUOUS
 62
7
 66
1
 10
0
 20
0
 30
0
  0
VERTEX
  8
Layer2
 10
626.118
 20
467.561
  0
VERTEX
  8
Layer2
 10
579.269
 20
434.893
  0
VERTEX
  8
Layer2
 10
579.269
 20
434.893
  0
SEQEND
  0
POLYLINE
  8
Layer2
  6
CONTINUOUS
 62
7
 66
1
 10
0
 20
0
 30
0
  0
VERTEX
  8
Layer2
 10
623.297
 20
466.541
  0
VERTEX
  8
Layer2
 10
626.118
 20
467.561
  0
VERTEX
  8
Layer2
 10
624.185
 20
465.267
  0
SEQEND
  0
LINE
  8
Layer2
  6
CONTINUOUS
 62
7
 10
579.269
 20
434.893
 11
537.269
 21
434.893
  0
TEXT
  8
Layer2
 62
7
 10
537.269
 20
436.893
 40
6
 41
1
  1
ベース位置決め
  0
POLYLINE
  8
Layer2
  6
CONTINUOUS
 62
7
 66
1
 10
0
 20
0
 30
0
  0
VERTEX
  8
Layer2
 10
618.593
 20
506.036
  0
VERTEX
  8
Layer2
 10
570.639
 20
452.943
  0
VERTEX
  8
Layer2
 10
570.639
 20
452.943
  0
SEQEND
  0
CIRCLE
  8
Layer2
  6
CONTINUOUS
 62
7
 10
618.593
 20
506.036
 40
1
  0
CIRCLE
  8
Layer2
  6
CONTINUOUS
 62
7
 10
567.795
 20
449.794
 40
4.24264
  0
TEXT
  8
Layer2
 62
7
 10
567.795
 20
449.794
 72
1
 73
2
 11
567.795
 21
449.794
 40
6
 41
1
  1
11
  0
TEXT
  8
Layer2
 62
7
 10
681.051
 20
312.103
 73
3
 11
681.051
 21
312.103
 40
6
 41
1
  1
M5タップ
  0
POLYLINE
  8
Layer2
  6
CONTINUOUS
 62
7
 66
1
 10
0
 20
0
 30
0
  0
VERTEX
  8
Layer2
 10
660.62
 20
332.115
  0
VERTEX
  8
Layer2
 10
660.334
 20
333.146
  0
VERTEX
  8
Layer2
 10
660.047
 20
334.176
  0
VERTEX
  8
Layer2
 10
659.758
 20
335.204
  0
VERTEX
  8
Layer2
 10
659.466
 20
336.229
  0
VERTEX
  8
Layer2
 10
659.171
 20
337.249
  0
VERTEX
  8
Layer2
 10
658.871
 20
338.265
  0
VERTEX
  8
Layer2
 10
658.567
 20
339.273
  0
VERTEX
  8
Layer2
 10
658.256
 20
340.274
  0
VERTEX
  8
Layer2
 10
657.938
 20
341.267
  0
VERTEX
  8
Layer2
 10
657.612
 20
342.249
  0
VERTEX
  8
Layer2
 10
657.278
 20
343.222
  0
VERTEX
  8
Layer2
 10
656.934
 20
344.182
  0
VERTEX
  8
Layer2
 10
656.579
 20
345.129
  0
VERTEX
  8
Layer2
 10
656.213
 20
346.062
  0
VERTEX
  8
Layer2
 10
655.835
 20
346.981
  0
VERTEX
  8
Layer2
 10
655.444
 20
347.883
  0
VERTEX
  8
Layer2
 10
655.039
 20
348.768
  0
VERTEX
  8
Layer2
 10
654.618
 20
349.634
  0
VERTEX
  8
Layer2
 10
654.183
 20
350.481
  0
VERTEX
  8
Layer2
 10
653.73
 20
351.308
  0
VERTEX
  8
Layer2
 10
653.26
 20
352.113
  0
VERTEX
  8
Layer2
 10
652.772
 20
352.896
  0
VERTEX
  8
Layer2
 10
652.265
 20
353.655
  0
VERTEX
  8
Layer2
 10
651.737
 20
354.389
  0
VERTEX
  8
Layer2
 10
651.188
 20
355.098
  0
VERTEX
  8
Layer2
 10
650.618
 20
355.779
  0
VERTEX
  8
Layer2
 10
650.025
 20
356.433
  0
VERTEX
  8
Layer2
 10
649.408
 20
357.058
  0
VERTEX
  8
Layer2
 10
648.767
 20
357.652
  0
VERTEX
  8
Layer2
 10
648.1
 20
358.215
  0
VERTEX
  8
Layer2
 10
647.407
 20
358.746
  0
VERTEX
  8
Layer2
 10
646.688
 20
359.244
  0
VERTEX
  8
Layer2
 10
645.94
 20
359.707
  0
VERTEX
  8
Layer2
 10
645.163
 20
360.134
  0
VERTEX
  8
Layer2
 10
644.357
 20
360.526
  0
VERTEX
  8
Layer2
 10
643.522
 20
360.882
  0
VERTEX
  8
Layer2
 10
642.664
 20
361.213
  0
VERTEX
  8
Layer2
 10
641.789
 20
361.527
  0
VERTEX
  8
Layer2
 10
640.901
 20
361.833
  0
VERTEX
  8
Layer2
 10
640.008
 20
362.139
  0
VERTEX
  8
Layer2
 10
639.114
 20
362.454
  0
VERTEX
  8
Layer2
 10
638.224
 20
362.788
  0
VERTEX
  8
Layer2
 10
637.345
 20
363.149
  0
VERTEX
  8
Layer2
 10
636.483
 20
363.546
  0
VERTEX
  8
Layer2
 10
635.642
 20
363.988
  0
VERTEX
  8
Layer2
 10
634.828
 20
364.484
  0
VERTEX
  8
Layer2
 10
634.046
 20
365.038
  0
VERTEX
  8
Layer2
 10
633.299
 20
365.647
  0
VERTEX
  8
Layer2
 10
632.589
 20
366.306
  0
VERTEX
  8
Layer2
 10
631.917
 20
367.012
  0
VERTEX
  8
Layer2
 10
631.288
 20
367.76
  0
VERTEX
  8
Layer2
 10
630.702
 20
368.546
  0
VERTEX
  8
Layer2
 10
630.162
 20
369.365
  0
VERTEX
  8
Layer2
 10
629.67
 20
370.214
  0
VERTEX
  8
Layer2
 10
629.229
 20
371.087
  0
VERTEX
  8
Layer2
 10
628.841
 20
371.98
  0
VERTEX
  8
Layer2
 10
628.509
 20
372.89
  0
VERTEX
  8
Layer2
 10
628.234
 20
373.812
  0
VERTEX
  8
Layer2
 10
628.02
 20
374.741
  0
VERTEX
  8
Layer2
 10
627.868
 20
375.674
  0
VERTEX
  8
Layer2
 10
627.78
 20
376.605
  0
VERTEX
  8
Layer2
 10
627.754
 20
377.534
  0
VERTEX
  8
Layer2
 10
627.785
 20
378.46
  0
VERTEX
  8
Layer2
 10
627.866
 20
379.384
  0
VERTEX
  8
Layer2
 10
627.991
 20
380.306
  0
VERTEX
  8
Layer2
 10
628.154
 20
381.226
  0
VERTEX
  8
Layer2
 10
628.349
 20
382.146
  0
VERTEX
  8
Layer2
 10
628.569
 20
383.064
  0
VERTEX
  8
Layer2
 10
628.809
 20
383.981
  0
VERTEX
  8
Layer2
 10
629.061
 20
384.898
  0
VERTEX
  8
Layer2
 10
629.321
 20
385.815
  0
VERTEX
  8
Layer2
 10
629.581
 20
386.733
  0
VERTEX
  8
Layer2
 10
629.836
 20
387.651
  0
VERTEX
  8
Layer2
 10
630.079
 20
388.57
  0
VERTEX
  8
Layer2
 10
630.305
 20
389.49
  0
VERTEX
  8
Layer2
 10
630.507
 20
390.412
  0
VERTEX
  8
Layer2
 10
630.68
 20
391.336
  0
VERTEX
  8
Layer2
 10
630.829
 20
392.262
  0
VERTEX
  8
Layer2
 10
630.963
 20
393.188
  0
VERTEX
  8
Layer2
 10
631.089
 20
394.115
  0
SEQEND
  0
TEXT
  8
Layer2
 62
7
 10
575.707
 20
319.936
 72
1
 11
575.707
 21
319.936
 40
6
 41
1
  1
12ストローク
  0
LINE
  8
Layer2
  6
CONTINUOUS
 62
7
 10
570.593
 20
351.115
 11
570.593
 21
328.115
  0
LINE
  8
Layer2
  6
CONTINUOUS
 62
7
 10
582.593
 20
351.115
 11
582.593
 21
328.115
  0
POLYLINE
  8
Layer2
  6
CONTINUOUS
 62
7
 66
1
 10
0
 20
0
 30
0
  0
VERTEX
  8
Layer2
 10
570.593
 20
332.115
  0
VERTEX
  8
Layer2
 10
582.593
 20
332.115
  0
SEQEND
  0
POLYLINE
  8
Layer2
  6
CONTINUOUS
 62
7
 66
1
 10
0
 20
0
 30
0
 70
1
  0
VERTEX
  8
Layer2
 10
574.457
 20
331.08
  0
VERTEX
  8
Layer2
 10
570.593
 20
332.115
  0
VERTEX
  8
Layer2
 10
574.457
 20
333.15
  0
SEQEND
  0
POLYLINE
  8
Layer2
  6
CONTINUOUS
 62
7
 66
1
 10
0
 20
0
 30
0
 70
1
  0
VERTEX
  8
Layer2
 10
578.73
 20
333.15
  0
VERTEX
  8
Layer2
 10
582.593
 20
332.115
  0
VERTEX
  8
Layer2
 10
578.73
 20
331.08
  0
SEQEND
  0
LINE
  8
Layer2
  6
PHANTOM1
 62
7
 10
586.593
 20
375.115
 11
571.593
 21
375.115
  0
LINE
  8
Layer2
  6
PHANTOM1
 62
7
 10
586.593
 20
350.115
 11
571.593
 21
350.115
  0
LINE
  8
Layer2
  6
PHANTOM1
 62
7
 10
570.593
 20
351.115
 11
570.593
 21
374.115
  0
LINE
  8
Layer2
  6
PHANTOM1
 62
7
 10
571.593
 20
375.115
 11
570.593
 21
374.115
  0
LINE
  8
Layer2
  6
PHANTOM1
 62
7
 10
571.593
 20
350.115
 11
570.593
 21
351.115
  0
TEXT
  8
Layer2
 62
7
 10
722.47
 20
358.905
 73
3
 11
722.47
 21
358.905
 40
6
 41
1
 50
90
  1
(オープンハイト）
  0
TEXT
  8
Layer2
 62
7
 10
701.02
 20
357.136
 73
3
 11
701.02
 21
357.136
 40
6
 41
1
 50
90
  1
(シャットハイト）
  0
POLYLINE
  8
Layer2
  6
CONTINUOUS
 62
7
 66
1
 10
0
 20
0
 30
0
  0
VERTEX
  8
Layer2
 10
616.026
 20
387.654
  0
VERTEX
  8
Layer2
 10
590.341
 20
431.508
  0
VERTEX
  8
Layer2
 10
590.341
 20
431.508
  0
SEQEND
  0
CIRCLE
  8
Layer2
  6
CONTINUOUS
 62
7
 10
616.026
 20
387.654
 40
1
  0
CIRCLE
  8
Layer2
  6
CONTINUOUS
 62
7
 10
588.646
 20
434.402
 40
3.3541
  0
TEXT
  8
Layer2
 62
7
 10
588.646
 20
434.402
 72
1
 73
2
 11
588.646
 21
434.402
 40
6
 41
1
  1
4
  0
POLYLINE
  8
Layer2
  6
CONTINUOUS
 62
7
 66
1
 10
0
 20
0
 30
0
  0
VERTEX
  8
Layer2
 10
623.255
 20
401.766
  0
VERTEX
  8
Layer2
 10
613.819
 20
430.876
  0
VERTEX
  8
Layer2
 10
613.819
 20
430.876
  0
SEQEND
  0
CIRCLE
  8
Layer2
  6
CONTINUOUS
 62
7
 10
623.255
 20
401.766
 40
1
  0
CIRCLE
  8
Layer2
  6
CONTINUOUS
 62
7
 10
612.785
 20
434.067
 40
3.3541
  0
TEXT
  8
Layer2
 62
7
 10
612.785
 20
434.067
 72
1
 73
2
 11
612.785
 21
434.067
 40
6
 41
1
  1
8
  0
POLYLINE
  8
Layer2
  6
CONTINUOUS
 62
7
 66
1
 10
0
 20
0
 30
0
  0
VERTEX
  8
Layer2
 10
510.564
 20
370.743
  0
VERTEX
  8
Layer2
 10
543.967
 20
399.334
  0
VERTEX
  8
Layer2
 10
543.967
 20
399.334
  0
SEQEND
  0
CIRCLE
  8
Layer2
  6
CONTINUOUS
 62
7
 10
510.564
 20
370.743
 40
1
  0
CIRCLE
  8
Layer2
  6
CONTINUOUS
 62
7
 10
547.19
 20
402.092
 40
4.24264
  0
TEXT
  8
Layer2
 62
7
 10
547.19
 20
402.092
 72
1
 73
2
 11
547.19
 21
402.092
 40
6
 41
1
  1
14
  0
POLYLINE
  8
Layer2
  6
CONTINUOUS
 62
7
 66
1
 10
0
 20
0
 30
0
  0
VERTEX
  8
Layer2
 10
647.592
 20
406.091
  0
VERTEX
  8
Layer2
 10
630.46
 20
431.581
  0
VERTEX
  8
Layer2
 10
630.46
 20
431.581
  0
SEQEND
  0
CIRCLE
  8
Layer2
  6
CONTINUOUS
 62
7
 10
647.592
 20
406.091
 40
1
  0
CIRCLE
  8
Layer2
  6
CONTINUOUS
 62
7
 10
628.589
 20
434.365
 40
3.3541
  0
TEXT
  8
Layer2
 62
7
 10
628.589
 20
434.365
 72
1
 73
2
 11
628.589
 21
434.365
 40
6
 41
1
  1
3
  0
POLYLINE
  8
Layer2
  6
CONTINUOUS
 62
7
 66
1
 10
0
 20
0
 30
0
  0
VERTEX
  8
Layer2
 10
669.651
 20
391.636
  0
VERTEX
  8
Layer2
 10
694.053
 20
447.61
  0
VERTEX
  8
Layer2
 10
694.053
 20
447.61
  0
SEQEND
  0
CIRCLE
  8
Layer2
  6
CONTINUOUS
 62
7
 10
669.651
 20
391.636
 40
1
  0
CIRCLE
  8
Layer2
  6
CONTINUOUS
 62
7
 10
695.394
 20
450.685
 40
3.3541
  0
TEXT
  8
Layer2
 62
7
 10
695.394
 20
450.685
 72
1
 73
2
 11
695.394
 21
450.685
 40
6
 41
1
  1
5
  0
POLYLINE
  8
Layer2
  6
CONTINUOUS
 62
7
 66
1
 10
0
 20
0
 30
0
  0
VERTEX
  8
Layer2
 10
677.203
 20
389.157
  0
VERTEX
  8
Layer2
 10
710.572
 20
447.323
  0
VERTEX
  8
Layer2
 10
710.572
 20
447.323
  0
SEQEND
  0
CIRCLE
  8
Layer2
  6
CONTINUOUS
 62
7
 10
677.203
 20
389.157
 40
1
  0
CIRCLE
  8
Layer2
  6
CONTINUOUS
 62
7
 10
712.683
 20
451.003
 40
4.24264
  0
TEXT
  8
Layer2
 62
7
 10
712.683
 20
451.003
 72
1
 73
2
 11
712.683
 21
451.003
 40
6
 41
1
  1
12
  0
POLYLINE
  8
Layer2
  6
CONTINUOUS
 62
7
 66
1
 10
0
 20
0
 30
0
  0
VERTEX
  8
Layer2
 10
679.175
 20
372.52
  0
VERTEX
  8
Layer2
 10
726.62
 20
447.096
  0
VERTEX
  8
Layer2
 10
726.62
 20
447.096
  0
SEQEND
  0
CIRCLE
  8
Layer2
  6
CONTINUOUS
 62
7
 10
679.175
 20
372.52
 40
1
  0
CIRCLE
  8
Layer2
  6
CONTINUOUS
 62
7
 10
728.42
 20
449.926
 40
3.3541
  0
TEXT
  8
Layer2
 62
7
 10
728.42
 20
449.926
 72
1
 73
2
 11
728.42
 21
449.926
 40
6
 41
1
  1
9
  0
POLYLINE
  8
Layer2
  6
CONTINUOUS
 62
7
 66
1
 10
0
 20
0
 30
0
  0
VERTEX
  8
Layer2
 10
662.167
 20
346.624
  0
VERTEX
  8
Layer2
 10
656.873
 20
314.01
  0
VERTEX
  8
Layer2
 10
656.873
 20
314.01
  0
SEQEND
  0
CIRCLE
  8
Layer2
  6
CONTINUOUS
 62
7
 10
662.167
 20
346.624
 40
1
  0
CIRCLE
  8
Layer2
  6
CONTINUOUS
 62
7
 10
656.194
 20
309.823
 40
4.24264
  0
TEXT
  8
Layer2
 62
7
 10
656.194
 20
309.823
 72
1
 73
2
 11
656.194
 21
309.823
 40
6
 41
1
  1
10
  0
POLYLINE
  8
Layer2
  6
CONTINUOUS
 62
7
 66
1
 10
0
 20
0
 30
0
  0
VERTEX
  8
Layer2
 10
655.302
 20
335.737
  0
VERTEX
  8
Layer2
 10
644.336
 20
312.465
  0
VERTEX
  8
Layer2
 10
644.336
 20
312.465
  0
SEQEND
  0
CIRCLE
  8
Layer2
  6
CONTINUOUS
 62
7
 10
655.302
 20
335.737
 40
1
  0
CIRCLE
  8
Layer2
  6
CONTINUOUS
 62
7
 10
642.906
 20
309.431
 40
3.3541
  0
TEXT
  8
Layer2
 62
7
 10
642.906
 20
309.431
 72
1
 73
2
 11
642.906
 21
309.431
 40
6
 41
1
  1
6
  0
POLYLINE
  8
Layer2
  6
CONTINUOUS
 62
7
 66
1
 10
0
 20
0
 30
0
  0
VERTEX
  8
Layer2
 10
647.748
 20
339.122
  0
VERTEX
  8
Layer2
 10
633.716
 20
312.617
  0
VERTEX
  8
Layer2
 10
633.716
 20
312.617
  0
SEQEND
  0
CIRCLE
  8
Layer2
  6
CONTINUOUS
 62
7
 10
647.748
 20
339.122
 40
1
  0
CIRCLE
  8
Layer2
  6
CONTINUOUS
 62
7
 10
632.147
 20
309.652
 40
3.3541
  0
TEXT
  8
Layer2
 62
7
 10
632.147
 20
309.652
 72
1
 73
2
 11
632.147
 21
309.652
 40
6
 41
1
  1
7
  0
POLYLINE
  8
Layer2
  6
CONTINUOUS
 62
7
 66
1
 10
0
 20
0
 30
0
  0
VERTEX
  8
Layer2
 10
625.032
 20
356.839
  0
VERTEX
  8
Layer2
 10
602.194
 20
313.861
  0
VERTEX
  8
Layer2
 10
602.194
 20
313.861
  0
SEQEND
  0
CIRCLE
  8
Layer2
  6
CONTINUOUS
 62
7
 10
625.032
 20
356.839
 40
1
  0
CIRCLE
  8
Layer2
  6
CONTINUOUS
 62
7
 10
600.621
 20
310.899
 40
3.3541
  0
TEXT
  8
Layer2
 62
7
 10
600.621
 20
310.899
 72
1
 73
2
 11
600.621
 21
310.899
 40
6
 41
1
  1
1
  0
POLYLINE
  8
Layer2
  6
CONTINUOUS
 62
7
 66
1
 10
0
 20
0
 30
0
  0
VERTEX
  8
Layer2
 10
644.488
 20
365.821
  0
VERTEX
  8
Layer2
 10
617.814
 20
313.719
  0
VERTEX
  8
Layer2
 10
617.814
 20
313.719
  0
SEQEND
  0
CIRCLE
  8
Layer2
  6
CONTINUOUS
 62
7
 10
644.488
 20
365.821
 40
1
  0
CIRCLE
  8
Layer2
  6
CONTINUOUS
 62
7
 10
616.285
 20
310.734
 40
3.3541
  0
TEXT
  8
Layer2
 62
7
 10
616.285
 20
310.734
 72
1
 73
2
 11
616.285
 21
310.734
 40
6
 41
1
  1
2
  0
POLYLINE
  8
Layer2
  6
CONTINUOUS
 62
7
 66
1
 10
0
 20
0
 30
0
  0
VERTEX
  8
Layer2
 10
507.088
 20
359.305
  0
VERTEX
  8
Layer2
 10
544.271
 20
386.709
  0
VERTEX
  8
Layer2
 10
544.271
 20
386.709
  0
SEQEND
  0
CIRCLE
  8
Layer2
  6
CONTINUOUS
 62
7
 10
507.088
 20
359.305
 40
1
  0
CIRCLE
  8
Layer2
  6
CONTINUOUS
 62
7
 10
547.686
 20
389.226
 40
4.24264
  0
TEXT
  8
Layer2
 62
7
 10
547.686
 20
389.226
 72
1
 73
2
 11
547.686
 21
389.226
 40
6
 41
1
  1
13
  0
TEXT
  8
Layer2
 62
7
 10
609.593
 20
458.456
 72
1
 11
609.593
 21
458.456
 40
3
 41
1
  1
 18 
  0
LINE
  8
Layer2
  6
CONTINUOUS
 62
7
 10
618.593
 20
459.3
 11
618.593
 21
455.456
  0
LINE
  8
Layer2
  6
CONTINUOUS
 62
7
 10
600.593
 20
464.286
 11
600.593
 21
455.456
  0
POLYLINE
  8
Layer2
  6
CONTINUOUS
 62
7
 66
1
 10
0
 20
0
 30
0
  0
VERTEX
  8
Layer2
 10
618.593
 20
457.456
  0
VERTEX
  8
Layer2
 10
600.593
 20
457.456
  0
SEQEND
  0
POLYLINE
  8
Layer2
  6
CONTINUOUS
 62
7
 66
1
 10
0
 20
0
 30
0
  0
VERTEX
  8
Layer2
 10
615.695
 20
458.232
  0
VERTEX
  8
Layer2
 10
618.593
 20
457.456
  0
VERTEX
  8
Layer2
 10
615.695
 20
456.679
  0
SEQEND
  0
POLYLINE
  8
Layer2
  6
CONTINUOUS
 62
7
 66
1
 10
0
 20
0
 30
0
  0
VERTEX
  8
Layer2
 10
603.49
 20
456.679
  0
VERTEX
  8
Layer2
 10
600.593
 20
457.456
  0
VERTEX
  8
Layer2
 10
603.49
 20
458.232
  0
SEQEND
  0
TEXT
  8
Layer2
 62
7
 10
614.593
 20
448.078
 72
1
 11
614.593
 21
448.078
 40
3
 41
1
  1
 28 
  0
LINE
  8
Layer2
  6
CONTINUOUS
 62
7
 10
600.593
 20
462.036
 11
600.593
 21
445.078
  0
LINE
  8
Layer2
  6
CONTINUOUS
 62
7
 10
628.593
 20
461.036
 11
628.593
 21
445.078
  0
POLYLINE
  8
Layer2
  6
CONTINUOUS
 62
7
 66
1
 10
0
 20
0
 30
0
  0
VERTEX
  8
Layer2
 10
600.593
 20
447.078
  0
VERTEX
  8
Layer2
 10
628.593
 20
447.078
  0
SEQEND
  0
POLYLINE
  8
Layer2
  6
CONTINUOUS
 62
7
 66
1
 10
0
 20
0
 30
0
  0
VERTEX
  8
Layer2
 10
603.49
 20
446.301
  0
VERTEX
  8
Layer2
 10
600.593
 20
447.078
  0
VERTEX
  8
Layer2
 10
603.49
 20
447.854
  0
SEQEND
  0
POLYLINE
  8
Layer2
  6
CONTINUOUS
 62
7
 66
1
 10
0
 20
0
 30
0
  0
VERTEX
  8
Layer2
 10
625.695
 20
447.854
  0
VERTEX
  8
Layer2
 10
628.593
 20
447.078
  0
VERTEX
  8
Layer2
 10
625.695
 20
446.301
  0
SEQEND
  0
POLYLINE
  8
Layer2
  6
CONTINUOUS
 62
7
 66
1
 10
0
 20
0
 30
0
  0
VERTEX
  8
Layer2
 10
669.26
 20
354.115
  0
VERTEX
  8
Layer2
 10
680.368
 20
305.229
  0
VERTEX
  8
Layer2
 10
680.368
 20
305.229
  0
SEQEND
  0
POLYLINE
  8
Layer2
  6
CONTINUOUS
 62
7
 66
1
 10
0
 20
0
 30
0
  0
VERTEX
  8
Layer2
 10
669.145
 20
351.117
  0
VERTEX
  8
Layer2
 10
669.26
 20
354.115
  0
VERTEX
  8
Layer2
 10
670.659
 20
351.461
  0
SEQEND
  0
LINE
  8
Layer2
  6
CONTINUOUS
 62
7
 10
680.368
 20
305.229
 11
708.368
 21
305.229
  0
TEXT
  8
Layer2
 62
7
 10
708.368
 20
306.229
 72
2
 11
708.368
 21
306.229
 40
4
 41
1
  1
              
  0
TEXT
  8
Layer2
 62
7
 10
460.346
 20
394.915
 72
1
 11
460.346
 21
394.915
 40
3
 41
1
 50
90
  1
 53 
  0
LINE
  8
Layer2
  6
CONTINUOUS
 62
7
 10
499.339
 20
421.415
 11
459.346
 21
421.415
  0
LINE
  8
Layer2
  6
CONTINUOUS
 62
7
 10
491.064
 20
368.415
 11
459.346
 21
368.415
  0
POLYLINE
  8
Layer2
  6
CONTINUOUS
 62
7
 66
1
 10
0
 20
0
 30
0
  0
VERTEX
  8
Layer2
 10
461.346
 20
421.415
  0
VERTEX
  8
Layer2
 10
461.346
 20
368.415
  0
SEQEND
  0
POLYLINE
  8
Layer2
  6
CONTINUOUS
 62
7
 66
1
 10
0
 20
0
 30
0
  0
VERTEX
  8
Layer2
 10
460.57
 20
418.517
  0
VERTEX
  8
Layer2
 10
461.346
 20
421.415
  0
VERTEX
  8
Layer2
 10
462.123
 20
418.517
  0
SEQEND
  0
POLYLINE
  8
Layer2
  6
CONTINUOUS
 62
7
 66
1
 10
0
 20
0
 30
0
  0
VERTEX
  8
Layer2
 10
462.123
 20
371.313
  0
VERTEX
  8
Layer2
 10
461.346
 20
368.415
  0
VERTEX
  8
Layer2
 10
460.57
 20
371.313
  0
SEQEND
  0
TEXT
  8
Layer2
 62
7
 10
467.22
 20
363.115
 72
1
 11
467.22
 21
363.115
 40
3
 41
1
 50
90
  1
 62 
  0
LINE
  8
Layer2
  6
CONTINUOUS
 62
7
 10
484.064
 20
394.115
 11
466.22
 21
394.115
  0
LINE
  8
Layer2
  6
CONTINUOUS
 62
7
 10
484.064
 20
332.115
 11
466.22
 21
332.115
  0
POLYLINE
  8
Layer2
  6
CONTINUOUS
 62
7
 66
1
 10
0
 20
0
 30
0
  0
VERTEX
  8
Layer2
 10
468.22
 20
394.115
  0
VERTEX
  8
Layer2
 10
468.22
 20
332.115
  0
SEQEND
  0
POLYLINE
  8
Layer2
  6
CONTINUOUS
 62
7
 66
1
 10
0
 20
0
 30
0
  0
VERTEX
  8
Layer2
 10
467.444
 20
391.217
  0
VERTEX
  8
Layer2
 10
468.22
 20
394.115
  0
VERTEX
  8
Layer2
 10
468.996
 20
391.217
  0
SEQEND
  0
POLYLINE
  8
Layer2
  6
CONTINUOUS
 62
7
 66
1
 10
0
 20
0
 30
0
  0
VERTEX
  8
Layer2
 10
468.996
 20
335.013
  0
VERTEX
  8
Layer2
 10
468.22
 20
332.115
  0
VERTEX
  8
Layer2
 10
467.444
 20
335.013
  0
SEQEND
  0
LINE
  8
Layer2
  6
DASHED1
 62
7
 10
481.064
 20
387.115
 11
491.064
 21
387.115
  0
LINE
  8
Layer2
  6
DASHED1
 62
7
 10
491.064
 20
394.115
 11
491.064
 21
387.115
  0
LINE
  8
Layer2
  6
DASHED1
 62
7
 10
481.064
 20
394.115
 11
481.064
 21
387.115
  0
LINE
  8
Layer2
  6
DASHED1
 62
7
 10
482.564
 20
387.115
 11
482.564
 21
330.537
  0
LINE
  8
Layer2
  6
DASHED1
 62
7
 10
489.564
 20
387.115
 11
489.564
 21
326.475
  0
TEXT
  8
Layer2
 62
7
 10
473.652
 20
390.615
 72
1
 11
473.652
 21
390.615
 40
3
 41
1
 50
90
  1
 7 
  0
LINE
  8
Layer2
  6
CONTINUOUS
 62
7
 10
480.564
 20
387.115
 11
472.652
 21
387.115
  0
LINE
  8
Layer2
  6
CONTINUOUS
 62
7
 10
474.145
 20
394.115
 11
472.652
 21
394.115
  0
POLYLINE
  8
Layer2
  6
CONTINUOUS
 62
7
 66
1
 10
0
 20
0
 30
0
  0
VERTEX
  8
Layer2
 10
474.652
 20
387.115
  0
VERTEX
  8
Layer2
 10
474.652
 20
394.115
  0
SEQEND
  0
POLYLINE
  8
Layer2
  6
CONTINUOUS
 62
7
 66
1
 10
0
 20
0
 30
0
  0
VERTEX
  8
Layer2
 10
475.428
 20
390.013
  0
VERTEX
  8
Layer2
 10
474.652
 20
387.115
  0
VERTEX
  8
Layer2
 10
473.875
 20
390.013
  0
SEQEND
  0
POLYLINE
  8
Layer2
  6
CONTINUOUS
 62
7
 66
1
 10
0
 20
0
 30
0
  0
VERTEX
  8
Layer2
 10
473.875
 20
391.217
  0
VERTEX
  8
Layer2
 10
474.652
 20
394.115
  0
VERTEX
  8
Layer2
 10
475.428
 20
391.217
  0
SEQEND
  0
ENDSEC
  0
EOF
