  0
SECTION
  2
HEADER
  9
$EXTMIN
 10
0
 20
0
  9
$EXTMAX
 10
1189
 20
841
  9
$LTSCALE
 40
1
  9
$LIMMIN
 10
0
 20
0
  9
$LIMMAX
 10
1189
 20
841
  9
$DIMSCALE
 40
1
  0
ENDSEC
  0
SECTION
  2
TABLES
  0
TABLE
  2
LTYPE
 70
9
  0
LTYPE
  2
CONTINUOUS
 70
64
  3
----------
 72
65
 73
0
 40
0
  0
LTYPE
  2
DASHED1
 70
64
  3
--  --  --  --  --  --  --  --  
 72
65
 73
2
 40
2.5
 49
1.25
 49
-1.25
  0
LTYPE
  2
DASHED2
 70
64
  3
----    ----    ----    ----    
 72
65
 73
2
 40
5
 49
2.5
 49
-2.5
  0
LTYPE
  2
DASHED3
 70
64
  3
------  ------  ------  ------  
 72
65
 73
2
 40
5
 49
3.75
 49
-1.25
  0
LTYPE
  2
CENTER1
 70
64
  3
----- - ----- - ----- - ----- - 
 72
65
 73
4
 40
7.5
 49
3.75
 49
-1.25
 49
1.25
 49
-1.25
  0
LTYPE
  2
CENTER2
 70
64
  3
----------  --  ----------  --  
 72
65
 73
4
 40
13.75
 49
6.25
 49
-2.5
 49
2.5
 49
-2.5
  0
LTYPE
  2
PHANTOM1
 70
64
  3
--- - - --- - - --- - - --- - - 
 72
65
 73
6
 40
9.5
 49
3.25
 49
-1.25
 49
1.25
 49
-1.25
 49
1.25
 49
-1.25
  0
LTYPE
  2
PHANTOM2
 70
64
  3
--------  -  -  --------  -  -  
 72
65
 73
6
 40
18
 49
8
 49
-2.5
 49
1.25
 49
-2.5
 49
1.25
 49
-2.5
  0
LTYPE
  2
DOT
 70
64
  3
-   -   -   -   -   -   -   -   
 72
65
 73
2
 40
2.5
 49
0.625
 49
-1.875
  0
LTYPE
  2
HOJO
 70
64
  3
-   -   -   -   -   -   -   -   
 72
65
 73
2
 40
2.5
 49
0.625
 49
-1.875
  0
ENDTAB
  0
TABLE
  2
STYLE
 70
2
  0
STYLE
  2
STANDARD
 70
64
 40
0
 41
1
 42
0
 50
0
 71
0
  3
TXT
  4
BIGFONT
  0
STYLE
  2
TATEGAKI
 70
68
 40
0
 41
1
 42
0
 50
0
 71
0
  3
TXT
  4
EXTFONT
  0
ENDTAB
  0
TABLE
  2
LAYER
 70
1
  0
LAYER
  2
Layer1
 70
64
 62
7
  6
CONTINUOUS
  0
ENDTAB
  0
ENDSEC
  0
SECTION
  2
ENTITIES
  0
LINE
  8
Layer1
  6
CONTINUOUS
 62
7
 10
684.994
 20
344.419
 11
678.51
 21
337.935
  0
LINE
  8
Layer1
  6
CENTER2
 62
7
 10
425.778
 20
345.193
 11
425.778
 21
262.868
  0
LINE
  8
Layer1
  6
CONTINUOUS
 62
7
 10
356.778
 20
282.935
 11
372.778
 21
282.935
  0
LINE
  8
Layer1
  6
CONTINUOUS
 62
7
 10
494.778
 20
282.935
 11
478.778
 21
282.935
  0
LINE
  8
Layer1
  6
CENTER2
 62
7
 10
619.932
 20
521.164
 11
795.23
 21
521.164
  0
LINE
  8
Layer1
  6
DASHED1
 62
7
 10
473.544
 20
344.935
 11
473.528
 21
344.919
  0
POLYLINE
  8
Layer1
  6
CONTINUOUS
 62
7
 66
1
 10
0
 20
0
 30
0
 70
1
  0
VERTEX
  8
Layer1
 10
405.778
 20
323.435
  0
VERTEX
  8
Layer1
 10
405.735
 20
324.088
  0
VERTEX
  8
Layer1
 10
405.608
 20
324.729
  0
VERTEX
  8
Layer1
 10
405.397
 20
325.349
  0
VERTEX
  8
Layer1
 10
405.108
 20
325.935
  0
VERTEX
  8
Layer1
 10
404.745
 20
326.479
  0
VERTEX
  8
Layer1
 10
404.313
 20
326.971
  0
VERTEX
  8
Layer1
 10
403.822
 20
327.402
  0
VERTEX
  8
Layer1
 10
403.278
 20
327.765
  0
VERTEX
  8
Layer1
 10
402.691
 20
328.055
  0
VERTEX
  8
Layer1
 10
402.072
 20
328.265
  0
VERTEX
  8
Layer1
 10
401.431
 20
328.392
  0
VERTEX
  8
Layer1
 10
400.778
 20
328.435
  0
VERTEX
  8
Layer1
 10
400.125
 20
328.392
  0
VERTEX
  8
Layer1
 10
399.484
 20
328.265
  0
VERTEX
  8
Layer1
 10
398.865
 20
328.055
  0
VERTEX
  8
Layer1
 10
398.278
 20
327.765
  0
VERTEX
  8
Layer1
 10
397.734
 20
327.402
  0
VERTEX
  8
Layer1
 10
397.242
 20
326.971
  0
VERTEX
  8
Layer1
 10
396.811
 20
326.479
  0
VERTEX
  8
Layer1
 10
396.448
 20
325.935
  0
VERTEX
  8
Layer1
 10
396.159
 20
325.349
  0
VERTEX
  8
Layer1
 10
395.948
 20
324.729
  0
VERTEX
  8
Layer1
 10
395.821
 20
324.088
  0
VERTEX
  8
Layer1
 10
395.778
 20
323.435
  0
VERTEX
  8
Layer1
 10
395.821
 20
322.783
  0
VERTEX
  8
Layer1
 10
395.948
 20
322.141
  0
VERTEX
  8
Layer1
 10
396.159
 20
321.522
  0
VERTEX
  8
Layer1
 10
396.448
 20
320.935
  0
VERTEX
  8
Layer1
 10
396.811
 20
320.391
  0
VERTEX
  8
Layer1
 10
397.242
 20
319.9
  0
VERTEX
  8
Layer1
 10
397.734
 20
319.469
  0
VERTEX
  8
Layer1
 10
398.278
 20
319.105
  0
VERTEX
  8
Layer1
 10
398.865
 20
318.816
  0
VERTEX
  8
Layer1
 10
399.484
 20
318.606
  0
VERTEX
  8
Layer1
 10
400.125
 20
318.478
  0
VERTEX
  8
Layer1
 10
400.778
 20
318.435
  0
VERTEX
  8
Layer1
 10
401.431
 20
318.478
  0
VERTEX
  8
Layer1
 10
402.072
 20
318.606
  0
VERTEX
  8
Layer1
 10
402.691
 20
318.816
  0
VERTEX
  8
Layer1
 10
403.278
 20
319.105
  0
VERTEX
  8
Layer1
 10
403.822
 20
319.469
  0
VERTEX
  8
Layer1
 10
404.313
 20
319.9
  0
VERTEX
  8
Layer1
 10
404.745
 20
320.391
  0
VERTEX
  8
Layer1
 10
405.108
 20
320.935
  0
VERTEX
  8
Layer1
 10
405.397
 20
321.522
  0
VERTEX
  8
Layer1
 10
405.608
 20
322.141
  0
VERTEX
  8
Layer1
 10
405.735
 20
322.783
  0
SEQEND
  0
POLYLINE
  8
Layer1
  6
CONTINUOUS
 62
7
 66
1
 10
0
 20
0
 30
0
 70
1
  0
VERTEX
  8
Layer1
 10
400.778
 20
327.01
  0
VERTEX
  8
Layer1
 10
397.682
 20
325.223
  0
VERTEX
  8
Layer1
 10
397.682
 20
321.648
  0
VERTEX
  8
Layer1
 10
400.778
 20
319.86
  0
VERTEX
  8
Layer1
 10
403.874
 20
321.648
  0
VERTEX
  8
Layer1
 10
403.874
 20
325.223
  0
SEQEND
  0
POLYLINE
  8
Layer1
  6
CONTINUOUS
 62
7
 66
1
 10
0
 20
0
 30
0
 70
1
  0
VERTEX
  8
Layer1
 10
404.353
 20
323.435
  0
VERTEX
  8
Layer1
 10
404.322
 20
323.902
  0
VERTEX
  8
Layer1
 10
404.231
 20
324.361
  0
VERTEX
  8
Layer1
 10
404.081
 20
324.803
  0
VERTEX
  8
Layer1
 10
403.874
 20
325.223
  0
VERTEX
  8
Layer1
 10
403.614
 20
325.612
  0
VERTEX
  8
Layer1
 10
403.306
 20
325.963
  0
VERTEX
  8
Layer1
 10
402.954
 20
326.272
  0
VERTEX
  8
Layer1
 10
402.565
 20
326.531
  0
VERTEX
  8
Layer1
 10
402.146
 20
326.738
  0
VERTEX
  8
Layer1
 10
401.703
 20
326.888
  0
VERTEX
  8
Layer1
 10
401.245
 20
326.98
  0
VERTEX
  8
Layer1
 10
400.778
 20
327.01
  0
VERTEX
  8
Layer1
 10
400.311
 20
326.98
  0
VERTEX
  8
Layer1
 10
399.853
 20
326.888
  0
VERTEX
  8
Layer1
 10
399.41
 20
326.738
  0
VERTEX
  8
Layer1
 10
398.99
 20
326.531
  0
VERTEX
  8
Layer1
 10
398.602
 20
326.272
  0
VERTEX
  8
Layer1
 10
398.25
 20
325.963
  0
VERTEX
  8
Layer1
 10
397.942
 20
325.612
  0
VERTEX
  8
Layer1
 10
397.682
 20
325.223
  0
VERTEX
  8
Layer1
 10
397.475
 20
324.803
  0
VERTEX
  8
Layer1
 10
397.325
 20
324.361
  0
VERTEX
  8
Layer1
 10
397.234
 20
323.902
  0
VERTEX
  8
Layer1
 10
397.203
 20
323.435
  0
VERTEX
  8
Layer1
 10
397.234
 20
322.969
  0
VERTEX
  8
Layer1
 10
397.325
 20
322.51
  0
VERTEX
  8
Layer1
 10
397.475
 20
322.067
  0
VERTEX
  8
Layer1
 10
397.682
 20
321.648
  0
VERTEX
  8
Layer1
 10
397.942
 20
321.259
  0
VERTEX
  8
Layer1
 10
398.25
 20
320.907
  0
VERTEX
  8
Layer1
 10
398.602
 20
320.599
  0
VERTEX
  8
Layer1
 10
398.99
 20
320.339
  0
VERTEX
  8
Layer1
 10
399.41
 20
320.132
  0
VERTEX
  8
Layer1
 10
399.853
 20
319.982
  0
VERTEX
  8
Layer1
 10
400.311
 20
319.891
  0
VERTEX
  8
Layer1
 10
400.778
 20
319.86
  0
VERTEX
  8
Layer1
 10
401.245
 20
319.891
  0
VERTEX
  8
Layer1
 10
401.703
 20
319.982
  0
VERTEX
  8
Layer1
 10
402.146
 20
320.132
  0
VERTEX
  8
Layer1
 10
402.565
 20
320.339
  0
VERTEX
  8
Layer1
 10
402.954
 20
320.599
  0
VERTEX
  8
Layer1
 10
403.306
 20
320.907
  0
VERTEX
  8
Layer1
 10
403.614
 20
321.259
  0
VERTEX
  8
Layer1
 10
403.874
 20
321.648
  0
VERTEX
  8
Layer1
 10
404.081
 20
322.067
  0
VERTEX
  8
Layer1
 10
404.231
 20
322.51
  0
VERTEX
  8
Layer1
 10
404.322
 20
322.969
  0
SEQEND
  0
POLYLINE
  8
Layer1
  6
CONTINUOUS
 62
7
 66
1
 10
0
 20
0
 30
0
 70
1
  0
VERTEX
  8
Layer1
 10
455.778
 20
323.435
  0
VERTEX
  8
Layer1
 10
455.735
 20
324.088
  0
VERTEX
  8
Layer1
 10
455.608
 20
324.729
  0
VERTEX
  8
Layer1
 10
455.397
 20
325.349
  0
VERTEX
  8
Layer1
 10
455.108
 20
325.935
  0
VERTEX
  8
Layer1
 10
454.745
 20
326.479
  0
VERTEX
  8
Layer1
 10
454.313
 20
326.971
  0
VERTEX
  8
Layer1
 10
453.822
 20
327.402
  0
VERTEX
  8
Layer1
 10
453.278
 20
327.765
  0
VERTEX
  8
Layer1
 10
452.691
 20
328.055
  0
VERTEX
  8
Layer1
 10
452.072
 20
328.265
  0
VERTEX
  8
Layer1
 10
451.431
 20
328.392
  0
VERTEX
  8
Layer1
 10
450.778
 20
328.435
  0
VERTEX
  8
Layer1
 10
450.125
 20
328.392
  0
VERTEX
  8
Layer1
 10
449.484
 20
328.265
  0
VERTEX
  8
Layer1
 10
448.865
 20
328.055
  0
VERTEX
  8
Layer1
 10
448.278
 20
327.765
  0
VERTEX
  8
Layer1
 10
447.734
 20
327.402
  0
VERTEX
  8
Layer1
 10
447.242
 20
326.971
  0
VERTEX
  8
Layer1
 10
446.811
 20
326.479
  0
VERTEX
  8
Layer1
 10
446.448
 20
325.935
  0
VERTEX
  8
Layer1
 10
446.159
 20
325.349
  0
VERTEX
  8
Layer1
 10
445.948
 20
324.729
  0
VERTEX
  8
Layer1
 10
445.821
 20
324.088
  0
VERTEX
  8
Layer1
 10
445.778
 20
323.435
  0
VERTEX
  8
Layer1
 10
445.821
 20
322.783
  0
VERTEX
  8
Layer1
 10
445.948
 20
322.141
  0
VERTEX
  8
Layer1
 10
446.159
 20
321.522
  0
VERTEX
  8
Layer1
 10
446.448
 20
320.935
  0
VERTEX
  8
Layer1
 10
446.811
 20
320.391
  0
VERTEX
  8
Layer1
 10
447.242
 20
319.9
  0
VERTEX
  8
Layer1
 10
447.734
 20
319.469
  0
VERTEX
  8
Layer1
 10
448.278
 20
319.105
  0
VERTEX
  8
Layer1
 10
448.865
 20
318.816
  0
VERTEX
  8
Layer1
 10
449.484
 20
318.606
  0
VERTEX
  8
Layer1
 10
450.125
 20
318.478
  0
VERTEX
  8
Layer1
 10
450.778
 20
318.435
  0
VERTEX
  8
Layer1
 10
451.431
 20
318.478
  0
VERTEX
  8
Layer1
 10
452.072
 20
318.606
  0
VERTEX
  8
Layer1
 10
452.691
 20
318.816
  0
VERTEX
  8
Layer1
 10
453.278
 20
319.105
  0
VERTEX
  8
Layer1
 10
453.822
 20
319.469
  0
VERTEX
  8
Layer1
 10
454.313
 20
319.9
  0
VERTEX
  8
Layer1
 10
454.745
 20
320.391
  0
VERTEX
  8
Layer1
 10
455.108
 20
320.935
  0
VERTEX
  8
Layer1
 10
455.397
 20
321.522
  0
VERTEX
  8
Layer1
 10
455.608
 20
322.141
  0
VERTEX
  8
Layer1
 10
455.735
 20
322.783
  0
SEQEND
  0
POLYLINE
  8
Layer1
  6
CONTINUOUS
 62
7
 66
1
 10
0
 20
0
 30
0
 70
1
  0
VERTEX
  8
Layer1
 10
450.778
 20
327.01
  0
VERTEX
  8
Layer1
 10
447.682
 20
325.223
  0
VERTEX
  8
Layer1
 10
447.682
 20
321.648
  0
VERTEX
  8
Layer1
 10
450.778
 20
319.86
  0
VERTEX
  8
Layer1
 10
453.874
 20
321.648
  0
VERTEX
  8
Layer1
 10
453.874
 20
325.223
  0
SEQEND
  0
POLYLINE
  8
Layer1
  6
CONTINUOUS
 62
7
 66
1
 10
0
 20
0
 30
0
 70
1
  0
VERTEX
  8
Layer1
 10
454.353
 20
323.435
  0
VERTEX
  8
Layer1
 10
454.322
 20
323.902
  0
VERTEX
  8
Layer1
 10
454.231
 20
324.361
  0
VERTEX
  8
Layer1
 10
454.081
 20
324.803
  0
VERTEX
  8
Layer1
 10
453.874
 20
325.223
  0
VERTEX
  8
Layer1
 10
453.614
 20
325.612
  0
VERTEX
  8
Layer1
 10
453.306
 20
325.963
  0
VERTEX
  8
Layer1
 10
452.954
 20
326.272
  0
VERTEX
  8
Layer1
 10
452.565
 20
326.531
  0
VERTEX
  8
Layer1
 10
452.146
 20
326.738
  0
VERTEX
  8
Layer1
 10
451.703
 20
326.888
  0
VERTEX
  8
Layer1
 10
451.245
 20
326.98
  0
VERTEX
  8
Layer1
 10
450.778
 20
327.01
  0
VERTEX
  8
Layer1
 10
450.311
 20
326.98
  0
VERTEX
  8
Layer1
 10
449.853
 20
326.888
  0
VERTEX
  8
Layer1
 10
449.41
 20
326.738
  0
VERTEX
  8
Layer1
 10
448.99
 20
326.531
  0
VERTEX
  8
Layer1
 10
448.602
 20
326.272
  0
VERTEX
  8
Layer1
 10
448.25
 20
325.963
  0
VERTEX
  8
Layer1
 10
447.942
 20
325.612
  0
VERTEX
  8
Layer1
 10
447.682
 20
325.223
  0
VERTEX
  8
Layer1
 10
447.475
 20
324.803
  0
VERTEX
  8
Layer1
 10
447.325
 20
324.361
  0
VERTEX
  8
Layer1
 10
447.234
 20
323.902
  0
VERTEX
  8
Layer1
 10
447.203
 20
323.435
  0
VERTEX
  8
Layer1
 10
447.234
 20
322.969
  0
VERTEX
  8
Layer1
 10
447.325
 20
322.51
  0
VERTEX
  8
Layer1
 10
447.475
 20
322.067
  0
VERTEX
  8
Layer1
 10
447.682
 20
321.648
  0
VERTEX
  8
Layer1
 10
447.942
 20
321.259
  0
VERTEX
  8
Layer1
 10
448.25
 20
320.907
  0
VERTEX
  8
Layer1
 10
448.602
 20
320.599
  0
VERTEX
  8
Layer1
 10
448.99
 20
320.339
  0
VERTEX
  8
Layer1
 10
449.41
 20
320.132
  0
VERTEX
  8
Layer1
 10
449.853
 20
319.982
  0
VERTEX
  8
Layer1
 10
450.311
 20
319.891
  0
VERTEX
  8
Layer1
 10
450.778
 20
319.86
  0
VERTEX
  8
Layer1
 10
451.245
 20
319.891
  0
VERTEX
  8
Layer1
 10
451.703
 20
319.982
  0
VERTEX
  8
Layer1
 10
452.146
 20
320.132
  0
VERTEX
  8
Layer1
 10
452.565
 20
320.339
  0
VERTEX
  8
Layer1
 10
452.954
 20
320.599
  0
VERTEX
  8
Layer1
 10
453.306
 20
320.907
  0
VERTEX
  8
Layer1
 10
453.614
 20
321.259
  0
VERTEX
  8
Layer1
 10
453.874
 20
321.648
  0
VERTEX
  8
Layer1
 10
454.081
 20
322.067
  0
VERTEX
  8
Layer1
 10
454.231
 20
322.51
  0
VERTEX
  8
Layer1
 10
454.322
 20
322.969
  0
SEQEND
  0
POLYLINE
  8
Layer1
  6
CONTINUOUS
 62
7
 66
1
 10
0
 20
0
 30
0
 70
1
  0
VERTEX
  8
Layer1
 10
455.778
 20
298.435
  0
VERTEX
  8
Layer1
 10
455.735
 20
299.088
  0
VERTEX
  8
Layer1
 10
455.608
 20
299.729
  0
VERTEX
  8
Layer1
 10
455.397
 20
300.349
  0
VERTEX
  8
Layer1
 10
455.108
 20
300.935
  0
VERTEX
  8
Layer1
 10
454.745
 20
301.479
  0
VERTEX
  8
Layer1
 10
454.313
 20
301.971
  0
VERTEX
  8
Layer1
 10
453.822
 20
302.402
  0
VERTEX
  8
Layer1
 10
453.278
 20
302.765
  0
VERTEX
  8
Layer1
 10
452.691
 20
303.055
  0
VERTEX
  8
Layer1
 10
452.072
 20
303.265
  0
VERTEX
  8
Layer1
 10
451.431
 20
303.392
  0
VERTEX
  8
Layer1
 10
450.778
 20
303.435
  0
VERTEX
  8
Layer1
 10
450.125
 20
303.392
  0
VERTEX
  8
Layer1
 10
449.484
 20
303.265
  0
VERTEX
  8
Layer1
 10
448.865
 20
303.055
  0
VERTEX
  8
Layer1
 10
448.278
 20
302.765
  0
VERTEX
  8
Layer1
 10
447.734
 20
302.402
  0
VERTEX
  8
Layer1
 10
447.242
 20
301.971
  0
VERTEX
  8
Layer1
 10
446.811
 20
301.479
  0
VERTEX
  8
Layer1
 10
446.448
 20
300.935
  0
VERTEX
  8
Layer1
 10
446.159
 20
300.349
  0
VERTEX
  8
Layer1
 10
445.948
 20
299.729
  0
VERTEX
  8
Layer1
 10
445.821
 20
299.088
  0
VERTEX
  8
Layer1
 10
445.778
 20
298.435
  0
VERTEX
  8
Layer1
 10
445.821
 20
297.783
  0
VERTEX
  8
Layer1
 10
445.948
 20
297.141
  0
VERTEX
  8
Layer1
 10
446.159
 20
296.522
  0
VERTEX
  8
Layer1
 10
446.448
 20
295.935
  0
VERTEX
  8
Layer1
 10
446.811
 20
295.391
  0
VERTEX
  8
Layer1
 10
447.242
 20
294.9
  0
VERTEX
  8
Layer1
 10
447.734
 20
294.469
  0
VERTEX
  8
Layer1
 10
448.278
 20
294.105
  0
VERTEX
  8
Layer1
 10
448.865
 20
293.816
  0
VERTEX
  8
Layer1
 10
449.484
 20
293.606
  0
VERTEX
  8
Layer1
 10
450.125
 20
293.478
  0
VERTEX
  8
Layer1
 10
450.778
 20
293.435
  0
VERTEX
  8
Layer1
 10
451.431
 20
293.478
  0
VERTEX
  8
Layer1
 10
452.072
 20
293.606
  0
VERTEX
  8
Layer1
 10
452.691
 20
293.816
  0
VERTEX
  8
Layer1
 10
453.278
 20
294.105
  0
VERTEX
  8
Layer1
 10
453.822
 20
294.469
  0
VERTEX
  8
Layer1
 10
454.313
 20
294.9
  0
VERTEX
  8
Layer1
 10
454.745
 20
295.391
  0
VERTEX
  8
Layer1
 10
455.108
 20
295.935
  0
VERTEX
  8
Layer1
 10
455.397
 20
296.522
  0
VERTEX
  8
Layer1
 10
455.608
 20
297.141
  0
VERTEX
  8
Layer1
 10
455.735
 20
297.783
  0
SEQEND
  0
POLYLINE
  8
Layer1
  6
CONTINUOUS
 62
7
 66
1
 10
0
 20
0
 30
0
 70
1
  0
VERTEX
  8
Layer1
 10
450.778
 20
302.01
  0
VERTEX
  8
Layer1
 10
447.682
 20
300.223
  0
VERTEX
  8
Layer1
 10
447.682
 20
296.648
  0
VERTEX
  8
Layer1
 10
450.778
 20
294.86
  0
VERTEX
  8
Layer1
 10
453.874
 20
296.648
  0
VERTEX
  8
Layer1
 10
453.874
 20
300.223
  0
SEQEND
  0
POLYLINE
  8
Layer1
  6
CONTINUOUS
 62
7
 66
1
 10
0
 20
0
 30
0
 70
1
  0
VERTEX
  8
Layer1
 10
454.353
 20
298.435
  0
VERTEX
  8
Layer1
 10
454.322
 20
298.902
  0
VERTEX
  8
Layer1
 10
454.231
 20
299.361
  0
VERTEX
  8
Layer1
 10
454.081
 20
299.803
  0
VERTEX
  8
Layer1
 10
453.874
 20
300.223
  0
VERTEX
  8
Layer1
 10
453.614
 20
300.612
  0
VERTEX
  8
Layer1
 10
453.306
 20
300.963
  0
VERTEX
  8
Layer1
 10
452.954
 20
301.272
  0
VERTEX
  8
Layer1
 10
452.565
 20
301.531
  0
VERTEX
  8
Layer1
 10
452.146
 20
301.738
  0
VERTEX
  8
Layer1
 10
451.703
 20
301.888
  0
VERTEX
  8
Layer1
 10
451.245
 20
301.98
  0
VERTEX
  8
Layer1
 10
450.778
 20
302.01
  0
VERTEX
  8
Layer1
 10
450.311
 20
301.98
  0
VERTEX
  8
Layer1
 10
449.853
 20
301.888
  0
VERTEX
  8
Layer1
 10
449.41
 20
301.738
  0
VERTEX
  8
Layer1
 10
448.99
 20
301.531
  0
VERTEX
  8
Layer1
 10
448.602
 20
301.272
  0
VERTEX
  8
Layer1
 10
448.25
 20
300.963
  0
VERTEX
  8
Layer1
 10
447.942
 20
300.612
  0
VERTEX
  8
Layer1
 10
447.682
 20
300.223
  0
VERTEX
  8
Layer1
 10
447.475
 20
299.803
  0
VERTEX
  8
Layer1
 10
447.325
 20
299.361
  0
VERTEX
  8
Layer1
 10
447.234
 20
298.902
  0
VERTEX
  8
Layer1
 10
447.203
 20
298.435
  0
VERTEX
  8
Layer1
 10
447.234
 20
297.969
  0
VERTEX
  8
Layer1
 10
447.325
 20
297.51
  0
VERTEX
  8
Layer1
 10
447.475
 20
297.067
  0
VERTEX
  8
Layer1
 10
447.682
 20
296.648
  0
VERTEX
  8
Layer1
 10
447.942
 20
296.259
  0
VERTEX
  8
Layer1
 10
448.25
 20
295.907
  0
VERTEX
  8
Layer1
 10
448.602
 20
295.599
  0
VERTEX
  8
Layer1
 10
448.99
 20
295.339
  0
VERTEX
  8
Layer1
 10
449.41
 20
295.132
  0
VERTEX
  8
Layer1
 10
449.853
 20
294.982
  0
VERTEX
  8
Layer1
 10
450.311
 20
294.891
  0
VERTEX
  8
Layer1
 10
450.778
 20
294.86
  0
VERTEX
  8
Layer1
 10
451.245
 20
294.891
  0
VERTEX
  8
Layer1
 10
451.703
 20
294.982
  0
VERTEX
  8
Layer1
 10
452.146
 20
295.132
  0
VERTEX
  8
Layer1
 10
452.565
 20
295.339
  0
VERTEX
  8
Layer1
 10
452.954
 20
295.599
  0
VERTEX
  8
Layer1
 10
453.306
 20
295.907
  0
VERTEX
  8
Layer1
 10
453.614
 20
296.259
  0
VERTEX
  8
Layer1
 10
453.874
 20
296.648
  0
VERTEX
  8
Layer1
 10
454.081
 20
297.067
  0
VERTEX
  8
Layer1
 10
454.231
 20
297.51
  0
VERTEX
  8
Layer1
 10
454.322
 20
297.969
  0
SEQEND
  0
LINE
  8
Layer1
  6
CENTER2
 62
7
 10
425.778
 20
417.802
 11
425.778
 21
345.193
  0
LINE
  8
Layer1
  6
DASHED1
 62
7
 10
457.778
 20
316.935
 11
457.778
 21
346.935
  0
LINE
  8
Layer1
  6
CONTINUOUS
 62
7
 10
457.778
 20
346.935
 11
457.778
 21
385.935
  0
LINE
  8
Layer1
  6
DASHED1
 62
7
 10
393.778
 20
316.935
 11
393.778
 21
346.935
  0
LINE
  8
Layer1
  6
CONTINUOUS
 62
7
 10
393.778
 20
346.935
 11
393.778
 21
385.935
  0
LINE
  8
Layer1
  6
CONTINUOUS
 62
7
 10
690.532
 20
346.935
 11
690.532
 21
336.923
  0
LINE
  8
Layer1
  6
CONTINUOUS
 62
7
 10
690.994
 20
345.935
 11
690.994
 21
337.935
  0
LINE
  8
Layer1
  6
DASHED1
 62
7
 10
671.684
 20
326.435
 11
671.684
 21
320.435
  0
POLYLINE
  8
Layer1
  6
CONTINUOUS
 62
7
 66
1
 10
0
 20
0
 30
0
  0
VERTEX
  8
Layer1
 10
676.12
 20
346.935
  0
VERTEX
  8
Layer1
 10
676.247
 20
346.072
  0
VERTEX
  8
Layer1
 10
676.376
 20
345.212
  0
VERTEX
  8
Layer1
 10
676.512
 20
344.354
  0
VERTEX
  8
Layer1
 10
676.657
 20
343.502
  0
VERTEX
  8
Layer1
 10
676.815
 20
342.656
  0
VERTEX
  8
Layer1
 10
676.988
 20
341.82
  0
VERTEX
  8
Layer1
 10
677.179
 20
340.995
  0
VERTEX
  8
Layer1
 10
677.393
 20
340.181
  0
VERTEX
  8
Layer1
 10
677.631
 20
339.381
  0
VERTEX
  8
Layer1
 10
677.897
 20
338.597
  0
VERTEX
  8
Layer1
 10
678.195
 20
337.832
  0
VERTEX
  8
Layer1
 10
678.526
 20
337.084
  0
VERTEX
  8
Layer1
 10
678.895
 20
336.358
  0
VERTEX
  8
Layer1
 10
679.305
 20
335.656
  0
VERTEX
  8
Layer1
 10
679.757
 20
334.977
  0
VERTEX
  8
Layer1
 10
680.256
 20
334.325
  0
VERTEX
  8
Layer1
 10
680.805
 20
333.701
  0
VERTEX
  8
Layer1
 10
681.393
 20
333.099
  0
VERTEX
  8
Layer1
 10
682.003
 20
332.511
  0
VERTEX
  8
Layer1
 10
682.616
 20
331.928
  0
VERTEX
  8
Layer1
 10
683.215
 20
331.338
  0
VERTEX
  8
Layer1
 10
683.781
 20
330.735
  0
VERTEX
  8
Layer1
 10
684.297
 20
330.108
  0
VERTEX
  8
Layer1
 10
684.744
 20
329.448
  0
VERTEX
  8
Layer1
 10
685.108
 20
328.746
  0
VERTEX
  8
Layer1
 10
685.395
 20
328.008
  0
VERTEX
  8
Layer1
 10
685.615
 20
327.236
  0
VERTEX
  8
Layer1
 10
685.781
 20
326.436
  0
VERTEX
  8
Layer1
 10
685.902
 20
325.613
  0
VERTEX
  8
Layer1
 10
685.991
 20
324.773
  0
VERTEX
  8
Layer1
 10
686.058
 20
323.921
  0
VERTEX
  8
Layer1
 10
686.116
 20
323.061
  0
VERTEX
  8
Layer1
 10
686.173
 20
322.2
  0
VERTEX
  8
Layer1
 10
686.243
 20
321.341
  0
VERTEX
  8
Layer1
 10
686.337
 20
320.492
  0
VERTEX
  8
Layer1
 10
686.464
 20
319.654
  0
VERTEX
  8
Layer1
 10
686.627
 20
318.832
  0
VERTEX
  8
Layer1
 10
686.825
 20
318.024
  0
VERTEX
  8
Layer1
 10
687.056
 20
317.229
  0
VERTEX
  8
Layer1
 10
687.318
 20
316.447
  0
VERTEX
  8
Layer1
 10
687.61
 20
315.676
  0
VERTEX
  8
Layer1
 10
687.928
 20
314.917
  0
VERTEX
  8
Layer1
 10
688.272
 20
314.167
  0
VERTEX
  8
Layer1
 10
688.641
 20
313.428
  0
VERTEX
  8
Layer1
 10
689.031
 20
312.697
  0
VERTEX
  8
Layer1
 10
689.441
 20
311.975
  0
VERTEX
  8
Layer1
 10
689.869
 20
311.261
  0
VERTEX
  8
Layer1
 10
690.314
 20
310.553
  0
VERTEX
  8
Layer1
 10
690.774
 20
309.851
  0
VERTEX
  8
Layer1
 10
691.247
 20
309.155
  0
VERTEX
  8
Layer1
 10
691.731
 20
308.463
  0
VERTEX
  8
Layer1
 10
692.224
 20
307.776
  0
VERTEX
  8
Layer1
 10
692.725
 20
307.091
  0
VERTEX
  8
Layer1
 10
693.232
 20
306.41
  0
VERTEX
  8
Layer1
 10
693.742
 20
305.73
  0
VERTEX
  8
Layer1
 10
694.254
 20
305.052
  0
VERTEX
  8
Layer1
 10
694.767
 20
304.374
  0
VERTEX
  8
Layer1
 10
695.279
 20
303.695
  0
VERTEX
  8
Layer1
 10
695.786
 20
303.017
  0
VERTEX
  8
Layer1
 10
696.288
 20
302.335
  0
VERTEX
  8
Layer1
 10
696.781
 20
301.651
  0
VERTEX
  8
Layer1
 10
697.261
 20
300.961
  0
VERTEX
  8
Layer1
 10
697.725
 20
300.265
  0
VERTEX
  8
Layer1
 10
698.169
 20
299.56
  0
VERTEX
  8
Layer1
 10
698.59
 20
298.845
  0
VERTEX
  8
Layer1
 10
698.982
 20
298.118
  0
VERTEX
  8
Layer1
 10
699.344
 20
297.379
  0
VERTEX
  8
Layer1
 10
699.672
 20
296.625
  0
VERTEX
  8
Layer1
 10
699.962
 20
295.853
  0
VERTEX
  8
Layer1
 10
700.209
 20
295.064
  0
VERTEX
  8
Layer1
 10
700.414
 20
294.256
  0
VERTEX
  8
Layer1
 10
700.58
 20
293.431
  0
VERTEX
  8
Layer1
 10
700.71
 20
292.591
  0
VERTEX
  8
Layer1
 10
700.807
 20
291.739
  0
VERTEX
  8
Layer1
 10
700.876
 20
290.874
  0
VERTEX
  8
Layer1
 10
700.92
 20
290
  0
VERTEX
  8
Layer1
 10
700.944
 20
289.118
  0
VERTEX
  8
Layer1
 10
700.95
 20
288.231
  0
VERTEX
  8
Layer1
 10
700.942
 20
287.341
  0
VERTEX
  8
Layer1
 10
700.923
 20
286.448
  0
VERTEX
  8
Layer1
 10
700.899
 20
285.555
  0
VERTEX
  8
Layer1
 10
700.872
 20
284.665
  0
VERTEX
  8
Layer1
 10
700.845
 20
283.778
  0
VERTEX
  8
Layer1
 10
700.823
 20
282.896
  0
VERTEX
  8
Layer1
 10
700.81
 20
282.023
  0
VERTEX
  8
Layer1
 10
700.809
 20
281.158
  0
VERTEX
  8
Layer1
 10
700.823
 20
280.305
  0
VERTEX
  8
Layer1
 10
700.857
 20
279.465
  0
VERTEX
  8
Layer1
 10
700.913
 20
278.64
  0
VERTEX
  8
Layer1
 10
700.997
 20
277.832
  0
VERTEX
  8
Layer1
 10
701.111
 20
277.043
  0
VERTEX
  8
Layer1
 10
701.259
 20
276.275
  0
VERTEX
  8
Layer1
 10
701.445
 20
275.528
  0
VERTEX
  8
Layer1
 10
701.672
 20
274.807
  0
VERTEX
  8
Layer1
 10
701.944
 20
274.112
  0
VERTEX
  8
Layer1
 10
702.265
 20
273.445
  0
VERTEX
  8
Layer1
 10
702.639
 20
272.808
  0
VERTEX
  8
Layer1
 10
703.067
 20
272.202
  0
VERTEX
  8
Layer1
 10
703.55
 20
271.627
  0
VERTEX
  8
Layer1
 10
704.081
 20
271.081
  0
VERTEX
  8
Layer1
 10
704.66
 20
270.56
  0
VERTEX
  8
Layer1
 10
705.28
 20
270.064
  0
VERTEX
  8
Layer1
 10
705.938
 20
269.589
  0
VERTEX
  8
Layer1
 10
706.631
 20
269.133
  0
VERTEX
  8
Layer1
 10
707.355
 20
268.696
  0
VERTEX
  8
Layer1
 10
708.105
 20
268.273
  0
VERTEX
  8
Layer1
 10
708.879
 20
267.864
  0
VERTEX
  8
Layer1
 10
709.67
 20
267.465
  0
VERTEX
  8
Layer1
 10
710.478
 20
267.075
  0
VERTEX
  8
Layer1
 10
711.298
 20
266.691
  0
VERTEX
  8
Layer1
 10
712.125
 20
266.313
  0
VERTEX
  8
Layer1
 10
712.955
 20
265.935
  0
SEQEND
  0
LINE
  8
Layer1
  6
CONTINUOUS
 62
7
 10
768.032
 20
403.931
 11
768.032
 21
267.012
  0
LINE
  8
Layer1
  6
CONTINUOUS
 62
7
 10
767.107
 20
404.935
 11
768.032
 21
404.01
  0
LINE
  8
Layer1
  6
CONTINUOUS
 62
7
 10
632.032
 20
319.435
 11
632.032
 21
327.435
  0
LINE
  8
Layer1
  6
CONTINUOUS
 62
7
 10
633.032
 20
328.435
 11
638.032
 21
328.435
  0
LINE
  8
Layer1
  6
CONTINUOUS
 62
7
 10
633.032
 20
318.435
 11
638.032
 21
318.435
  0
LINE
  8
Layer1
  6
CONTINUOUS
 62
7
 10
638.032
 20
328.935
 11
638.032
 21
317.935
  0
LINE
  8
Layer1
  6
CONTINUOUS
 62
7
 10
632.032
 20
319.435
 11
633.032
 21
318.435
  0
LINE
  8
Layer1
  6
CONTINUOUS
 62
7
 10
638.032
 20
328.935
 11
631.032
 21
328.935
  0
LINE
  8
Layer1
  6
CONTINUOUS
 62
7
 10
638.032
 20
317.935
 11
631.032
 21
317.935
  0
LINE
  8
Layer1
  6
CONTINUOUS
 62
7
 10
633.032
 20
328.435
 11
633.032
 21
318.435
  0
LINE
  8
Layer1
  6
CONTINUOUS
 62
7
 10
633.032
 20
328.435
 11
638.032
 21
328.435
  0
LINE
  8
Layer1
  6
CONTINUOUS
 62
7
 10
632.032
 20
327.435
 11
633.032
 21
328.435
  0
LINE
  8
Layer1
  6
CONTINUOUS
 62
7
 10
638.032
 20
328.435
 11
633.032
 21
328.435
  0
LINE
  8
Layer1
  6
CONTINUOUS
 62
7
 10
637.782
 20
327.935
 11
633.282
 21
327.935
  0
LINE
  8
Layer1
  6
CONTINUOUS
 62
7
 10
637.282
 20
326.935
 11
633.782
 21
326.935
  0
LINE
  8
Layer1
  6
CONTINUOUS
 62
7
 10
636.782
 20
325.935
 11
634.282
 21
325.935
  0
LINE
  8
Layer1
  6
CONTINUOUS
 62
7
 10
783.032
 20
555.664
 11
790.532
 21
555.664
  0
LINE
  8
Layer1
  6
CONTINUOUS
 62
7
 10
783.032
 20
568.664
 11
790.532
 21
568.664
  0
LINE
  8
Layer1
  6
CONTINUOUS
 62
7
 10
790.532
 20
555.664
 11
790.532
 21
568.664
  0
LINE
  8
Layer1
  6
CONTINUOUS
 62
7
 10
791.032
 20
556.164
 11
791.032
 21
568.164
  0
LINE
  8
Layer1
  6
CONTINUOUS
 62
7
 10
790.532
 20
555.664
 11
791.032
 21
556.164
  0
LINE
  8
Layer1
  6
CONTINUOUS
 62
7
 10
790.532
 20
568.664
 11
791.032
 21
568.164
  0
LINE
  8
Layer1
  6
CONTINUOUS
 62
7
 10
783.032
 20
568.664
 11
783.032
 21
555.664
  0
LINE
  8
Layer1
  6
CONTINUOUS
 62
7
 10
783.609
 20
567.664
 11
789.955
 21
567.664
  0
LINE
  8
Layer1
  6
CONTINUOUS
 62
7
 10
784.186
 20
566.664
 11
789.378
 21
566.664
  0
LINE
  8
Layer1
  6
CONTINUOUS
 62
7
 10
784.763
 20
565.664
 11
788.801
 21
565.664
  0
LINE
  8
Layer1
  6
CONTINUOUS
 62
7
 10
785.34
 20
564.664
 11
788.224
 21
564.664
  0
LINE
  8
Layer1
  6
CONTINUOUS
 62
7
 10
783.032
 20
473.664
 11
790.532
 21
473.664
  0
LINE
  8
Layer1
  6
CONTINUOUS
 62
7
 10
783.032
 20
486.664
 11
790.532
 21
486.664
  0
LINE
  8
Layer1
  6
CONTINUOUS
 62
7
 10
790.532
 20
473.664
 11
790.532
 21
486.664
  0
LINE
  8
Layer1
  6
CONTINUOUS
 62
7
 10
791.032
 20
474.164
 11
791.032
 21
486.164
  0
LINE
  8
Layer1
  6
CONTINUOUS
 62
7
 10
790.532
 20
473.664
 11
791.032
 21
474.164
  0
LINE
  8
Layer1
  6
CONTINUOUS
 62
7
 10
790.532
 20
486.664
 11
791.032
 21
486.164
  0
LINE
  8
Layer1
  6
CONTINUOUS
 62
7
 10
783.032
 20
486.664
 11
783.032
 21
473.664
  0
LINE
  8
Layer1
  6
CONTINUOUS
 62
7
 10
783.609
 20
485.664
 11
789.955
 21
485.664
  0
LINE
  8
Layer1
  6
CONTINUOUS
 62
7
 10
784.186
 20
484.664
 11
789.378
 21
484.664
  0
LINE
  8
Layer1
  6
CONTINUOUS
 62
7
 10
784.763
 20
483.664
 11
788.801
 21
483.664
  0
LINE
  8
Layer1
  6
CONTINUOUS
 62
7
 10
785.34
 20
482.664
 11
788.224
 21
482.664
  0
CIRCLE
  8
Layer1
  6
CONTINUOUS
 62
7
 10
687.994
 20
521.164
 40
3.76681
  0
ARC
  8
Layer1
  6
CONTINUOUS
 62
7
 10
683.521
 20
521.198
 40
1
 50
140.711
 51
225
  0
LINE
  8
Layer1
  6
CONTINUOUS
 62
7
 10
692.504
 20
522.808
 11
694.767
 21
522.808
  0
LINE
  8
Layer1
  6
CONTINUOUS
 62
7
 10
692.504
 20
519.323
 11
694.767
 21
519.323
  0
LINE
  8
Layer1
  6
CONTINUOUS
 62
7
 10
694.767
 20
522.808
 11
694.767
 21
519.323
  0
ARC
  8
Layer1
  6
CONTINUOUS
 62
7
 10
687.994
 20
521.164
 40
4.80058
 50
20.031
 51
140.098
  0
ARC
  8
Layer1
  6
CONTINUOUS
 62
7
 10
687.994
 20
521.164
 40
4.80058
 50
218.056
 51
337.793
  0
ARC
  8
Layer1
  6
CONTINUOUS
 62
7
 10
675.101
 20
513.913
 40
10.1292
 50
24.1178
 51
40.4581
  0
ARC
  8
Layer1
  6
CONTINUOUS
 62
7
 10
675.04
 20
528.404
 40
10.1292
 50
319.542
 51
335.882
  0
ARC
  8
Layer1
  6
CONTINUOUS
 62
7
 10
693.636
 20
522.808
 40
0.542282
 50
0
 51
180
  0
ARC
  8
Layer1
  6
CONTINUOUS
 62
7
 10
693.636
 20
519.323
 40
0.657613
 50
180
 51
2.03555e-013
  0
LINE
  8
Layer1
  6
CONTINUOUS
 62
7
 10
422.026
 20
353.485
 11
429.871
 21
353.485
  0
LINE
  8
Layer1
  6
CONTINUOUS
 62
7
 10
421.698
 20
352.881
 11
430.172
 21
352.881
  0
LINE
  8
Layer1
  6
CONTINUOUS
 62
7
 10
421.603
 20
349.502
 11
430.052
 21
349.502
  0
LINE
  8
Layer1
  6
CONTINUOUS
 62
7
 10
430.776
 20
348.778
 11
420.879
 21
348.778
  0
LINE
  8
Layer1
  6
CONTINUOUS
 62
7
 10
430.776
 20
348.778
 11
430.776
 21
346.907
  0
LINE
  8
Layer1
  6
CONTINUOUS
 62
7
 10
420.879
 20
348.778
 11
420.879
 21
346.907
  0
POLYLINE
  8
Layer1
  6
CONTINUOUS
 62
7
 66
1
 10
0
 20
0
 30
0
  0
VERTEX
  8
Layer1
 10
425.821
 20
350.698
  0
VERTEX
  8
Layer1
 10
425.755
 20
350.755
  0
VERTEX
  8
Layer1
 10
425.689
 20
350.81
  0
VERTEX
  8
Layer1
 10
425.62
 20
350.864
  0
VERTEX
  8
Layer1
 10
425.551
 20
350.916
  0
VERTEX
  8
Layer1
 10
425.48
 20
350.966
  0
VERTEX
  8
Layer1
 10
425.408
 20
351.014
  0
VERTEX
  8
Layer1
 10
425.335
 20
351.06
  0
VERTEX
  8
Layer1
 10
425.26
 20
351.104
  0
VERTEX
  8
Layer1
 10
425.184
 20
351.147
  0
VERTEX
  8
Layer1
 10
425.108
 20
351.187
  0
VERTEX
  8
Layer1
 10
425.03
 20
351.226
  0
VERTEX
  8
Layer1
 10
424.951
 20
351.262
  0
VERTEX
  8
Layer1
 10
424.872
 20
351.296
  0
VERTEX
  8
Layer1
 10
424.791
 20
351.329
  0
VERTEX
  8
Layer1
 10
424.71
 20
351.359
  0
VERTEX
  8
Layer1
 10
424.628
 20
351.387
  0
VERTEX
  8
Layer1
 10
424.545
 20
351.413
  0
VERTEX
  8
Layer1
 10
424.462
 20
351.437
  0
VERTEX
  8
Layer1
 10
424.378
 20
351.458
  0
VERTEX
  8
Layer1
 10
424.293
 20
351.478
  0
VERTEX
  8
Layer1
 10
424.208
 20
351.495
  0
VERTEX
  8
Layer1
 10
424.123
 20
351.51
  0
VERTEX
  8
Layer1
 10
424.037
 20
351.523
  0
VERTEX
  8
Layer1
 10
423.951
 20
351.533
  0
VERTEX
  8
Layer1
 10
423.865
 20
351.542
  0
VERTEX
  8
Layer1
 10
423.778
 20
351.548
  0
VERTEX
  8
Layer1
 10
423.692
 20
351.552
  0
VERTEX
  8
Layer1
 10
423.605
 20
351.554
  0
VERTEX
  8
Layer1
 10
423.518
 20
351.553
  0
VERTEX
  8
Layer1
 10
423.431
 20
351.55
  0
VERTEX
  8
Layer1
 10
423.345
 20
351.545
  0
VERTEX
  8
Layer1
 10
423.258
 20
351.538
  0
VERTEX
  8
Layer1
 10
423.172
 20
351.528
  0
VERTEX
  8
Layer1
 10
423.086
 20
351.517
  0
VERTEX
  8
Layer1
 10
423.001
 20
351.503
  0
VERTEX
  8
Layer1
 10
422.916
 20
351.486
  0
VERTEX
  8
Layer1
 10
422.831
 20
351.468
  0
VERTEX
  8
Layer1
 10
422.747
 20
351.447
  0
VERTEX
  8
Layer1
 10
422.663
 20
351.425
  0
VERTEX
  8
Layer1
 10
422.58
 20
351.4
  0
VERTEX
  8
Layer1
 10
422.497
 20
351.373
  0
VERTEX
  8
Layer1
 10
422.416
 20
351.344
  0
VERTEX
  8
Layer1
 10
422.335
 20
351.312
  0
VERTEX
  8
Layer1
 10
422.255
 20
351.279
  0
VERTEX
  8
Layer1
 10
422.176
 20
351.244
  0
VERTEX
  8
Layer1
 10
422.098
 20
351.206
  0
VERTEX
  8
Layer1
 10
422.02
 20
351.167
  0
VERTEX
  8
Layer1
 10
421.944
 20
351.125
  0
SEQEND
  0
POLYLINE
  8
Layer1
  6
CONTINUOUS
 62
7
 66
1
 10
0
 20
0
 30
0
  0
VERTEX
  8
Layer1
 10
430.173
 20
351.071
  0
VERTEX
  8
Layer1
 10
430.086
 20
351.106
  0
VERTEX
  8
Layer1
 10
429.997
 20
351.14
  0
VERTEX
  8
Layer1
 10
429.909
 20
351.172
  0
VERTEX
  8
Layer1
 10
429.819
 20
351.202
  0
VERTEX
  8
Layer1
 10
429.729
 20
351.231
  0
VERTEX
  8
Layer1
 10
429.639
 20
351.257
  0
VERTEX
  8
Layer1
 10
429.547
 20
351.282
  0
VERTEX
  8
Layer1
 10
429.456
 20
351.305
  0
VERTEX
  8
Layer1
 10
429.364
 20
351.326
  0
VERTEX
  8
Layer1
 10
429.271
 20
351.346
  0
VERTEX
  8
Layer1
 10
429.179
 20
351.363
  0
VERTEX
  8
Layer1
 10
429.085
 20
351.379
  0
VERTEX
  8
Layer1
 10
428.992
 20
351.393
  0
VERTEX
  8
Layer1
 10
428.898
 20
351.404
  0
VERTEX
  8
Layer1
 10
428.804
 20
351.414
  0
VERTEX
  8
Layer1
 10
428.71
 20
351.423
  0
VERTEX
  8
Layer1
 10
428.616
 20
351.429
  0
VERTEX
  8
Layer1
 10
428.522
 20
351.433
  0
VERTEX
  8
Layer1
 10
428.427
 20
351.436
  0
VERTEX
  8
Layer1
 10
428.333
 20
351.436
  0
VERTEX
  8
Layer1
 10
428.239
 20
351.435
  0
VERTEX
  8
Layer1
 10
428.144
 20
351.432
  0
VERTEX
  8
Layer1
 10
428.05
 20
351.427
  0
VERTEX
  8
Layer1
 10
427.956
 20
351.42
  0
VERTEX
  8
Layer1
 10
427.862
 20
351.411
  0
VERTEX
  8
Layer1
 10
427.768
 20
351.4
  0
VERTEX
  8
Layer1
 10
427.674
 20
351.388
  0
VERTEX
  8
Layer1
 10
427.581
 20
351.373
  0
VERTEX
  8
Layer1
 10
427.488
 20
351.357
  0
VERTEX
  8
Layer1
 10
427.395
 20
351.339
  0
VERTEX
  8
Layer1
 10
427.303
 20
351.318
  0
VERTEX
  8
Layer1
 10
427.211
 20
351.297
  0
VERTEX
  8
Layer1
 10
427.12
 20
351.273
  0
VERTEX
  8
Layer1
 10
427.029
 20
351.247
  0
VERTEX
  8
Layer1
 10
426.938
 20
351.22
  0
VERTEX
  8
Layer1
 10
426.849
 20
351.191
  0
VERTEX
  8
Layer1
 10
426.759
 20
351.16
  0
VERTEX
  8
Layer1
 10
426.671
 20
351.127
  0
VERTEX
  8
Layer1
 10
426.583
 20
351.093
  0
VERTEX
  8
Layer1
 10
426.496
 20
351.057
  0
VERTEX
  8
Layer1
 10
426.409
 20
351.019
  0
VERTEX
  8
Layer1
 10
426.323
 20
350.979
  0
VERTEX
  8
Layer1
 10
426.239
 20
350.938
  0
VERTEX
  8
Layer1
 10
426.155
 20
350.894
  0
VERTEX
  8
Layer1
 10
426.071
 20
350.85
  0
VERTEX
  8
Layer1
 10
425.989
 20
350.803
  0
VERTEX
  8
Layer1
 10
425.908
 20
350.755
  0
VERTEX
  8
Layer1
 10
425.828
 20
350.706
  0
SEQEND
  0
LINE
  8
Layer1
  6
CONTINUOUS
 62
7
 10
422.29
 20
351.294
 11
421.956
 21
351.104
  0
LINE
  8
Layer1
  6
CONTINUOUS
 62
7
 10
422.026
 20
353.485
 11
421.166
 21
351.901
  0
LINE
  8
Layer1
  6
CONTINUOUS
 62
7
 10
429.871
 20
353.485
 11
430.758
 21
351.669
  0
LINE
  8
Layer1
  6
CONTINUOUS
 62
7
 10
429.689
 20
351.215
 11
430.173
 21
351.071
  0
POLYLINE
  8
Layer1
  6
CONTINUOUS
 62
7
 66
1
 10
0
 20
0
 30
0
  0
VERTEX
  8
Layer1
 10
421.166
 20
351.901
  0
VERTEX
  8
Layer1
 10
421.151
 20
351.873
  0
VERTEX
  8
Layer1
 10
421.138
 20
351.845
  0
VERTEX
  8
Layer1
 10
421.126
 20
351.815
  0
VERTEX
  8
Layer1
 10
421.115
 20
351.786
  0
VERTEX
  8
Layer1
 10
421.106
 20
351.755
  0
VERTEX
  8
Layer1
 10
421.099
 20
351.724
  0
VERTEX
  8
Layer1
 10
421.094
 20
351.693
  0
VERTEX
  8
Layer1
 10
421.09
 20
351.662
  0
VERTEX
  8
Layer1
 10
421.088
 20
351.63
  0
VERTEX
  8
Layer1
 10
421.088
 20
351.599
  0
VERTEX
  8
Layer1
 10
421.089
 20
351.567
  0
VERTEX
  8
Layer1
 10
421.093
 20
351.535
  0
VERTEX
  8
Layer1
 10
421.097
 20
351.504
  0
VERTEX
  8
Layer1
 10
421.104
 20
351.473
  0
VERTEX
  8
Layer1
 10
421.112
 20
351.443
  0
VERTEX
  8
Layer1
 10
421.122
 20
351.413
  0
VERTEX
  8
Layer1
 10
421.134
 20
351.383
  0
VERTEX
  8
Layer1
 10
421.147
 20
351.354
  0
VERTEX
  8
Layer1
 10
421.161
 20
351.326
  0
VERTEX
  8
Layer1
 10
421.178
 20
351.299
  0
VERTEX
  8
Layer1
 10
421.195
 20
351.273
  0
VERTEX
  8
Layer1
 10
421.214
 20
351.248
  0
VERTEX
  8
Layer1
 10
421.235
 20
351.223
  0
VERTEX
  8
Layer1
 10
421.256
 20
351.2
  0
VERTEX
  8
Layer1
 10
421.279
 20
351.178
  0
VERTEX
  8
Layer1
 10
421.303
 20
351.158
  0
VERTEX
  8
Layer1
 10
421.328
 20
351.139
  0
VERTEX
  8
Layer1
 10
421.354
 20
351.121
  0
VERTEX
  8
Layer1
 10
421.381
 20
351.104
  0
VERTEX
  8
Layer1
 10
421.409
 20
351.09
  0
VERTEX
  8
Layer1
 10
421.438
 20
351.076
  0
VERTEX
  8
Layer1
 10
421.467
 20
351.064
  0
VERTEX
  8
Layer1
 10
421.497
 20
351.054
  0
VERTEX
  8
Layer1
 10
421.528
 20
351.046
  0
VERTEX
  8
Layer1
 10
421.559
 20
351.039
  0
VERTEX
  8
Layer1
 10
421.59
 20
351.034
  0
VERTEX
  8
Layer1
 10
421.621
 20
351.03
  0
VERTEX
  8
Layer1
 10
421.653
 20
351.028
  0
VERTEX
  8
Layer1
 10
421.684
 20
351.028
  0
VERTEX
  8
Layer1
 10
421.716
 20
351.03
  0
VERTEX
  8
Layer1
 10
421.747
 20
351.034
  0
VERTEX
  8
Layer1
 10
421.779
 20
351.039
  0
VERTEX
  8
Layer1
 10
421.81
 20
351.046
  0
VERTEX
  8
Layer1
 10
421.84
 20
351.054
  0
VERTEX
  8
Layer1
 10
421.87
 20
351.064
  0
VERTEX
  8
Layer1
 10
421.899
 20
351.076
  0
VERTEX
  8
Layer1
 10
421.928
 20
351.089
  0
VERTEX
  8
Layer1
 10
421.956
 20
351.104
  0
SEQEND
  0
POLYLINE
  8
Layer1
  6
CONTINUOUS
 62
7
 66
1
 10
0
 20
0
 30
0
  0
VERTEX
  8
Layer1
 10
430.173
 20
351.071
  0
VERTEX
  8
Layer1
 10
430.194
 20
351.065
  0
VERTEX
  8
Layer1
 10
430.215
 20
351.06
  0
VERTEX
  8
Layer1
 10
430.236
 20
351.057
  0
VERTEX
  8
Layer1
 10
430.257
 20
351.054
  0
VERTEX
  8
Layer1
 10
430.278
 20
351.052
  0
VERTEX
  8
Layer1
 10
430.3
 20
351.051
  0
VERTEX
  8
Layer1
 10
430.321
 20
351.051
  0
VERTEX
  8
Layer1
 10
430.342
 20
351.052
  0
VERTEX
  8
Layer1
 10
430.364
 20
351.054
  0
VERTEX
  8
Layer1
 10
430.385
 20
351.057
  0
VERTEX
  8
Layer1
 10
430.406
 20
351.061
  0
VERTEX
  8
Layer1
 10
430.427
 20
351.066
  0
VERTEX
  8
Layer1
 10
430.447
 20
351.072
  0
VERTEX
  8
Layer1
 10
430.468
 20
351.079
  0
VERTEX
  8
Layer1
 10
430.488
 20
351.086
  0
VERTEX
  8
Layer1
 10
430.507
 20
351.095
  0
VERTEX
  8
Layer1
 10
430.526
 20
351.104
  0
VERTEX
  8
Layer1
 10
430.545
 20
351.115
  0
VERTEX
  8
Layer1
 10
430.563
 20
351.126
  0
VERTEX
  8
Layer1
 10
430.581
 20
351.138
  0
VERTEX
  8
Layer1
 10
430.598
 20
351.151
  0
VERTEX
  8
Layer1
 10
430.615
 20
351.164
  0
VERTEX
  8
Layer1
 10
430.631
 20
351.178
  0
VERTEX
  8
Layer1
 10
430.646
 20
351.193
  0
VERTEX
  8
Layer1
 10
430.661
 20
351.209
  0
VERTEX
  8
Layer1
 10
430.675
 20
351.225
  0
VERTEX
  8
Layer1
 10
430.688
 20
351.242
  0
VERTEX
  8
Layer1
 10
430.7
 20
351.26
  0
VERTEX
  8
Layer1
 10
430.712
 20
351.278
  0
VERTEX
  8
Layer1
 10
430.723
 20
351.296
  0
VERTEX
  8
Layer1
 10
430.732
 20
351.315
  0
VERTEX
  8
Layer1
 10
430.741
 20
351.335
  0
VERTEX
  8
Layer1
 10
430.75
 20
351.354
  0
VERTEX
  8
Layer1
 10
430.757
 20
351.375
  0
VERTEX
  8
Layer1
 10
430.763
 20
351.395
  0
VERTEX
  8
Layer1
 10
430.768
 20
351.416
  0
VERTEX
  8
Layer1
 10
430.773
 20
351.437
  0
VERTEX
  8
Layer1
 10
430.776
 20
351.458
  0
VERTEX
  8
Layer1
 10
430.779
 20
351.479
  0
VERTEX
  8
Layer1
 10
430.78
 20
351.5
  0
VERTEX
  8
Layer1
 10
430.781
 20
351.522
  0
VERTEX
  8
Layer1
 10
430.781
 20
351.543
  0
VERTEX
  8
Layer1
 10
430.779
 20
351.565
  0
VERTEX
  8
Layer1
 10
430.777
 20
351.586
  0
VERTEX
  8
Layer1
 10
430.774
 20
351.607
  0
VERTEX
  8
Layer1
 10
430.769
 20
351.628
  0
VERTEX
  8
Layer1
 10
430.764
 20
351.649
  0
VERTEX
  8
Layer1
 10
430.758
 20
351.669
  0
SEQEND
  0
LINE
  8
Layer1
  6
CONTINUOUS
 62
7
 10
428.895
 20
351.405
 11
428.895
 21
349.502
  0
LINE
  8
Layer1
  6
CONTINUOUS
 62
7
 10
422.75
 20
351.448
 11
422.75
 21
349.502
  0
LINE
  8
Layer1
  6
CONTINUOUS
 62
7
 10
421.603
 20
349.502
 11
420.879
 21
348.778
  0
LINE
  8
Layer1
  6
CONTINUOUS
 62
7
 10
430.052
 20
349.502
 11
430.776
 21
348.778
  0
LINE
  8
Layer1
  6
CENTER1
 62
7
 10
384.778
 20
326.85
 11
384.778
 21
350.554
  0
LINE
  8
Layer1
  6
CONTINUOUS
 62
7
 10
683.669
 20
356.105
 11
692.572
 21
356.105
  0
LINE
  8
Layer1
  6
CONTINUOUS
 62
7
 10
683.669
 20
353.79
 11
691.504
 21
353.79
  0
LINE
  8
Layer1
  6
CONTINUOUS
 62
7
 10
692.572
 20
356.105
 11
693.997
 21
354.443
  0
LINE
  8
Layer1
  6
CONTINUOUS
 62
7
 10
693.997
 20
353.79
 11
693.997
 21
354.443
  0
POLYLINE
  8
Layer1
  6
CONTINUOUS
 62
7
 66
1
 10
0
 20
0
 30
0
  0
VERTEX
  8
Layer1
 10
691.504
 20
353.79
  0
VERTEX
  8
Layer1
 10
691.506
 20
353.708
  0
VERTEX
  8
Layer1
 10
691.513
 20
353.627
  0
VERTEX
  8
Layer1
 10
691.526
 20
353.545
  0
VERTEX
  8
Layer1
 10
691.544
 20
353.465
  0
VERTEX
  8
Layer1
 10
691.567
 20
353.387
  0
VERTEX
  8
Layer1
 10
691.595
 20
353.31
  0
VERTEX
  8
Layer1
 10
691.628
 20
353.234
  0
VERTEX
  8
Layer1
 10
691.667
 20
353.162
  0
VERTEX
  8
Layer1
 10
691.709
 20
353.092
  0
VERTEX
  8
Layer1
 10
691.757
 20
353.025
  0
VERTEX
  8
Layer1
 10
691.809
 20
352.961
  0
VERTEX
  8
Layer1
 10
691.864
 20
352.901
  0
VERTEX
  8
Layer1
 10
691.924
 20
352.844
  0
VERTEX
  8
Layer1
 10
691.987
 20
352.792
  0
VERTEX
  8
Layer1
 10
692.054
 20
352.744
  0
VERTEX
  8
Layer1
 10
692.123
 20
352.7
  0
VERTEX
  8
Layer1
 10
692.196
 20
352.661
  0
VERTEX
  8
Layer1
 10
692.27
 20
352.627
  0
VERTEX
  8
Layer1
 10
692.347
 20
352.598
  0
VERTEX
  8
Layer1
 10
692.426
 20
352.574
  0
VERTEX
  8
Layer1
 10
692.506
 20
352.556
  0
VERTEX
  8
Layer1
 10
692.586
 20
352.542
  0
VERTEX
  8
Layer1
 10
692.668
 20
352.534
  0
VERTEX
  8
Layer1
 10
692.75
 20
352.531
  0
VERTEX
  8
Layer1
 10
692.832
 20
352.534
  0
VERTEX
  8
Layer1
 10
692.914
 20
352.542
  0
VERTEX
  8
Layer1
 10
692.995
 20
352.556
  0
VERTEX
  8
Layer1
 10
693.075
 20
352.574
  0
VERTEX
  8
Layer1
 10
693.153
 20
352.598
  0
VERTEX
  8
Layer1
 10
693.23
 20
352.627
  0
VERTEX
  8
Layer1
 10
693.305
 20
352.661
  0
VERTEX
  8
Layer1
 10
693.377
 20
352.7
  0
VERTEX
  8
Layer1
 10
693.447
 20
352.744
  0
VERTEX
  8
Layer1
 10
693.513
 20
352.792
  0
VERTEX
  8
Layer1
 10
693.576
 20
352.844
  0
VERTEX
  8
Layer1
 10
693.636
 20
352.901
  0
VERTEX
  8
Layer1
 10
693.692
 20
352.961
  0
VERTEX
  8
Layer1
 10
693.744
 20
353.025
  0
VERTEX
  8
Layer1
 10
693.791
 20
353.092
  0
VERTEX
  8
Layer1
 10
693.834
 20
353.162
  0
VERTEX
  8
Layer1
 10
693.872
 20
353.234
  0
VERTEX
  8
Layer1
 10
693.905
 20
353.31
  0
VERTEX
  8
Layer1
 10
693.934
 20
353.387
  0
VERTEX
  8
Layer1
 10
693.957
 20
353.465
  0
VERTEX
  8
Layer1
 10
693.975
 20
353.545
  0
VERTEX
  8
Layer1
 10
693.987
 20
353.627
  0
VERTEX
  8
Layer1
 10
693.995
 20
353.708
  0
VERTEX
  8
Layer1
 10
693.997
 20
353.79
  0
SEQEND
  0
LINE
  8
Layer1
  6
CONTINUOUS
 62
7
 10
683.669
 20
356.105
 11
681.256
 21
353.577
  0
LINE
  8
Layer1
  6
CONTINUOUS
 62
7
 10
683.669
 20
353.79
 11
682.245
 21
352.544
  0
POLYLINE
  8
Layer1
  6
CONTINUOUS
 62
7
 66
1
 10
0
 20
0
 30
0
  0
VERTEX
  8
Layer1
 10
681.256
 20
353.577
  0
VERTEX
  8
Layer1
 10
681.226
 20
353.543
  0
VERTEX
  8
Layer1
 10
681.198
 20
353.507
  0
VERTEX
  8
Layer1
 10
681.172
 20
353.47
  0
VERTEX
  8
Layer1
 10
681.148
 20
353.431
  0
VERTEX
  8
Layer1
 10
681.127
 20
353.39
  0
VERTEX
  8
Layer1
 10
681.109
 20
353.349
  0
VERTEX
  8
Layer1
 10
681.094
 20
353.306
  0
VERTEX
  8
Layer1
 10
681.081
 20
353.262
  0
VERTEX
  8
Layer1
 10
681.071
 20
353.218
  0
VERTEX
  8
Layer1
 10
681.064
 20
353.173
  0
VERTEX
  8
Layer1
 10
681.059
 20
353.128
  0
VERTEX
  8
Layer1
 10
681.058
 20
353.082
  0
VERTEX
  8
Layer1
 10
681.059
 20
353.037
  0
VERTEX
  8
Layer1
 10
681.064
 20
352.991
  0
VERTEX
  8
Layer1
 10
681.071
 20
352.946
  0
VERTEX
  8
Layer1
 10
681.081
 20
352.902
  0
VERTEX
  8
Layer1
 10
681.094
 20
352.858
  0
VERTEX
  8
Layer1
 10
681.11
 20
352.816
  0
VERTEX
  8
Layer1
 10
681.128
 20
352.774
  0
VERTEX
  8
Layer1
 10
681.149
 20
352.734
  0
VERTEX
  8
Layer1
 10
681.172
 20
352.695
  0
VERTEX
  8
Layer1
 10
681.198
 20
352.657
  0
VERTEX
  8
Layer1
 10
681.226
 20
352.621
  0
VERTEX
  8
Layer1
 10
681.257
 20
352.588
  0
VERTEX
  8
Layer1
 10
681.289
 20
352.556
  0
VERTEX
  8
Layer1
 10
681.324
 20
352.526
  0
VERTEX
  8
Layer1
 10
681.36
 20
352.499
  0
VERTEX
  8
Layer1
 10
681.398
 20
352.474
  0
VERTEX
  8
Layer1
 10
681.437
 20
352.451
  0
VERTEX
  8
Layer1
 10
681.478
 20
352.431
  0
VERTEX
  8
Layer1
 10
681.52
 20
352.413
  0
VERTEX
  8
Layer1
 10
681.563
 20
352.399
  0
VERTEX
  8
Layer1
 10
681.607
 20
352.387
  0
VERTEX
  8
Layer1
 10
681.652
 20
352.377
  0
VERTEX
  8
Layer1
 10
681.697
 20
352.371
  0
VERTEX
  8
Layer1
 10
681.742
 20
352.368
  0
VERTEX
  8
Layer1
 10
681.788
 20
352.367
  0
VERTEX
  8
Layer1
 10
681.833
 20
352.369
  0
VERTEX
  8
Layer1
 10
681.878
 20
352.375
  0
VERTEX
  8
Layer1
 10
681.923
 20
352.383
  0
VERTEX
  8
Layer1
 10
681.967
 20
352.394
  0
VERTEX
  8
Layer1
 10
682.011
 20
352.407
  0
VERTEX
  8
Layer1
 10
682.053
 20
352.424
  0
VERTEX
  8
Layer1
 10
682.094
 20
352.443
  0
VERTEX
  8
Layer1
 10
682.134
 20
352.464
  0
VERTEX
  8
Layer1
 10
682.173
 20
352.489
  0
VERTEX
  8
Layer1
 10
682.21
 20
352.515
  0
VERTEX
  8
Layer1
 10
682.245
 20
352.544
  0
SEQEND
  0
LINE
  8
Layer1
  6
CONTINUOUS
 62
7
 10
684.99
 20
353.79
 11
684.99
 21
350.667
  0
LINE
  8
Layer1
  6
CONTINUOUS
 62
7
 10
690.901
 20
353.79
 11
690.901
 21
350.667
  0
LINE
  8
Layer1
  6
CONTINUOUS
 62
7
 10
685.796
 20
340.515
 11
690.184
 21
340.515
  0
LINE
  8
Layer1
  6
CONTINUOUS
 62
7
 10
684.99
 20
341.064
 11
690.99
 21
341.064
  0
LINE
  8
Layer1
  6
CONTINUOUS
 62
7
 10
685.796
 20
340.515
 11
684.99
 21
341.064
  0
LINE
  8
Layer1
  6
CONTINUOUS
 62
7
 10
690.184
 20
340.515
 11
690.99
 21
341.064
  0
LINE
  8
Layer1
  6
CONTINUOUS
 62
7
 10
693.101
 20
346.935
 11
693.101
 21
350.022
  0
LINE
  8
Layer1
  6
CONTINUOUS
 62
7
 10
693.101
 20
350.022
 11
691.983
 21
350.667
  0
LINE
  8
Layer1
  6
CONTINUOUS
 62
7
 10
691.983
 20
350.667
 11
684.081
 21
350.667
  0
LINE
  8
Layer1
  6
CONTINUOUS
 62
7
 10
684.081
 20
350.667
 11
682.962
 21
350.022
  0
LINE
  8
Layer1
  6
CONTINUOUS
 62
7
 10
682.962
 20
350.022
 11
682.962
 21
346.935
  0
LINE
  8
Layer1
  6
CONTINUOUS
 62
7
 10
690.566
 20
346.935
 11
690.566
 21
350.022
  0
LINE
  8
Layer1
  6
CONTINUOUS
 62
7
 10
685.498
 20
346.935
 11
685.498
 21
350.022
  0
POLYLINE
  8
Layer1
  6
CONTINUOUS
 62
7
 66
1
 10
0
 20
0
 30
0
  0
VERTEX
  8
Layer1
 10
690.567
 20
350.022
  0
VERTEX
  8
Layer1
 10
690.464
 20
350.054
  0
VERTEX
  8
Layer1
 10
690.361
 20
350.084
  0
VERTEX
  8
Layer1
 10
690.258
 20
350.113
  0
VERTEX
  8
Layer1
 10
690.154
 20
350.141
  0
VERTEX
  8
Layer1
 10
690.05
 20
350.167
  0
VERTEX
  8
Layer1
 10
689.946
 20
350.193
  0
VERTEX
  8
Layer1
 10
689.841
 20
350.216
  0
VERTEX
  8
Layer1
 10
689.736
 20
350.239
  0
VERTEX
  8
Layer1
 10
689.631
 20
350.26
  0
VERTEX
  8
Layer1
 10
689.526
 20
350.28
  0
VERTEX
  8
Layer1
 10
689.42
 20
350.298
  0
VERTEX
  8
Layer1
 10
689.314
 20
350.315
  0
VERTEX
  8
Layer1
 10
689.208
 20
350.331
  0
VERTEX
  8
Layer1
 10
689.102
 20
350.345
  0
VERTEX
  8
Layer1
 10
688.995
 20
350.358
  0
VERTEX
  8
Layer1
 10
688.889
 20
350.37
  0
VERTEX
  8
Layer1
 10
688.782
 20
350.38
  0
VERTEX
  8
Layer1
 10
688.675
 20
350.389
  0
VERTEX
  8
Layer1
 10
688.568
 20
350.397
  0
VERTEX
  8
Layer1
 10
688.461
 20
350.403
  0
VERTEX
  8
Layer1
 10
688.354
 20
350.408
  0
VERTEX
  8
Layer1
 10
688.246
 20
350.411
  0
VERTEX
  8
Layer1
 10
688.139
 20
350.413
  0
VERTEX
  8
Layer1
 10
688.032
 20
350.414
  0
VERTEX
  8
Layer1
 10
687.924
 20
350.413
  0
VERTEX
  8
Layer1
 10
687.817
 20
350.411
  0
VERTEX
  8
Layer1
 10
687.71
 20
350.408
  0
VERTEX
  8
Layer1
 10
687.603
 20
350.403
  0
VERTEX
  8
Layer1
 10
687.496
 20
350.397
  0
VERTEX
  8
Layer1
 10
687.389
 20
350.389
  0
VERTEX
  8
Layer1
 10
687.282
 20
350.38
  0
VERTEX
  8
Layer1
 10
687.175
 20
350.37
  0
VERTEX
  8
Layer1
 10
687.068
 20
350.358
  0
VERTEX
  8
Layer1
 10
686.962
 20
350.345
  0
VERTEX
  8
Layer1
 10
686.855
 20
350.331
  0
VERTEX
  8
Layer1
 10
686.749
 20
350.315
  0
VERTEX
  8
Layer1
 10
686.643
 20
350.298
  0
VERTEX
  8
Layer1
 10
686.538
 20
350.28
  0
VERTEX
  8
Layer1
 10
686.432
 20
350.26
  0
VERTEX
  8
Layer1
 10
686.327
 20
350.239
  0
VERTEX
  8
Layer1
 10
686.222
 20
350.216
  0
VERTEX
  8
Layer1
 10
686.118
 20
350.193
  0
VERTEX
  8
Layer1
 10
686.013
 20
350.167
  0
VERTEX
  8
Layer1
 10
685.909
 20
350.141
  0
VERTEX
  8
Layer1
 10
685.806
 20
350.113
  0
VERTEX
  8
Layer1
 10
685.702
 20
350.084
  0
VERTEX
  8
Layer1
 10
685.599
 20
350.054
  0
VERTEX
  8
Layer1
 10
685.497
 20
350.022
  0
SEQEND
  0
POLYLINE
  8
Layer1
  6
CONTINUOUS
 62
7
 66
1
 10
0
 20
0
 30
0
  0
VERTEX
  8
Layer1
 10
693.101
 20
350.022
  0
VERTEX
  8
Layer1
 10
693.055
 20
350.053
  0
VERTEX
  8
Layer1
 10
693.007
 20
350.083
  0
VERTEX
  8
Layer1
 10
692.959
 20
350.112
  0
VERTEX
  8
Layer1
 10
692.91
 20
350.139
  0
VERTEX
  8
Layer1
 10
692.86
 20
350.165
  0
VERTEX
  8
Layer1
 10
692.81
 20
350.19
  0
VERTEX
  8
Layer1
 10
692.759
 20
350.214
  0
VERTEX
  8
Layer1
 10
692.708
 20
350.237
  0
VERTEX
  8
Layer1
 10
692.656
 20
350.258
  0
VERTEX
  8
Layer1
 10
692.603
 20
350.278
  0
VERTEX
  8
Layer1
 10
692.55
 20
350.296
  0
VERTEX
  8
Layer1
 10
692.497
 20
350.314
  0
VERTEX
  8
Layer1
 10
692.443
 20
350.33
  0
VERTEX
  8
Layer1
 10
692.389
 20
350.344
  0
VERTEX
  8
Layer1
 10
692.335
 20
350.357
  0
VERTEX
  8
Layer1
 10
692.28
 20
350.369
  0
VERTEX
  8
Layer1
 10
692.225
 20
350.38
  0
VERTEX
  8
Layer1
 10
692.169
 20
350.389
  0
VERTEX
  8
Layer1
 10
692.114
 20
350.396
  0
VERTEX
  8
Layer1
 10
692.058
 20
350.403
  0
VERTEX
  8
Layer1
 10
692.002
 20
350.408
  0
VERTEX
  8
Layer1
 10
691.946
 20
350.411
  0
VERTEX
  8
Layer1
 10
691.89
 20
350.413
  0
VERTEX
  8
Layer1
 10
691.834
 20
350.414
  0
VERTEX
  8
Layer1
 10
691.778
 20
350.413
  0
VERTEX
  8
Layer1
 10
691.721
 20
350.411
  0
VERTEX
  8
Layer1
 10
691.665
 20
350.408
  0
VERTEX
  8
Layer1
 10
691.61
 20
350.403
  0
VERTEX
  8
Layer1
 10
691.554
 20
350.396
  0
VERTEX
  8
Layer1
 10
691.498
 20
350.389
  0
VERTEX
  8
Layer1
 10
691.443
 20
350.38
  0
VERTEX
  8
Layer1
 10
691.388
 20
350.369
  0
VERTEX
  8
Layer1
 10
691.333
 20
350.357
  0
VERTEX
  8
Layer1
 10
691.278
 20
350.344
  0
VERTEX
  8
Layer1
 10
691.224
 20
350.33
  0
VERTEX
  8
Layer1
 10
691.17
 20
350.314
  0
VERTEX
  8
Layer1
 10
691.117
 20
350.296
  0
VERTEX
  8
Layer1
 10
691.064
 20
350.278
  0
VERTEX
  8
Layer1
 10
691.011
 20
350.258
  0
VERTEX
  8
Layer1
 10
690.959
 20
350.237
  0
VERTEX
  8
Layer1
 10
690.908
 20
350.214
  0
VERTEX
  8
Layer1
 10
690.857
 20
350.19
  0
VERTEX
  8
Layer1
 10
690.807
 20
350.165
  0
VERTEX
  8
Layer1
 10
690.757
 20
350.139
  0
VERTEX
  8
Layer1
 10
690.709
 20
350.112
  0
VERTEX
  8
Layer1
 10
690.66
 20
350.083
  0
VERTEX
  8
Layer1
 10
690.613
 20
350.053
  0
VERTEX
  8
Layer1
 10
690.566
 20
350.022
  0
SEQEND
  0
POLYLINE
  8
Layer1
  6
CONTINUOUS
 62
7
 66
1
 10
0
 20
0
 30
0
  0
VERTEX
  8
Layer1
 10
685.497
 20
350.022
  0
VERTEX
  8
Layer1
 10
685.451
 20
350.053
  0
VERTEX
  8
Layer1
 10
685.403
 20
350.083
  0
VERTEX
  8
Layer1
 10
685.355
 20
350.112
  0
VERTEX
  8
Layer1
 10
685.306
 20
350.139
  0
VERTEX
  8
Layer1
 10
685.257
 20
350.165
  0
VERTEX
  8
Layer1
 10
685.206
 20
350.19
  0
VERTEX
  8
Layer1
 10
685.155
 20
350.214
  0
VERTEX
  8
Layer1
 10
685.104
 20
350.237
  0
VERTEX
  8
Layer1
 10
685.052
 20
350.258
  0
VERTEX
  8
Layer1
 10
685
 20
350.278
  0
VERTEX
  8
Layer1
 10
684.947
 20
350.296
  0
VERTEX
  8
Layer1
 10
684.893
 20
350.314
  0
VERTEX
  8
Layer1
 10
684.839
 20
350.33
  0
VERTEX
  8
Layer1
 10
684.785
 20
350.344
  0
VERTEX
  8
Layer1
 10
684.731
 20
350.357
  0
VERTEX
  8
Layer1
 10
684.676
 20
350.369
  0
VERTEX
  8
Layer1
 10
684.621
 20
350.38
  0
VERTEX
  8
Layer1
 10
684.565
 20
350.389
  0
VERTEX
  8
Layer1
 10
684.51
 20
350.396
  0
VERTEX
  8
Layer1
 10
684.454
 20
350.403
  0
VERTEX
  8
Layer1
 10
684.398
 20
350.408
  0
VERTEX
  8
Layer1
 10
684.342
 20
350.411
  0
VERTEX
  8
Layer1
 10
684.286
 20
350.413
  0
VERTEX
  8
Layer1
 10
684.23
 20
350.414
  0
VERTEX
  8
Layer1
 10
684.174
 20
350.413
  0
VERTEX
  8
Layer1
 10
684.118
 20
350.411
  0
VERTEX
  8
Layer1
 10
684.062
 20
350.408
  0
VERTEX
  8
Layer1
 10
684.006
 20
350.403
  0
VERTEX
  8
Layer1
 10
683.95
 20
350.396
  0
VERTEX
  8
Layer1
 10
683.894
 20
350.389
  0
VERTEX
  8
Layer1
 10
683.839
 20
350.38
  0
VERTEX
  8
Layer1
 10
683.784
 20
350.369
  0
VERTEX
  8
Layer1
 10
683.729
 20
350.357
  0
VERTEX
  8
Layer1
 10
683.674
 20
350.344
  0
VERTEX
  8
Layer1
 10
683.62
 20
350.33
  0
VERTEX
  8
Layer1
 10
683.566
 20
350.314
  0
VERTEX
  8
Layer1
 10
683.513
 20
350.296
  0
VERTEX
  8
Layer1
 10
683.46
 20
350.278
  0
VERTEX
  8
Layer1
 10
683.408
 20
350.258
  0
VERTEX
  8
Layer1
 10
683.356
 20
350.237
  0
VERTEX
  8
Layer1
 10
683.304
 20
350.214
  0
VERTEX
  8
Layer1
 10
683.253
 20
350.19
  0
VERTEX
  8
Layer1
 10
683.203
 20
350.165
  0
VERTEX
  8
Layer1
 10
683.154
 20
350.139
  0
VERTEX
  8
Layer1
 10
683.105
 20
350.112
  0
VERTEX
  8
Layer1
 10
683.056
 20
350.083
  0
VERTEX
  8
Layer1
 10
683.009
 20
350.053
  0
VERTEX
  8
Layer1
 10
682.962
 20
350.022
  0
SEQEND
  0
POLYLINE
  8
Layer1
  6
CONTINUOUS
 62
7
 66
1
 10
0
 20
0
 30
0
 70
1
  0
VERTEX
  8
Layer1
 10
693.296
 20
353.778
  0
VERTEX
  8
Layer1
 10
693.292
 20
353.849
  0
VERTEX
  8
Layer1
 10
693.278
 20
353.919
  0
VERTEX
  8
Layer1
 10
693.255
 20
353.987
  0
VERTEX
  8
Layer1
 10
693.223
 20
354.051
  0
VERTEX
  8
Layer1
 10
693.183
 20
354.11
  0
VERTEX
  8
Layer1
 10
693.136
 20
354.164
  0
VERTEX
  8
Layer1
 10
693.083
 20
354.211
  0
VERTEX
  8
Layer1
 10
693.023
 20
354.251
  0
VERTEX
  8
Layer1
 10
692.959
 20
354.282
  0
VERTEX
  8
Layer1
 10
692.892
 20
354.305
  0
VERTEX
  8
Layer1
 10
692.822
 20
354.319
  0
VERTEX
  8
Layer1
 10
692.75
 20
354.324
  0
VERTEX
  8
Layer1
 10
692.679
 20
354.319
  0
VERTEX
  8
Layer1
 10
692.609
 20
354.305
  0
VERTEX
  8
Layer1
 10
692.541
 20
354.282
  0
VERTEX
  8
Layer1
 10
692.477
 20
354.251
  0
VERTEX
  8
Layer1
 10
692.418
 20
354.211
  0
VERTEX
  8
Layer1
 10
692.364
 20
354.164
  0
VERTEX
  8
Layer1
 10
692.317
 20
354.11
  0
VERTEX
  8
Layer1
 10
692.277
 20
354.051
  0
VERTEX
  8
Layer1
 10
692.246
 20
353.987
  0
VERTEX
  8
Layer1
 10
692.223
 20
353.919
  0
VERTEX
  8
Layer1
 10
692.209
 20
353.849
  0
VERTEX
  8
Layer1
 10
692.204
 20
353.778
  0
VERTEX
  8
Layer1
 10
692.209
 20
353.706
  0
VERTEX
  8
Layer1
 10
692.223
 20
353.636
  0
VERTEX
  8
Layer1
 10
692.246
 20
353.569
  0
VERTEX
  8
Layer1
 10
692.277
 20
353.505
  0
VERTEX
  8
Layer1
 10
692.317
 20
353.445
  0
VERTEX
  8
Layer1
 10
692.364
 20
353.392
  0
VERTEX
  8
Layer1
 10
692.418
 20
353.345
  0
VERTEX
  8
Layer1
 10
692.477
 20
353.305
  0
VERTEX
  8
Layer1
 10
692.541
 20
353.273
  0
VERTEX
  8
Layer1
 10
692.609
 20
353.25
  0
VERTEX
  8
Layer1
 10
692.679
 20
353.236
  0
VERTEX
  8
Layer1
 10
692.75
 20
353.232
  0
VERTEX
  8
Layer1
 10
692.822
 20
353.236
  0
VERTEX
  8
Layer1
 10
692.892
 20
353.25
  0
VERTEX
  8
Layer1
 10
692.959
 20
353.273
  0
VERTEX
  8
Layer1
 10
693.023
 20
353.305
  0
VERTEX
  8
Layer1
 10
693.083
 20
353.345
  0
VERTEX
  8
Layer1
 10
693.136
 20
353.392
  0
VERTEX
  8
Layer1
 10
693.183
 20
353.445
  0
VERTEX
  8
Layer1
 10
693.223
 20
353.505
  0
VERTEX
  8
Layer1
 10
693.255
 20
353.569
  0
VERTEX
  8
Layer1
 10
693.278
 20
353.636
  0
VERTEX
  8
Layer1
 10
693.292
 20
353.706
  0
SEQEND
  0
LINE
  8
Layer1
  6
CONTINUOUS
 62
7
 10
684.99
 20
337.271
 11
684.99
 21
346.935
  0
LINE
  8
Layer1
  6
CONTINUOUS
 62
7
 10
690.99
 20
341.064
 11
690.99
 21
346.935
  0
LINE
  8
Layer1
  6
CONTINUOUS
 62
7
 10
682.924
 20
345.935
 11
693.063
 21
345.935
  0
TEXT
  8
Layer1
 62
7
 10
843.969
 20
335.435
 72
1
 11
843.969
 21
335.435
 40
5
 41
1
 50
90
  1
 139 
  0
LINE
  8
Layer1
  6
CONTINUOUS
 62
7
 10
760.998
 20
265.935
 11
845.219
 21
265.935
  0
LINE
  8
Layer1
  6
CONTINUOUS
 62
7
 10
769.529
 20
404.935
 11
845.219
 21
404.935
  0
POLYLINE
  8
Layer1
  6
CONTINUOUS
 62
7
 66
1
 10
0
 20
0
 30
0
  0
VERTEX
  8
Layer1
 10
843.969
 20
265.935
  0
VERTEX
  8
Layer1
 10
843.969
 20
404.935
  0
SEQEND
  0
POLYLINE
  8
Layer1
  6
CONTINUOUS
 62
7
 66
1
 10
0
 20
0
 30
0
 70
1
  0
VERTEX
  8
Layer1
 10
845.004
 20
269.799
  0
VERTEX
  8
Layer1
 10
843.969
 20
265.935
  0
VERTEX
  8
Layer1
 10
842.934
 20
269.799
  0
SEQEND
  0
POLYLINE
  8
Layer1
  6
CONTINUOUS
 62
7
 66
1
 10
0
 20
0
 30
0
 70
1
  0
VERTEX
  8
Layer1
 10
842.934
 20
401.071
  0
VERTEX
  8
Layer1
 10
843.969
 20
404.935
  0
VERTEX
  8
Layer1
 10
845.004
 20
401.071
  0
SEQEND
  0
POLYLINE
  8
Layer1
  6
CONTINUOUS
 62
7
 66
1
 10
0
 20
0
 30
0
  0
VERTEX
  8
Layer1
 10
844.94
 20
269.557
  0
VERTEX
  8
Layer1
 10
843.969
 20
265.935
  0
VERTEX
  8
Layer1
 10
842.999
 20
269.557
  0
SEQEND
  0
POLYLINE
  8
Layer1
  6
CONTINUOUS
 62
7
 66
1
 10
0
 20
0
 30
0
  0
VERTEX
  8
Layer1
 10
842.999
 20
401.313
  0
VERTEX
  8
Layer1
 10
843.969
 20
404.935
  0
VERTEX
  8
Layer1
 10
844.94
 20
401.313
  0
SEQEND
  0
TEXT
  8
Layer1
 62
7
 10
827.194
 20
322.935
 72
1
 11
827.194
 21
322.935
 40
5
 41
1
 50
90
  1
 114 
  0
LINE
  8
Layer1
  6
CONTINUOUS
 62
7
 10
764.527
 20
379.935
 11
828.444
 21
379.935
  0
LINE
  8
Layer1
  6
CONTINUOUS
 62
7
 10
760.998
 20
265.935
 11
828.444
 21
265.935
  0
POLYLINE
  8
Layer1
  6
CONTINUOUS
 62
7
 66
1
 10
0
 20
0
 30
0
  0
VERTEX
  8
Layer1
 10
827.194
 20
379.935
  0
VERTEX
  8
Layer1
 10
827.194
 20
265.935
  0
SEQEND
  0
POLYLINE
  8
Layer1
  6
CONTINUOUS
 62
7
 66
1
 10
0
 20
0
 30
0
 70
1
  0
VERTEX
  8
Layer1
 10
826.159
 20
376.071
  0
VERTEX
  8
Layer1
 10
827.194
 20
379.935
  0
VERTEX
  8
Layer1
 10
828.229
 20
376.071
  0
SEQEND
  0
POLYLINE
  8
Layer1
  6
CONTINUOUS
 62
7
 66
1
 10
0
 20
0
 30
0
 70
1
  0
VERTEX
  8
Layer1
 10
828.229
 20
269.799
  0
VERTEX
  8
Layer1
 10
827.194
 20
265.935
  0
VERTEX
  8
Layer1
 10
826.159
 20
269.799
  0
SEQEND
  0
POLYLINE
  8
Layer1
  6
CONTINUOUS
 62
7
 66
1
 10
0
 20
0
 30
0
  0
VERTEX
  8
Layer1
 10
826.223
 20
376.313
  0
VERTEX
  8
Layer1
 10
827.194
 20
379.935
  0
VERTEX
  8
Layer1
 10
828.164
 20
376.313
  0
SEQEND
  0
POLYLINE
  8
Layer1
  6
CONTINUOUS
 62
7
 66
1
 10
0
 20
0
 30
0
  0
VERTEX
  8
Layer1
 10
828.164
 20
269.557
  0
VERTEX
  8
Layer1
 10
827.194
 20
265.935
  0
VERTEX
  8
Layer1
 10
826.223
 20
269.557
  0
SEQEND
  0
LINE
  8
Layer1
  6
CONTINUOUS
 62
7
 10
658.955
 20
282.935
 11
700.98
 21
282.935
  0
LINE
  8
Layer1
  6
CONTINUOUS
 62
7
 10
736.032
 20
387.842
 11
736.032
 21
388.842
  0
LINE
  8
Layer1
  6
DASHED1
 62
7
 10
722.032
 20
388.842
 11
736.032
 21
388.842
  0
LINE
  8
Layer1
  6
DASHED1
 62
7
 10
733.532
 20
388.84
 11
733.532
 21
403.842
  0
LINE
  8
Layer1
  6
DASHED1
 62
7
 10
724.432
 20
388.842
 11
724.432
 21
403.842
  0
LINE
  8
Layer1
  6
DASHED1
 62
7
 10
724.532
 20
403.842
 11
733.532
 21
403.842
  0
LINE
  8
Layer1
  6
CONTINUOUS
 62
7
 10
733.532
 20
403.842
 11
734.532
 21
404.842
  0
LINE
  8
Layer1
  6
CONTINUOUS
 62
7
 10
724.432
 20
403.842
 11
723.432
 21
404.842
  0
LINE
  8
Layer1
  6
CONTINUOUS
 62
7
 10
723.532
 20
404.842
 11
734.532
 21
404.842
  0
LINE
  8
Layer1
  6
CONTINUOUS
 62
7
 10
765.032
 20
387.935
 11
765.032
 21
388.935
  0
LINE
  8
Layer1
  6
CONTINUOUS
 62
7
 10
751.032
 20
387.935
 11
751.032
 21
388.935
  0
LINE
  8
Layer1
  6
DASHED1
 62
7
 10
751.032
 20
388.935
 11
765.032
 21
388.935
  0
LINE
  8
Layer1
  6
DASHED1
 62
7
 10
762.532
 20
388.935
 11
762.532
 21
403.935
  0
LINE
  8
Layer1
  6
DASHED1
 62
7
 10
753.532
 20
388.934
 11
753.532
 21
403.935
  0
LINE
  8
Layer1
  6
DASHED1
 62
7
 10
753.532
 20
403.935
 11
762.532
 21
403.935
  0
LINE
  8
Layer1
  6
CONTINUOUS
 62
7
 10
762.532
 20
403.935
 11
763.532
 21
404.935
  0
LINE
  8
Layer1
  6
CONTINUOUS
 62
7
 10
753.532
 20
403.935
 11
752.532
 21
404.935
  0
LINE
  8
Layer1
  6
CONTINUOUS
 62
7
 10
752.532
 20
404.935
 11
763.532
 21
404.935
  0
LINE
  8
Layer1
  6
CONTINUOUS
 62
7
 10
722.032
 20
388.842
 11
722.032
 21
387.842
  0
LINE
  8
Layer1
  6
CONTINUOUS
 62
7
 10
703.51
 20
346.935
 11
693.777
 21
337.202
  0
LINE
  8
Layer1
  6
CONTINUOUS
 62
7
 10
707.51
 20
346.935
 11
697.366
 21
336.791
  0
LINE
  8
Layer1
  6
CONTINUOUS
 62
7
 10
699.51
 20
346.935
 11
690.994
 21
338.419
  0
LINE
  8
Layer1
  6
CONTINUOUS
 62
7
 10
701.494
 20
336.935
 11
678.627
 21
336.935
  0
LINE
  8
Layer1
  6
CONTINUOUS
 62
7
 10
683.51
 20
346.935
 11
677.625
 21
341.05
  0
LINE
  8
Layer1
  6
CONTINUOUS
 62
7
 10
679.51
 20
346.935
 11
676.962
 21
344.387
  0
LINE
  8
Layer1
  6
CONTINUOUS
 62
7
 10
702.994
 20
331.935
 11
702.994
 21
335.435
  0
LINE
  8
Layer1
  6
CENTER2
 62
7
 10
688.032
 20
351.094
 11
688.032
 21
328.674
  0
LINE
  8
Layer1
  6
CONTINUOUS
 62
7
 10
695.51
 20
346.935
 11
690.994
 21
342.419
  0
ARC
  8
Layer1
  6
CONTINUOUS
 62
7
 10
701.494
 20
335.435
 40
1.5
 50
2.03555e-013
 51
90
  0
LINE
  8
Layer1
  6
CONTINUOUS
 62
7
 10
703.994
 20
330.935
 11
708.863
 21
330.935
  0
LINE
  8
Layer1
  6
DASHED1
 62
7
 10
672.069
 20
330.935
 11
670.385
 21
330.935
  0
ARC
  8
Layer1
  6
CONTINUOUS
 62
7
 10
703.994
 20
331.935
 40
1
 50
180
 51
270
  0
LINE
  8
Layer1
  6
CONTINUOUS
 62
7
 10
685.494
 20
346.935
 11
685.494
 21
336.933
  0
LINE
  8
Layer1
  6
CONTINUOUS
 62
7
 10
691.032
 20
344.935
 11
691.032
 21
336.935
  0
LINE
  8
Layer1
  6
CONTINUOUS
 62
7
 10
684.994
 20
337.619
 11
684.31
 21
336.935
  0
LINE
  8
Layer1
  6
CONTINUOUS
 62
7
 10
691.032
 20
345.935
 11
685.032
 21
345.935
  0
LINE
  8
Layer1
  6
CONTINUOUS
 62
7
 10
685.032
 20
345.935
 11
684.032
 21
346.935
  0
LINE
  8
Layer1
  6
CONTINUOUS
 62
7
 10
691.032
 20
345.935
 11
692.032
 21
346.935
  0
LINE
  8
Layer1
  6
CENTER1
 62
7
 10
748.959
 20
478.664
 11
767.389
 21
478.664
  0
CIRCLE
  8
Layer1
  6
CONTINUOUS
 62
7
 10
758.032
 20
563.664
 40
4.5
  0
CIRCLE
  8
Layer1
  6
CONTINUOUS
 62
7
 10
758.032
 20
478.664
 40
4.5
  0
CIRCLE
  8
Layer1
  6
CONTINUOUS
 62
7
 10
729.032
 20
478.664
 40
4.5
  0
CIRCLE
  8
Layer1
  6
CONTINUOUS
 62
7
 10
728.932
 20
563.664
 40
4.5
  0
CIRCLE
  8
Layer1
  6
DASHED1
 62
7
 10
758.032
 20
563.664
 40
7
  0
CIRCLE
  8
Layer1
  6
DASHED1
 62
7
 10
758.032
 20
478.664
 40
7
  0
CIRCLE
  8
Layer1
  6
DASHED1
 62
7
 10
729.032
 20
478.664
 40
7
  0
CIRCLE
  8
Layer1
  6
DASHED1
 62
7
 10
728.932
 20
563.664
 40
7
  0
LINE
  8
Layer1
  6
CENTER1
 62
7
 10
758.032
 20
489.103
 11
758.032
 21
467.224
  0
LINE
  8
Layer1
  6
CENTER1
 62
7
 10
758.032
 20
574.984
 11
758.032
 21
554.213
  0
LINE
  8
Layer1
  6
CENTER1
 62
7
 10
729.032
 20
486.355
 11
729.032
 21
466.968
  0
LINE
  8
Layer1
  6
CENTER1
 62
7
 10
728.932
 20
572.739
 11
728.932
 21
550.86
  0
LINE
  8
Layer1
  6
CENTER1
 62
7
 10
720.614
 20
478.664
 11
739.231
 21
478.664
  0
LINE
  8
Layer1
  6
CONTINUOUS
 62
7
 10
689.234
 20
521.095
 11
686.941
 21
521.095
  0
POLYLINE
  8
Layer1
  6
CONTINUOUS
 62
7
 66
1
 10
0
 20
0
 30
0
  0
VERTEX
  8
Layer1
 10
702.922
 20
532.124
  0
VERTEX
  8
Layer1
 10
702.908
 20
532.175
  0
VERTEX
  8
Layer1
 10
702.888
 20
532.238
  0
VERTEX
  8
Layer1
 10
702.866
 20
532.299
  0
VERTEX
  8
Layer1
 10
702.842
 20
532.36
  0
VERTEX
  8
Layer1
 10
702.815
 20
532.42
  0
VERTEX
  8
Layer1
 10
702.788
 20
532.48
  0
VERTEX
  8
Layer1
 10
702.758
 20
532.538
  0
VERTEX
  8
Layer1
 10
702.726
 20
532.595
  0
VERTEX
  8
Layer1
 10
702.692
 20
532.651
  0
VERTEX
  8
Layer1
 10
702.657
 20
532.706
  0
VERTEX
  8
Layer1
 10
702.64
 20
532.731
  0
SEQEND
  0
LINE
  8
Layer1
  6
DASHED1
 62
7
 10
672.994
 20
531.595
 11
672.994
 21
511.552
  0
LINE
  8
Layer1
  6
DASHED1
 62
7
 10
700.699
 20
508.595
 11
675.015
 21
508.595
  0
LINE
  8
Layer1
  6
DASHED1
 62
7
 10
700.497
 20
533.595
 11
674.994
 21
533.595
  0
LINE
  8
Layer1
  6
DASHED1
 62
7
 10
702.922
 20
532.124
 11
702.798
 21
509.732
  0
POLYLINE
  8
Layer1
  6
CONTINUOUS
 62
7
 66
1
 10
0
 20
0
 30
0
  0
VERTEX
  8
Layer1
 10
701.71
 20
508.728
  0
VERTEX
  8
Layer1
 10
701.759
 20
508.747
  0
VERTEX
  8
Layer1
 10
701.819
 20
508.773
  0
VERTEX
  8
Layer1
 10
701.878
 20
508.801
  0
VERTEX
  8
Layer1
 10
701.937
 20
508.831
  0
VERTEX
  8
Layer1
 10
701.994
 20
508.863
  0
VERTEX
  8
Layer1
 10
702.05
 20
508.897
  0
VERTEX
  8
Layer1
 10
702.105
 20
508.932
  0
VERTEX
  8
Layer1
 10
702.159
 20
508.969
  0
VERTEX
  8
Layer1
 10
702.211
 20
509.008
  0
VERTEX
  8
Layer1
 10
702.263
 20
509.049
  0
VERTEX
  8
Layer1
 10
702.312
 20
509.091
  0
VERTEX
  8
Layer1
 10
702.361
 20
509.135
  0
VERTEX
  8
Layer1
 10
702.408
 20
509.181
  0
VERTEX
  8
Layer1
 10
702.453
 20
509.228
  0
VERTEX
  8
Layer1
 10
702.497
 20
509.276
  0
VERTEX
  8
Layer1
 10
702.54
 20
509.326
  0
VERTEX
  8
Layer1
 10
702.58
 20
509.377
  0
VERTEX
  8
Layer1
 10
702.619
 20
509.43
  0
VERTEX
  8
Layer1
 10
702.657
 20
509.484
  0
VERTEX
  8
Layer1
 10
702.692
 20
509.539
  0
VERTEX
  8
Layer1
 10
702.726
 20
509.595
  0
VERTEX
  8
Layer1
 10
702.758
 20
509.652
  0
VERTEX
  8
Layer1
 10
702.788
 20
509.71
  0
VERTEX
  8
Layer1
 10
702.798
 20
509.732
  0
SEQEND
  0
LINE
  8
Layer1
  6
CONTINUOUS
 62
7
 10
672.994
 20
510.595
 11
672.995
 21
510.54
  0
POLYLINE
  8
Layer1
  6
CONTINUOUS
 62
7
 66
1
 10
0
 20
0
 30
0
  0
VERTEX
  8
Layer1
 10
674.994
 20
533.595
  0
VERTEX
  8
Layer1
 10
674.928
 20
533.594
  0
VERTEX
  8
Layer1
 10
674.88
 20
533.591
  0
SEQEND
  0
LINE
  8
Layer1
  6
CONTINUOUS
 62
7
 10
674.994
 20
533.595
 11
676.093
 21
533.595
  0
LINE
  8
Layer1
  6
CONTINUOUS
 62
7
 10
675.015
 20
508.595
 11
676.093
 21
508.595
  0
LINE
  8
Layer1
  6
CONTINUOUS
 62
7
 10
672.994
 20
510.595
 11
672.994
 21
511.552
  0
LINE
  8
Layer1
  6
CONTINUOUS
 62
7
 10
702.994
 20
511.821
 11
702.994
 21
510.675
  0
POLYLINE
  8
Layer1
  6
CONTINUOUS
 62
7
 66
1
 10
0
 20
0
 30
0
  0
VERTEX
  8
Layer1
 10
701.778
 20
533.435
  0
VERTEX
  8
Layer1
 10
701.759
 20
533.443
  0
VERTEX
  8
Layer1
 10
701.698
 20
533.467
  0
VERTEX
  8
Layer1
 10
701.637
 20
533.489
  0
VERTEX
  8
Layer1
 10
701.574
 20
533.509
  0
VERTEX
  8
Layer1
 10
701.511
 20
533.527
  0
VERTEX
  8
Layer1
 10
701.448
 20
533.543
  0
VERTEX
  8
Layer1
 10
701.384
 20
533.556
  0
VERTEX
  8
Layer1
 10
701.32
 20
533.568
  0
VERTEX
  8
Layer1
 10
701.255
 20
533.578
  0
VERTEX
  8
Layer1
 10
701.19
 20
533.585
  0
VERTEX
  8
Layer1
 10
701.125
 20
533.591
  0
VERTEX
  8
Layer1
 10
701.103
 20
533.592
  0
SEQEND
  0
POLYLINE
  8
Layer1
  6
CONTINUOUS
 62
7
 66
1
 10
0
 20
0
 30
0
  0
VERTEX
  8
Layer1
 10
674.139
 20
533.403
  0
VERTEX
  8
Layer1
 10
674.109
 20
533.389
  0
VERTEX
  8
Layer1
 10
674.051
 20
533.359
  0
VERTEX
  8
Layer1
 10
673.994
 20
533.327
  0
VERTEX
  8
Layer1
 10
673.938
 20
533.293
  0
VERTEX
  8
Layer1
 10
673.883
 20
533.258
  0
VERTEX
  8
Layer1
 10
673.829
 20
533.221
  0
VERTEX
  8
Layer1
 10
673.776
 20
533.182
  0
VERTEX
  8
Layer1
 10
673.725
 20
533.141
  0
VERTEX
  8
Layer1
 10
673.675
 20
533.099
  0
VERTEX
  8
Layer1
 10
673.627
 20
533.055
  0
VERTEX
  8
Layer1
 10
673.58
 20
533.009
  0
VERTEX
  8
Layer1
 10
673.534
 20
532.962
  0
VERTEX
  8
Layer1
 10
673.49
 20
532.914
  0
VERTEX
  8
Layer1
 10
673.448
 20
532.864
  0
VERTEX
  8
Layer1
 10
673.407
 20
532.812
  0
VERTEX
  8
Layer1
 10
673.368
 20
532.76
  0
VERTEX
  8
Layer1
 10
673.331
 20
532.706
  0
VERTEX
  8
Layer1
 10
673.295
 20
532.651
  0
VERTEX
  8
Layer1
 10
673.262
 20
532.595
  0
VERTEX
  8
Layer1
 10
673.23
 20
532.538
  0
VERTEX
  8
Layer1
 10
673.225
 20
532.528
  0
SEQEND
  0
POLYLINE
  8
Layer1
  6
CONTINUOUS
 62
7
 66
1
 10
0
 20
0
 30
0
  0
VERTEX
  8
Layer1
 10
672.998
 20
531.719
  0
VERTEX
  8
Layer1
 10
672.995
 20
531.66
  0
VERTEX
  8
Layer1
 10
672.994
 20
531.595
  0
SEQEND
  0
POLYLINE
  8
Layer1
  6
CONTINUOUS
 62
7
 66
1
 10
0
 20
0
 30
0
  0
VERTEX
  8
Layer1
 10
673.159
 20
509.799
  0
VERTEX
  8
Layer1
 10
673.172
 20
509.77
  0
VERTEX
  8
Layer1
 10
673.2
 20
509.71
  0
VERTEX
  8
Layer1
 10
673.23
 20
509.652
  0
VERTEX
  8
Layer1
 10
673.262
 20
509.595
  0
VERTEX
  8
Layer1
 10
673.295
 20
509.539
  0
VERTEX
  8
Layer1
 10
673.331
 20
509.484
  0
VERTEX
  8
Layer1
 10
673.368
 20
509.43
  0
VERTEX
  8
Layer1
 10
673.407
 20
509.377
  0
VERTEX
  8
Layer1
 10
673.448
 20
509.326
  0
VERTEX
  8
Layer1
 10
673.49
 20
509.276
  0
VERTEX
  8
Layer1
 10
673.534
 20
509.228
  0
VERTEX
  8
Layer1
 10
673.58
 20
509.181
  0
VERTEX
  8
Layer1
 10
673.627
 20
509.135
  0
VERTEX
  8
Layer1
 10
673.675
 20
509.091
  0
VERTEX
  8
Layer1
 10
673.725
 20
509.049
  0
VERTEX
  8
Layer1
 10
673.776
 20
509.008
  0
VERTEX
  8
Layer1
 10
673.829
 20
508.969
  0
VERTEX
  8
Layer1
 10
673.883
 20
508.932
  0
VERTEX
  8
Layer1
 10
673.938
 20
508.897
  0
VERTEX
  8
Layer1
 10
673.994
 20
508.863
  0
VERTEX
  8
Layer1
 10
674.051
 20
508.831
  0
VERTEX
  8
Layer1
 10
674.109
 20
508.801
  0
VERTEX
  8
Layer1
 10
674.168
 20
508.773
  0
VERTEX
  8
Layer1
 10
674.228
 20
508.747
  0
VERTEX
  8
Layer1
 10
674.273
 20
508.729
  0
SEQEND
  0
LINE
  8
Layer1
  6
CENTER1
 62
7
 10
748.323
 20
563.664
 11
766.463
 21
563.664
  0
LINE
  8
Layer1
  6
CENTER1
 62
7
 10
623.495
 20
546.164
 11
662.083
 21
546.164
  0
LINE
  8
Layer1
  6
CENTER1
 62
7
 10
619.092
 20
496.164
 11
660.558
 21
496.164
  0
LINE
  8
Layer1
  6
CENTER1
 62
7
 10
466.778
 20
327.788
 11
466.778
 21
349.305
  0
POLYLINE
  8
Layer1
  6
CONTINUOUS
 62
7
 66
1
 10
0
 20
0
 30
0
 70
1
  0
VERTEX
  8
Layer1
 10
405.778
 20
298.435
  0
VERTEX
  8
Layer1
 10
405.735
 20
299.088
  0
VERTEX
  8
Layer1
 10
405.608
 20
299.729
  0
VERTEX
  8
Layer1
 10
405.397
 20
300.349
  0
VERTEX
  8
Layer1
 10
405.108
 20
300.935
  0
VERTEX
  8
Layer1
 10
404.745
 20
301.479
  0
VERTEX
  8
Layer1
 10
404.313
 20
301.971
  0
VERTEX
  8
Layer1
 10
403.822
 20
302.402
  0
VERTEX
  8
Layer1
 10
403.278
 20
302.765
  0
VERTEX
  8
Layer1
 10
402.691
 20
303.055
  0
VERTEX
  8
Layer1
 10
402.072
 20
303.265
  0
VERTEX
  8
Layer1
 10
401.431
 20
303.392
  0
VERTEX
  8
Layer1
 10
400.778
 20
303.435
  0
VERTEX
  8
Layer1
 10
400.125
 20
303.392
  0
VERTEX
  8
Layer1
 10
399.484
 20
303.265
  0
VERTEX
  8
Layer1
 10
398.865
 20
303.055
  0
VERTEX
  8
Layer1
 10
398.278
 20
302.765
  0
VERTEX
  8
Layer1
 10
397.734
 20
302.402
  0
VERTEX
  8
Layer1
 10
397.242
 20
301.971
  0
VERTEX
  8
Layer1
 10
396.811
 20
301.479
  0
VERTEX
  8
Layer1
 10
396.448
 20
300.935
  0
VERTEX
  8
Layer1
 10
396.159
 20
300.349
  0
VERTEX
  8
Layer1
 10
395.948
 20
299.729
  0
VERTEX
  8
Layer1
 10
395.821
 20
299.088
  0
VERTEX
  8
Layer1
 10
395.778
 20
298.435
  0
VERTEX
  8
Layer1
 10
395.821
 20
297.783
  0
VERTEX
  8
Layer1
 10
395.948
 20
297.141
  0
VERTEX
  8
Layer1
 10
396.159
 20
296.522
  0
VERTEX
  8
Layer1
 10
396.448
 20
295.935
  0
VERTEX
  8
Layer1
 10
396.811
 20
295.391
  0
VERTEX
  8
Layer1
 10
397.242
 20
294.9
  0
VERTEX
  8
Layer1
 10
397.734
 20
294.469
  0
VERTEX
  8
Layer1
 10
398.278
 20
294.105
  0
VERTEX
  8
Layer1
 10
398.865
 20
293.816
  0
VERTEX
  8
Layer1
 10
399.484
 20
293.606
  0
VERTEX
  8
Layer1
 10
400.125
 20
293.478
  0
VERTEX
  8
Layer1
 10
400.778
 20
293.435
  0
VERTEX
  8
Layer1
 10
401.431
 20
293.478
  0
VERTEX
  8
Layer1
 10
402.072
 20
293.606
  0
VERTEX
  8
Layer1
 10
402.691
 20
293.816
  0
VERTEX
  8
Layer1
 10
403.278
 20
294.105
  0
VERTEX
  8
Layer1
 10
403.822
 20
294.469
  0
VERTEX
  8
Layer1
 10
404.313
 20
294.9
  0
VERTEX
  8
Layer1
 10
404.745
 20
295.391
  0
VERTEX
  8
Layer1
 10
405.108
 20
295.935
  0
VERTEX
  8
Layer1
 10
405.397
 20
296.522
  0
VERTEX
  8
Layer1
 10
405.608
 20
297.141
  0
VERTEX
  8
Layer1
 10
405.735
 20
297.783
  0
SEQEND
  0
POLYLINE
  8
Layer1
  6
CONTINUOUS
 62
7
 66
1
 10
0
 20
0
 30
0
 70
1
  0
VERTEX
  8
Layer1
 10
400.778
 20
302.01
  0
VERTEX
  8
Layer1
 10
397.682
 20
300.223
  0
VERTEX
  8
Layer1
 10
397.682
 20
296.648
  0
VERTEX
  8
Layer1
 10
400.778
 20
294.86
  0
VERTEX
  8
Layer1
 10
403.874
 20
296.648
  0
VERTEX
  8
Layer1
 10
403.874
 20
300.223
  0
SEQEND
  0
POLYLINE
  8
Layer1
  6
CONTINUOUS
 62
7
 66
1
 10
0
 20
0
 30
0
 70
1
  0
VERTEX
  8
Layer1
 10
404.353
 20
298.435
  0
VERTEX
  8
Layer1
 10
404.322
 20
298.902
  0
VERTEX
  8
Layer1
 10
404.231
 20
299.361
  0
VERTEX
  8
Layer1
 10
404.081
 20
299.803
  0
VERTEX
  8
Layer1
 10
403.874
 20
300.223
  0
VERTEX
  8
Layer1
 10
403.614
 20
300.612
  0
VERTEX
  8
Layer1
 10
403.306
 20
300.963
  0
VERTEX
  8
Layer1
 10
402.954
 20
301.272
  0
VERTEX
  8
Layer1
 10
402.565
 20
301.531
  0
VERTEX
  8
Layer1
 10
402.146
 20
301.738
  0
VERTEX
  8
Layer1
 10
401.703
 20
301.888
  0
VERTEX
  8
Layer1
 10
401.245
 20
301.98
  0
VERTEX
  8
Layer1
 10
400.778
 20
302.01
  0
VERTEX
  8
Layer1
 10
400.311
 20
301.98
  0
VERTEX
  8
Layer1
 10
399.853
 20
301.888
  0
VERTEX
  8
Layer1
 10
399.41
 20
301.738
  0
VERTEX
  8
Layer1
 10
398.99
 20
301.531
  0
VERTEX
  8
Layer1
 10
398.602
 20
301.272
  0
VERTEX
  8
Layer1
 10
398.25
 20
300.963
  0
VERTEX
  8
Layer1
 10
397.942
 20
300.612
  0
VERTEX
  8
Layer1
 10
397.682
 20
300.223
  0
VERTEX
  8
Layer1
 10
397.475
 20
299.803
  0
VERTEX
  8
Layer1
 10
397.325
 20
299.361
  0
VERTEX
  8
Layer1
 10
397.234
 20
298.902
  0
VERTEX
  8
Layer1
 10
397.203
 20
298.435
  0
VERTEX
  8
Layer1
 10
397.234
 20
297.969
  0
VERTEX
  8
Layer1
 10
397.325
 20
297.51
  0
VERTEX
  8
Layer1
 10
397.475
 20
297.067
  0
VERTEX
  8
Layer1
 10
397.682
 20
296.648
  0
VERTEX
  8
Layer1
 10
397.942
 20
296.259
  0
VERTEX
  8
Layer1
 10
398.25
 20
295.907
  0
VERTEX
  8
Layer1
 10
398.602
 20
295.599
  0
VERTEX
  8
Layer1
 10
398.99
 20
295.339
  0
VERTEX
  8
Layer1
 10
399.41
 20
295.132
  0
VERTEX
  8
Layer1
 10
399.853
 20
294.982
  0
VERTEX
  8
Layer1
 10
400.311
 20
294.891
  0
VERTEX
  8
Layer1
 10
400.778
 20
294.86
  0
VERTEX
  8
Layer1
 10
401.245
 20
294.891
  0
VERTEX
  8
Layer1
 10
401.703
 20
294.982
  0
VERTEX
  8
Layer1
 10
402.146
 20
295.132
  0
VERTEX
  8
Layer1
 10
402.565
 20
295.339
  0
VERTEX
  8
Layer1
 10
402.954
 20
295.599
  0
VERTEX
  8
Layer1
 10
403.306
 20
295.907
  0
VERTEX
  8
Layer1
 10
403.614
 20
296.259
  0
VERTEX
  8
Layer1
 10
403.874
 20
296.648
  0
VERTEX
  8
Layer1
 10
404.081
 20
297.067
  0
VERTEX
  8
Layer1
 10
404.231
 20
297.51
  0
VERTEX
  8
Layer1
 10
404.322
 20
297.969
  0
SEQEND
  0
LINE
  8
Layer1
  6
CONTINUOUS
 62
7
 10
356.778
 20
265.935
 11
494.778
 21
265.935
  0
LINE
  8
Layer1
  6
CONTINUOUS
 62
7
 10
458.278
 20
290.935
 11
393.278
 21
290.935
  0
LINE
  8
Layer1
  6
CONTINUOUS
 62
7
 10
461.061
 20
330.935
 11
392.278
 21
330.935
  0
LINE
  8
Layer1
  6
CONTINUOUS
 62
7
 10
392.278
 20
330.935
 11
376.778
 21
330.935
  0
LINE
  8
Layer1
  6
CONTINUOUS
 62
7
 10
474.778
 20
346.935
 11
376.778
 21
346.935
  0
LINE
  8
Layer1
  6
CONTINUOUS
 62
7
 10
477.278
 20
404.935
 11
374.278
 21
404.935
  0
LINE
  8
Layer1
  6
CONTINUOUS
 62
7
 10
374.278
 20
387.935
 11
390.778
 21
387.935
  0
LINE
  8
Layer1
  6
CONTINUOUS
 62
7
 10
477.278
 20
387.935
 11
460.778
 21
387.935
  0
ARC
  8
Layer1
  6
CONTINUOUS
 62
7
 10
390.778
 20
384.935
 40
3
 50
0
 51
90
  0
ARC
  8
Layer1
  6
CONTINUOUS
 62
7
 10
460.778
 20
384.935
 40
3
 50
90
 51
180
  0
LINE
  8
Layer1
  6
CENTER1
 62
7
 10
388.072
 20
310.935
 11
464.95
 21
310.935
  0
LINE
  8
Layer1
  6
CENTER1
 62
7
 10
395.056
 20
323.435
 11
407.105
 21
323.435
  0
LINE
  8
Layer1
  6
CENTER1
 62
7
 10
392.914
 20
298.435
 11
407.786
 21
298.435
  0
LINE
  8
Layer1
  6
DASHED1
 62
7
 10
437.778
 20
314.935
 11
455.778
 21
314.935
  0
LINE
  8
Layer1
  6
DASHED1
 62
7
 10
435.778
 20
316.935
 11
435.778
 21
332.935
  0
LINE
  8
Layer1
  6
DASHED1
 62
7
 10
415.778
 20
316.935
 11
415.778
 21
332.935
  0
LINE
  8
Layer1
  6
DASHED1
 62
7
 10
395.778
 20
314.935
 11
393.778
 21
316.935
  0
LINE
  8
Layer1
  6
DASHED1
 62
7
 10
455.778
 20
314.935
 11
457.778
 21
316.935
  0
LINE
  8
Layer1
  6
DASHED1
 62
7
 10
413.778
 20
314.935
 11
395.778
 21
314.935
  0
LINE
  8
Layer1
  6
DASHED1
 62
7
 10
415.778
 20
316.935
 11
413.778
 21
314.935
  0
LINE
  8
Layer1
  6
DASHED1
 62
7
 10
435.778
 20
316.935
 11
437.778
 21
314.935
  0
LINE
  8
Layer1
  6
CONTINUOUS
 62
7
 10
658.955
 20
265.935
 11
766.955
 21
265.935
  0
LINE
  8
Layer1
  6
CONTINUOUS
 62
7
 10
632.032
 20
330.935
 11
652.032
 21
330.935
  0
LINE
  8
Layer1
  6
CONTINUOUS
 62
7
 10
767.029
 20
404.935
 11
720.032
 21
404.935
  0
LINE
  8
Layer1
  6
CONTINUOUS
 62
7
 10
720.032
 20
387.935
 11
767.015
 21
387.935
  0
LINE
  8
Layer1
  6
CONTINUOUS
 62
7
 10
632.032
 20
290.935
 11
652.032
 21
290.935
  0
LINE
  8
Layer1
  6
CONTINUOUS
 62
7
 10
766.955
 20
265.935
 11
768.032
 21
267.012
  0
LINE
  8
Layer1
  6
CONTINUOUS
 62
7
 10
658.032
 20
281.935
 11
658.032
 21
266.935
  0
LINE
  8
Layer1
  6
CONTINUOUS
 62
7
 10
631.032
 20
329.935
 11
631.032
 21
291.935
  0
LINE
  8
Layer1
  6
CONTINUOUS
 62
7
 10
653.032
 20
329.935
 11
653.032
 21
291.935
  0
LINE
  8
Layer1
  6
CONTINUOUS
 62
7
 10
717.107
 20
346.935
 11
659.03
 21
346.935
  0
LINE
  8
Layer1
  6
CONTINUOUS
 62
7
 10
653.032
 20
291.935
 11
652.032
 21
290.935
  0
LINE
  8
Layer1
  6
CONTINUOUS
 62
7
 10
632.032
 20
290.935
 11
631.032
 21
291.935
  0
LINE
  8
Layer1
  6
CONTINUOUS
 62
7
 10
653.032
 20
291.935
 11
654.032
 21
290.935
  0
LINE
  8
Layer1
  6
CONTINUOUS
 62
7
 10
764.957
 20
290.935
 11
653.955
 21
290.935
  0
LINE
  8
Layer1
  6
CONTINUOUS
 62
7
 10
658.03
 20
330.935
 11
738.107
 21
330.935
  0
LINE
  8
Layer1
  6
CONTINUOUS
 62
7
 10
654.032
 20
330.935
 11
659.032
 21
330.935
  0
LINE
  8
Layer1
  6
CONTINUOUS
 62
7
 10
654.032
 20
330.935
 11
653.032
 21
329.935
  0
LINE
  8
Layer1
  6
CONTINUOUS
 62
7
 10
653.032
 20
329.935
 11
652.032
 21
330.935
  0
LINE
  8
Layer1
  6
CONTINUOUS
 62
7
 10
632.032
 20
330.935
 11
631.032
 21
329.935
  0
LINE
  8
Layer1
  6
CONTINUOUS
 62
7
 10
659.032
 20
346.935
 11
658.032
 21
345.935
  0
LINE
  8
Layer1
  6
CONTINUOUS
 62
7
 10
658.032
 20
266.935
 11
659.032
 21
265.935
  0
LINE
  8
Layer1
  6
CONTINUOUS
 62
7
 10
658.032
 20
331.935
 11
658.032
 21
344.935
  0
LINE
  8
Layer1
  6
CONTINUOUS
 62
7
 10
658.032
 20
281.935
 11
659.032
 21
282.935
  0
LINE
  8
Layer1
  6
CONTINUOUS
 62
7
 10
719.032
 20
349.935
 11
719.032
 21
403.935
  0
LINE
  8
Layer1
  6
CONTINUOUS
 62
7
 10
754.032
 20
314.935
 11
765.032
 21
314.935
  0
LINE
  8
Layer1
  6
CONTINUOUS
 62
7
 10
754.032
 20
314.935
 11
719.032
 21
349.935
  0
ARC
  8
Layer1
  6
CONTINUOUS
 62
7
 10
765.032
 20
317.935
 40
3
 50
270
 51
2.03555e-013
  0
LINE
  8
Layer1
  6
PHANTOM1
 62
7
 10
719.032
 20
379.935
 11
768.032
 21
379.935
  0
LINE
  8
Layer1
  6
PHANTOM1
 62
7
 10
719.032
 20
363.935
 11
768.032
 21
363.935
  0
LINE
  8
Layer1
  6
CONTINUOUS
 62
7
 10
718.032
 20
331.935
 11
718.032
 21
345.935
  0
LINE
  8
Layer1
  6
CONTINUOUS
 62
7
 10
718.032
 20
345.935
 11
717.032
 21
346.935
  0
LINE
  8
Layer1
  6
CONTINUOUS
 62
7
 10
659.032
 20
330.935
 11
717.109
 21
330.935
  0
LINE
  8
Layer1
  6
CONTINUOUS
 62
7
 10
718.032
 20
331.935
 11
717.032
 21
330.935
  0
LINE
  8
Layer1
  6
CONTINUOUS
 62
7
 10
659.032
 20
330.935
 11
658.032
 21
331.935
  0
LINE
  8
Layer1
  6
CONTINUOUS
 62
7
 10
658.032
 20
329.935
 11
658.032
 21
281.935
  0
LINE
  8
Layer1
  6
CONTINUOUS
 62
7
 10
728.032
 20
340.935
 11
767.957
 21
340.935
  0
LINE
  8
Layer1
  6
CONTINUOUS
 62
7
 10
754.032
 20
314.935
 11
764.957
 21
304.01
  0
LINE
  8
Layer1
  6
CONTINUOUS
 62
7
 10
764.957
 20
291.935
 11
764.957
 21
304.01
  0
LINE
  8
Layer1
  6
CENTER1
 62
7
 10
729.032
 20
410.222
 11
729.032
 21
384.06
  0
LINE
  8
Layer1
  6
CENTER1
 62
7
 10
758.032
 20
409.34
 11
758.032
 21
383.619
  0
LINE
  8
Layer1
  6
CONTINUOUS
 62
7
 10
720.032
 20
404.935
 11
719.032
 21
403.935
  0
LINE
  8
Layer1
  6
CONTINUOUS
 62
7
 10
768.032
 20
388.951
 11
767.015
 21
387.935
  0
LINE
  8
Layer1
  6
CONTINUOUS
 62
7
 10
720.032
 20
387.935
 11
719.032
 21
388.935
  0
LINE
  8
Layer1
  6
CONTINUOUS
 62
7
 10
764.957
 20
291.935
 11
763.957
 21
290.935
  0
LINE
  8
Layer1
  6
CONTINUOUS
 62
7
 10
768.955
 20
266.935
 11
782.032
 21
266.935
  0
LINE
  8
Layer1
  6
CONTINUOUS
 62
7
 10
783.032
 20
267.935
 11
783.032
 21
338.935
  0
LINE
  8
Layer1
  6
CONTINUOUS
 62
7
 10
768.957
 20
339.935
 11
782.032
 21
339.935
  0
LINE
  8
Layer1
  6
CONTINUOUS
 62
7
 10
782.032
 20
339.935
 11
783.032
 21
338.935
  0
LINE
  8
Layer1
  6
CONTINUOUS
 62
7
 10
783.032
 20
267.935
 11
782.032
 21
266.935
  0
LINE
  8
Layer1
  6
CONTINUOUS
 62
7
 10
768.955
 20
266.935
 11
767.955
 21
267.935
  0
LINE
  8
Layer1
  6
CONTINUOUS
 62
7
 10
768.032
 20
339.01
 11
768.957
 21
339.935
  0
LINE
  8
Layer1
  6
CENTER1
 62
7
 10
670.032
 20
347.73
 11
670.032
 21
327.74
  0
LINE
  8
Layer1
  6
CENTER1
 62
7
 10
706.032
 20
327.74
 11
706.032
 21
351.675
  0
LINE
  8
Layer1
  6
DASHED1
 62
7
 10
666.03
 20
344.935
 11
674.03
 21
344.935
  0
LINE
  8
Layer1
  6
DASHED1
 62
7
 10
675.032
 20
343.935
 11
675.032
 21
338.935
  0
LINE
  8
Layer1
  6
DASHED1
 62
7
 10
665.032
 20
343.935
 11
665.032
 21
338.935
  0
LINE
  8
Layer1
  6
DASHED1
 62
7
 10
675.532
 20
338.935
 11
664.532
 21
338.935
  0
LINE
  8
Layer1
  6
DASHED1
 62
7
 10
666.03
 20
344.935
 11
665.03
 21
343.935
  0
LINE
  8
Layer1
  6
DASHED1
 62
7
 10
675.457
 20
338.935
 11
675.457
 21
346.951
  0
LINE
  8
Layer1
  6
DASHED1
 62
7
 10
664.532
 20
338.935
 11
664.532
 21
346.952
  0
LINE
  8
Layer1
  6
DASHED1
 62
7
 10
675.03
 20
343.935
 11
665.03
 21
343.935
  0
LINE
  8
Layer1
  6
DASHED1
 62
7
 10
675.032
 20
343.935
 11
675.032
 21
338.935
  0
LINE
  8
Layer1
  6
DASHED1
 62
7
 10
674.03
 20
344.935
 11
675.03
 21
343.935
  0
LINE
  8
Layer1
  6
DASHED1
 62
7
 10
675.032
 20
338.935
 11
675.032
 21
343.935
  0
LINE
  8
Layer1
  6
DASHED1
 62
7
 10
674.532
 20
339.185
 11
674.532
 21
343.685
  0
LINE
  8
Layer1
  6
DASHED1
 62
7
 10
673.532
 20
339.685
 11
673.532
 21
343.185
  0
LINE
  8
Layer1
  6
DASHED1
 62
7
 10
672.532
 20
340.185
 11
672.532
 21
342.685
  0
LINE
  8
Layer1
  6
DASHED1
 62
7
 10
667.032
 20
338.935
 11
667.032
 21
330.935
  0
LINE
  8
Layer1
  6
DASHED1
 62
7
 10
673.032
 20
338.935
 11
673.032
 21
330.935
  0
LINE
  8
Layer1
  6
CENTER1
 62
7
 10
626.109
 20
298.435
 11
667.613
 21
298.435
  0
LINE
  8
Layer1
  6
CENTER1
 62
7
 10
764.166
 20
296.935
 11
795.55
 21
296.935
  0
LINE
  8
Layer1
  6
CONTINUOUS
 62
7
 10
701.318
 20
286.204
 11
748.957
 21
286.204
  0
LINE
  8
Layer1
  6
CONTINUOUS
 62
7
 10
705.135
 20
270.204
 11
748.957
 21
270.204
  0
LINE
  8
Layer1
  6
CONTINUOUS
 62
7
 10
748.957
 20
270.204
 11
748.957
 21
290.935
  0
LINE
  8
Layer1
  6
CONTINUOUS
 62
7
 10
783.032
 20
302.709
 11
787.528
 21
302.709
  0
LINE
  8
Layer1
  6
CONTINUOUS
 62
7
 10
788.032
 20
301.835
 11
788.032
 21
292.035
  0
LINE
  8
Layer1
  6
CONTINUOUS
 62
7
 10
788.032
 20
301.035
 11
787.528
 21
300.161
  0
LINE
  8
Layer1
  6
CONTINUOUS
 62
7
 10
787.528
 20
291.161
 11
783.032
 21
291.161
  0
LINE
  8
Layer1
  6
CONTINUOUS
 62
7
 10
783.032
 20
299.822
 11
787.528
 21
299.822
  0
LINE
  8
Layer1
  6
CONTINUOUS
 62
7
 10
783.032
 20
294.048
 11
787.528
 21
294.048
  0
LINE
  8
Layer1
  6
CONTINUOUS
 62
7
 10
788.032
 20
299.935
 11
790.993
 21
299.935
  0
LINE
  8
Layer1
  6
CONTINUOUS
 62
7
 10
788.032
 20
293.935
 11
790.993
 21
293.935
  0
LINE
  8
Layer1
  6
CONTINUOUS
 62
7
 10
788.032
 20
299.535
 11
791.393
 21
299.535
  0
LINE
  8
Layer1
  6
CONTINUOUS
 62
7
 10
788.032
 20
294.335
 11
791.393
 21
294.335
  0
ARC
  8
Layer1
  6
CONTINUOUS
 62
7
 10
778.421
 20
296.935
 40
9.553
 50
342.412
 51
17.588
  0
ARC
  8
Layer1
  6
CONTINUOUS
 62
7
 10
785.418
 20
301.265
 40
2.556
 50
325.616
 51
34.384
  0
ARC
  8
Layer1
  6
CONTINUOUS
 62
7
 10
785.418
 20
292.605
 40
2.556
 50
325.616
 51
34.384
  0
LINE
  8
Layer1
  6
CONTINUOUS
 62
7
 10
791.993
 20
298.935
 11
791.993
 21
294.935
  0
LINE
  8
Layer1
  6
CONTINUOUS
 62
7
 10
790.993
 20
299.935
 11
791.993
 21
298.935
  0
LINE
  8
Layer1
  6
CONTINUOUS
 62
7
 10
790.993
 20
293.935
 11
791.993
 21
294.935
  0
LINE
  8
Layer1
  6
CONTINUOUS
 62
7
 10
783.032
 20
302.709
 11
783.032
 21
291.161
  0
LINE
  8
Layer1
  6
PHANTOM1
 62
7
 10
748.957
 20
270.204
 11
748.957
 21
274.204
  0
LINE
  8
Layer1
  6
CONTINUOUS
 62
7
 10
765.957
 20
299.935
 11
765.957
 21
293.935
  0
LINE
  8
Layer1
  6
CONTINUOUS
 62
7
 10
764.957
 20
298.935
 11
764.957
 21
294.935
  0
LINE
  8
Layer1
  6
CONTINUOUS
 62
7
 10
765.957
 20
299.935
 11
764.957
 21
298.935
  0
LINE
  8
Layer1
  6
CONTINUOUS
 62
7
 10
765.957
 20
293.935
 11
764.957
 21
294.935
  0
LINE
  8
Layer1
  6
CONTINUOUS
 62
7
 10
765.957
 20
299.935
 11
768
 21
299.935
  0
LINE
  8
Layer1
  6
CONTINUOUS
 62
7
 10
765.957
 20
293.935
 11
768
 21
293.935
  0
LINE
  8
Layer1
  6
CONTINUOUS
 62
7
 10
767.956
 20
294.335
 11
765.53
 21
294.335
  0
LINE
  8
Layer1
  6
CONTINUOUS
 62
7
 10
767.956
 20
299.535
 11
765.378
 21
299.535
  0
LINE
  8
Layer1
  6
CONTINUOUS
 62
7
 10
659.032
 20
330.935
 11
658.032
 21
329.935
  0
LINE
  8
Layer1
  6
CONTINUOUS
 62
7
 10
748.957
 20
290.935
 11
748.957
 21
269.935
  0
LINE
  8
Layer1
  6
CONTINUOUS
 62
7
 10
748.957
 20
269.935
 11
751.957
 21
269.935
  0
LINE
  8
Layer1
  6
CENTER1
 62
7
 10
758.957
 20
295.232
 11
758.957
 21
261.585
  0
LINE
  8
Layer1
  6
CONTINUOUS
 62
7
 10
751.957
 20
287.935
 11
764.957
 21
287.935
  0
LINE
  8
Layer1
  6
CONTINUOUS
 62
7
 10
764.957
 20
290.935
 11
764.957
 21
287.935
  0
LINE
  8
Layer1
  6
CONTINUOUS
 62
7
 10
751.957
 20
287.935
 11
751.957
 21
269.935
  0
LINE
  8
Layer1
  6
CONTINUOUS
 62
7
 10
763.207
 20
287.935
 11
763.207
 21
283.335
  0
LINE
  8
Layer1
  6
CONTINUOUS
 62
7
 10
754.707
 20
287.935
 11
754.707
 21
283.335
  0
LINE
  8
Layer1
  6
CONTINUOUS
 62
7
 10
763.207
 20
283.335
 11
754.707
 21
283.335
  0
LINE
  8
Layer1
  6
CONTINUOUS
 62
7
 10
762.807
 20
282.935
 11
755.107
 21
282.935
  0
LINE
  8
Layer1
  6
CONTINUOUS
 62
7
 10
763.207
 20
283.335
 11
762.807
 21
282.935
  0
LINE
  8
Layer1
  6
CONTINUOUS
 62
7
 10
754.707
 20
283.335
 11
755.107
 21
282.935
  0
LINE
  8
Layer1
  6
CONTINUOUS
 62
7
 10
753.957
 20
287.935
 11
763.957
 21
287.935
  0
LINE
  8
Layer1
  6
CONTINUOUS
 62
7
 10
755.957
 20
283.729
 11
755.957
 21
287.259
  0
LINE
  8
Layer1
  6
CONTINUOUS
 62
7
 10
756.957
 20
284.365
 11
756.957
 21
286.718
  0
LINE
  8
Layer1
  6
CONTINUOUS
 62
7
 10
757.957
 20
285
 11
757.957
 21
286.176
  0
LINE
  8
Layer1
  6
CONTINUOUS
 62
7
 10
754.707
 20
287.935
 11
763.207
 21
287.935
  0
LINE
  8
Layer1
  6
CONTINUOUS
 62
7
 10
711.861
 20
286.204
 11
709.518
 21
286.204
  0
LINE
  8
Layer1
  6
CONTINUOUS
 62
7
 10
707.175
 20
286.204
 11
704.832
 21
286.204
  0
LINE
  8
Layer1
  6
CONTINUOUS
 62
7
 10
702.489
 20
286.204
 11
701.072
 21
286.204
  0
LINE
  8
Layer1
  6
CONTINUOUS
 62
7
 10
748.957
 20
286.204
 11
748.957
 21
270.204
  0
LINE
  8
Layer1
  6
CONTINUOUS
 62
7
 10
711.08
 20
270.204
 11
713.423
 21
270.204
  0
LINE
  8
Layer1
  6
CONTINUOUS
 62
7
 10
734.509
 20
270.204
 11
736.852
 21
270.204
  0
LINE
  8
Layer1
  6
CONTINUOUS
 62
7
 10
748.957
 20
286.204
 11
747.005
 21
286.204
  0
LINE
  8
Layer1
  6
CONTINUOUS
 62
7
 10
732.947
 20
282.209
 11
735.29
 21
282.209
  0
LINE
  8
Layer1
  6
CONTINUOUS
 62
7
 10
734.509
 20
274.22
 11
736.852
 21
274.22
  0
LINE
  8
Layer1
  6
CONTINUOUS
 62
7
 10
735.29
 20
286.204
 11
735.29
 21
282.209
  0
LINE
  8
Layer1
  6
CONTINUOUS
 62
7
 10
732.947
 20
286.204
 11
732.947
 21
282.209
  0
LINE
  8
Layer1
  6
CONTINUOUS
 62
7
 10
734.509
 20
274.22
 11
734.509
 21
270.204
  0
LINE
  8
Layer1
  6
CONTINUOUS
 62
7
 10
736.852
 20
274.22
 11
736.852
 21
270.204
  0
LINE
  8
Layer1
  6
CONTINUOUS
 62
7
 10
732.947
 20
282.209
 11
734.509
 21
274.22
  0
LINE
  8
Layer1
  6
CONTINUOUS
 62
7
 10
735.29
 20
282.209
 11
736.852
 21
274.22
  0
LINE
  8
Layer1
  6
CONTINUOUS
 62
7
 10
733.728
 20
278.215
 11
734.509
 21
270.204
  0
LINE
  8
Layer1
  6
CONTINUOUS
 62
7
 10
735.485
 20
286.204
 11
736.071
 21
278.215
  0
LINE
  8
Layer1
  6
CONTINUOUS
 62
7
 10
739.195
 20
270.204
 11
741.538
 21
270.204
  0
LINE
  8
Layer1
  6
CONTINUOUS
 62
7
 10
739.976
 20
286.204
 11
737.633
 21
286.204
  0
LINE
  8
Layer1
  6
CONTINUOUS
 62
7
 10
737.633
 20
282.209
 11
739.976
 21
282.209
  0
LINE
  8
Layer1
  6
CONTINUOUS
 62
7
 10
739.195
 20
274.22
 11
741.538
 21
274.22
  0
LINE
  8
Layer1
  6
CONTINUOUS
 62
7
 10
739.976
 20
286.204
 11
739.976
 21
282.209
  0
LINE
  8
Layer1
  6
CONTINUOUS
 62
7
 10
737.633
 20
286.204
 11
737.633
 21
282.209
  0
LINE
  8
Layer1
  6
CONTINUOUS
 62
7
 10
739.195
 20
274.22
 11
739.195
 21
270.204
  0
LINE
  8
Layer1
  6
CONTINUOUS
 62
7
 10
741.538
 20
274.22
 11
741.538
 21
270.204
  0
LINE
  8
Layer1
  6
CONTINUOUS
 62
7
 10
737.633
 20
282.209
 11
739.195
 21
274.22
  0
LINE
  8
Layer1
  6
CONTINUOUS
 62
7
 10
739.976
 20
282.209
 11
741.538
 21
274.22
  0
LINE
  8
Layer1
  6
CONTINUOUS
 62
7
 10
738.414
 20
278.215
 11
739.195
 21
270.204
  0
LINE
  8
Layer1
  6
CONTINUOUS
 62
7
 10
740.171
 20
286.204
 11
740.757
 21
278.215
  0
LINE
  8
Layer1
  6
CONTINUOUS
 62
7
 10
743.881
 20
270.204
 11
746.224
 21
270.204
  0
LINE
  8
Layer1
  6
CONTINUOUS
 62
7
 10
744.662
 20
286.204
 11
742.319
 21
286.204
  0
LINE
  8
Layer1
  6
CONTINUOUS
 62
7
 10
742.319
 20
282.209
 11
744.662
 21
282.209
  0
LINE
  8
Layer1
  6
CONTINUOUS
 62
7
 10
743.881
 20
274.22
 11
746.224
 21
274.22
  0
LINE
  8
Layer1
  6
CONTINUOUS
 62
7
 10
744.662
 20
286.204
 11
744.662
 21
282.209
  0
LINE
  8
Layer1
  6
CONTINUOUS
 62
7
 10
742.319
 20
286.204
 11
742.319
 21
282.209
  0
LINE
  8
Layer1
  6
CONTINUOUS
 62
7
 10
743.881
 20
274.22
 11
743.881
 21
270.204
  0
LINE
  8
Layer1
  6
CONTINUOUS
 62
7
 10
746.224
 20
274.22
 11
746.224
 21
270.204
  0
LINE
  8
Layer1
  6
CONTINUOUS
 62
7
 10
742.319
 20
282.209
 11
743.881
 21
274.22
  0
LINE
  8
Layer1
  6
CONTINUOUS
 62
7
 10
744.662
 20
282.209
 11
746.224
 21
274.22
  0
LINE
  8
Layer1
  6
CONTINUOUS
 62
7
 10
743.1
 20
278.215
 11
743.881
 21
270.204
  0
LINE
  8
Layer1
  6
CONTINUOUS
 62
7
 10
744.857
 20
286.204
 11
745.443
 21
278.215
  0
LINE
  8
Layer1
  6
CONTINUOUS
 62
7
 10
748.567
 20
270.204
 11
748.957
 21
270.204
  0
LINE
  8
Layer1
  6
CONTINUOUS
 62
7
 10
747.005
 20
282.209
 11
748.957
 21
282.204
  0
LINE
  8
Layer1
  6
CONTINUOUS
 62
7
 10
748.567
 20
274.22
 11
748.957
 21
274.204
  0
LINE
  8
Layer1
  6
CONTINUOUS
 62
7
 10
747.005
 20
286.204
 11
747.005
 21
282.209
  0
LINE
  8
Layer1
  6
CONTINUOUS
 62
7
 10
748.567
 20
274.22
 11
748.567
 21
270.204
  0
LINE
  8
Layer1
  6
CONTINUOUS
 62
7
 10
747.005
 20
282.209
 11
748.567
 21
274.22
  0
LINE
  8
Layer1
  6
CONTINUOUS
 62
7
 10
747.786
 20
278.215
 11
748.567
 21
270.204
  0
LINE
  8
Layer1
  6
CONTINUOUS
 62
7
 10
735.29
 20
286.204
 11
732.947
 21
286.204
  0
LINE
  8
Layer1
  6
CONTINUOUS
 62
7
 10
730.604
 20
286.204
 11
728.261
 21
286.204
  0
LINE
  8
Layer1
  6
CONTINUOUS
 62
7
 10
725.918
 20
286.204
 11
723.576
 21
286.204
  0
LINE
  8
Layer1
  6
CONTINUOUS
 62
7
 10
711.861
 20
286.204
 11
709.518
 21
286.204
  0
LINE
  8
Layer1
  6
CONTINUOUS
 62
7
 10
709.518
 20
282.209
 11
711.861
 21
282.209
  0
LINE
  8
Layer1
  6
CONTINUOUS
 62
7
 10
711.08
 20
274.22
 11
713.423
 21
274.22
  0
LINE
  8
Layer1
  6
CONTINUOUS
 62
7
 10
711.861
 20
286.204
 11
711.861
 21
282.209
  0
LINE
  8
Layer1
  6
CONTINUOUS
 62
7
 10
709.518
 20
286.204
 11
709.518
 21
282.209
  0
LINE
  8
Layer1
  6
CONTINUOUS
 62
7
 10
711.08
 20
274.22
 11
711.08
 21
270.204
  0
LINE
  8
Layer1
  6
CONTINUOUS
 62
7
 10
713.423
 20
274.22
 11
713.423
 21
270.204
  0
LINE
  8
Layer1
  6
CONTINUOUS
 62
7
 10
709.518
 20
282.209
 11
711.08
 21
274.22
  0
LINE
  8
Layer1
  6
CONTINUOUS
 62
7
 10
711.861
 20
282.209
 11
713.423
 21
274.22
  0
LINE
  8
Layer1
  6
CONTINUOUS
 62
7
 10
710.299
 20
278.215
 11
711.08
 21
270.204
  0
LINE
  8
Layer1
  6
CONTINUOUS
 62
7
 10
712.056
 20
286.204
 11
712.642
 21
278.215
  0
LINE
  8
Layer1
  6
CONTINUOUS
 62
7
 10
715.766
 20
270.204
 11
718.109
 21
270.204
  0
LINE
  8
Layer1
  6
CONTINUOUS
 62
7
 10
716.547
 20
286.204
 11
714.204
 21
286.204
  0
LINE
  8
Layer1
  6
CONTINUOUS
 62
7
 10
714.204
 20
282.209
 11
716.547
 21
282.209
  0
LINE
  8
Layer1
  6
CONTINUOUS
 62
7
 10
715.766
 20
274.22
 11
718.109
 21
274.22
  0
LINE
  8
Layer1
  6
CONTINUOUS
 62
7
 10
716.547
 20
286.204
 11
716.547
 21
282.209
  0
LINE
  8
Layer1
  6
CONTINUOUS
 62
7
 10
714.204
 20
286.204
 11
714.204
 21
282.209
  0
LINE
  8
Layer1
  6
CONTINUOUS
 62
7
 10
715.766
 20
274.22
 11
715.766
 21
270.204
  0
LINE
  8
Layer1
  6
CONTINUOUS
 62
7
 10
718.109
 20
274.22
 11
718.109
 21
270.204
  0
LINE
  8
Layer1
  6
CONTINUOUS
 62
7
 10
714.204
 20
282.209
 11
715.766
 21
274.22
  0
LINE
  8
Layer1
  6
CONTINUOUS
 62
7
 10
716.547
 20
282.209
 11
718.109
 21
274.22
  0
LINE
  8
Layer1
  6
CONTINUOUS
 62
7
 10
714.985
 20
278.215
 11
715.766
 21
270.204
  0
LINE
  8
Layer1
  6
CONTINUOUS
 62
7
 10
716.742
 20
286.204
 11
717.328
 21
278.215
  0
LINE
  8
Layer1
  6
CONTINUOUS
 62
7
 10
720.452
 20
270.204
 11
722.795
 21
270.204
  0
LINE
  8
Layer1
  6
CONTINUOUS
 62
7
 10
721.233
 20
286.204
 11
718.89
 21
286.204
  0
LINE
  8
Layer1
  6
CONTINUOUS
 62
7
 10
718.89
 20
282.209
 11
721.233
 21
282.209
  0
LINE
  8
Layer1
  6
CONTINUOUS
 62
7
 10
720.452
 20
274.22
 11
722.795
 21
274.22
  0
LINE
  8
Layer1
  6
CONTINUOUS
 62
7
 10
721.233
 20
286.204
 11
721.233
 21
282.209
  0
LINE
  8
Layer1
  6
CONTINUOUS
 62
7
 10
718.89
 20
286.204
 11
718.89
 21
282.209
  0
LINE
  8
Layer1
  6
CONTINUOUS
 62
7
 10
720.452
 20
274.22
 11
720.452
 21
270.204
  0
LINE
  8
Layer1
  6
CONTINUOUS
 62
7
 10
722.795
 20
274.22
 11
722.795
 21
270.204
  0
LINE
  8
Layer1
  6
CONTINUOUS
 62
7
 10
718.89
 20
282.209
 11
720.452
 21
274.22
  0
LINE
  8
Layer1
  6
CONTINUOUS
 62
7
 10
721.233
 20
282.209
 11
722.795
 21
274.22
  0
LINE
  8
Layer1
  6
CONTINUOUS
 62
7
 10
719.671
 20
278.215
 11
720.452
 21
270.204
  0
LINE
  8
Layer1
  6
CONTINUOUS
 62
7
 10
721.428
 20
286.204
 11
722.014
 21
278.215
  0
LINE
  8
Layer1
  6
CONTINUOUS
 62
7
 10
725.138
 20
270.204
 11
727.48
 21
270.204
  0
LINE
  8
Layer1
  6
CONTINUOUS
 62
7
 10
725.918
 20
286.204
 11
723.576
 21
286.204
  0
LINE
  8
Layer1
  6
CONTINUOUS
 62
7
 10
723.576
 20
282.209
 11
725.918
 21
282.209
  0
LINE
  8
Layer1
  6
CONTINUOUS
 62
7
 10
725.138
 20
274.22
 11
727.48
 21
274.22
  0
LINE
  8
Layer1
  6
CONTINUOUS
 62
7
 10
725.918
 20
286.204
 11
725.918
 21
282.209
  0
LINE
  8
Layer1
  6
CONTINUOUS
 62
7
 10
723.576
 20
286.204
 11
723.576
 21
282.209
  0
LINE
  8
Layer1
  6
CONTINUOUS
 62
7
 10
725.138
 20
274.22
 11
725.138
 21
270.204
  0
LINE
  8
Layer1
  6
CONTINUOUS
 62
7
 10
727.48
 20
274.22
 11
727.48
 21
270.204
  0
LINE
  8
Layer1
  6
CONTINUOUS
 62
7
 10
723.576
 20
282.209
 11
725.138
 21
274.22
  0
LINE
  8
Layer1
  6
CONTINUOUS
 62
7
 10
725.918
 20
282.209
 11
727.48
 21
274.22
  0
LINE
  8
Layer1
  6
CONTINUOUS
 62
7
 10
724.357
 20
278.215
 11
725.138
 21
270.204
  0
LINE
  8
Layer1
  6
CONTINUOUS
 62
7
 10
726.114
 20
286.204
 11
726.699
 21
278.215
  0
LINE
  8
Layer1
  6
CONTINUOUS
 62
7
 10
729.823
 20
270.204
 11
732.166
 21
270.204
  0
LINE
  8
Layer1
  6
CONTINUOUS
 62
7
 10
730.604
 20
286.204
 11
728.261
 21
286.204
  0
LINE
  8
Layer1
  6
CONTINUOUS
 62
7
 10
728.261
 20
282.209
 11
730.604
 21
282.209
  0
LINE
  8
Layer1
  6
CONTINUOUS
 62
7
 10
729.823
 20
274.22
 11
732.166
 21
274.22
  0
LINE
  8
Layer1
  6
CONTINUOUS
 62
7
 10
730.604
 20
286.204
 11
730.604
 21
282.209
  0
LINE
  8
Layer1
  6
CONTINUOUS
 62
7
 10
728.261
 20
286.204
 11
728.261
 21
282.209
  0
LINE
  8
Layer1
  6
CONTINUOUS
 62
7
 10
729.823
 20
274.22
 11
729.823
 21
270.204
  0
LINE
  8
Layer1
  6
CONTINUOUS
 62
7
 10
732.166
 20
274.22
 11
732.166
 21
270.204
  0
LINE
  8
Layer1
  6
CONTINUOUS
 62
7
 10
728.261
 20
282.209
 11
729.823
 21
274.22
  0
LINE
  8
Layer1
  6
CONTINUOUS
 62
7
 10
730.604
 20
282.209
 11
732.166
 21
274.22
  0
LINE
  8
Layer1
  6
CONTINUOUS
 62
7
 10
729.042
 20
278.215
 11
729.823
 21
270.204
  0
LINE
  8
Layer1
  6
CONTINUOUS
 62
7
 10
730.8
 20
286.204
 11
731.385
 21
278.215
  0
LINE
  8
Layer1
  6
CONTINUOUS
 62
7
 10
734.509
 20
270.204
 11
736.852
 21
270.204
  0
LINE
  8
Layer1
  6
CONTINUOUS
 62
7
 10
735.29
 20
286.204
 11
732.947
 21
286.204
  0
LINE
  8
Layer1
  6
CONTINUOUS
 62
7
 10
732.947
 20
282.209
 11
735.29
 21
282.209
  0
LINE
  8
Layer1
  6
CONTINUOUS
 62
7
 10
734.509
 20
274.22
 11
736.852
 21
274.22
  0
LINE
  8
Layer1
  6
CONTINUOUS
 62
7
 10
735.29
 20
286.204
 11
735.29
 21
282.209
  0
LINE
  8
Layer1
  6
CONTINUOUS
 62
7
 10
732.947
 20
286.204
 11
732.947
 21
282.209
  0
LINE
  8
Layer1
  6
CONTINUOUS
 62
7
 10
734.509
 20
274.22
 11
734.509
 21
270.204
  0
LINE
  8
Layer1
  6
CONTINUOUS
 62
7
 10
736.852
 20
274.22
 11
736.852
 21
270.204
  0
LINE
  8
Layer1
  6
CONTINUOUS
 62
7
 10
732.947
 20
282.209
 11
734.509
 21
274.22
  0
LINE
  8
Layer1
  6
CONTINUOUS
 62
7
 10
735.29
 20
282.209
 11
736.852
 21
274.22
  0
LINE
  8
Layer1
  6
CONTINUOUS
 62
7
 10
733.728
 20
278.215
 11
734.509
 21
270.204
  0
LINE
  8
Layer1
  6
CONTINUOUS
 62
7
 10
735.485
 20
286.204
 11
736.071
 21
278.215
  0
LINE
  8
Layer1
  6
CONTINUOUS
 62
7
 10
706.394
 20
270.204
 11
708.737
 21
270.204
  0
LINE
  8
Layer1
  6
CONTINUOUS
 62
7
 10
707.175
 20
286.204
 11
704.832
 21
286.204
  0
LINE
  8
Layer1
  6
CONTINUOUS
 62
7
 10
704.832
 20
282.209
 11
707.175
 21
282.209
  0
LINE
  8
Layer1
  6
CONTINUOUS
 62
7
 10
706.394
 20
274.22
 11
708.737
 21
274.22
  0
LINE
  8
Layer1
  6
CONTINUOUS
 62
7
 10
707.175
 20
286.204
 11
707.175
 21
282.209
  0
LINE
  8
Layer1
  6
CONTINUOUS
 62
7
 10
704.832
 20
286.204
 11
704.832
 21
282.209
  0
LINE
  8
Layer1
  6
CONTINUOUS
 62
7
 10
706.394
 20
274.22
 11
706.394
 21
270.204
  0
LINE
  8
Layer1
  6
CONTINUOUS
 62
7
 10
708.737
 20
274.22
 11
708.737
 21
270.204
  0
LINE
  8
Layer1
  6
CONTINUOUS
 62
7
 10
704.832
 20
282.209
 11
706.394
 21
274.22
  0
LINE
  8
Layer1
  6
CONTINUOUS
 62
7
 10
707.175
 20
282.209
 11
708.737
 21
274.22
  0
LINE
  8
Layer1
  6
CONTINUOUS
 62
7
 10
705.613
 20
278.215
 11
706.394
 21
270.204
  0
LINE
  8
Layer1
  6
CONTINUOUS
 62
7
 10
707.37
 20
286.204
 11
707.956
 21
278.215
  0
LINE
  8
Layer1
  6
CONTINUOUS
 62
7
 10
700.966
 20
282.209
 11
702.489
 21
282.209
  0
LINE
  8
Layer1
  6
CONTINUOUS
 62
7
 10
701.708
 20
274.22
 11
704.051
 21
274.22
  0
LINE
  8
Layer1
  6
CONTINUOUS
 62
7
 10
702.489
 20
286.204
 11
702.489
 21
282.209
  0
LINE
  8
Layer1
  6
CONTINUOUS
 62
7
 10
704.051
 20
274.22
 11
704.051
 21
271.161
  0
LINE
  8
Layer1
  6
CONTINUOUS
 62
7
 10
700.927
 20
278.215
 11
701.708
 21
274.22
  0
LINE
  8
Layer1
  6
CONTINUOUS
 62
7
 10
702.489
 20
282.209
 11
704.051
 21
274.22
  0
LINE
  8
Layer1
  6
CONTINUOUS
 62
7
 10
702.684
 20
286.204
 11
703.27
 21
278.215
  0
LINE
  8
Layer1
  6
DASHED1
 62
7
 10
668.141
 20
325.935
 11
675.24
 21
325.935
  0
LINE
  8
Layer1
  6
DASHED1
 62
7
 10
668.141
 20
320.935
 11
675.24
 21
320.935
  0
LINE
  8
Layer1
  6
DASHED1
 62
7
 10
675.165
 20
325.935
 11
675.165
 21
320.935
  0
LINE
  8
Layer1
  6
DASHED1
 62
7
 10
675.165
 20
320.935
 11
675.165
 21
321.256
  0
LINE
  8
Layer1
  6
DASHED1
 62
7
 10
671.684
 20
320.435
 11
671.684
 21
321.56
  0
LINE
  8
Layer1
  6
CENTER1
 62
7
 10
684.753
 20
323.435
 11
624.256
 21
323.435
  0
LINE
  8
Layer1
  6
DASHED1
 62
7
 10
675.165
 20
325.935
 11
676.609
 21
323.435
  0
LINE
  8
Layer1
  6
DASHED1
 62
7
 10
676.609
 20
323.435
 11
675.165
 21
320.935
  0
LINE
  8
Layer1
  6
DASHED1
 62
7
 10
668.143
 20
326.435
 11
653.032
 21
326.435
  0
LINE
  8
Layer1
  6
DASHED1
 62
7
 10
668.143
 20
320.435
 11
653.032
 21
320.435
  0
LINE
  8
Layer1
  6
DASHED1
 62
7
 10
669.141
 20
321.435
 11
669.141
 21
325.435
  0
LINE
  8
Layer1
  6
CONTINUOUS
 62
7
 10
638.143
 20
325.935
 11
653.032
 21
325.935
  0
LINE
  8
Layer1
  6
CONTINUOUS
 62
7
 10
638.143
 20
320.935
 11
653.032
 21
320.935
  0
LINE
  8
Layer1
  6
DASHED1
 62
7
 10
668.141
 20
326.435
 11
668.141
 21
320.435
  0
LINE
  8
Layer1
  6
DASHED1
 62
7
 10
668.141
 20
326.435
 11
669.141
 21
325.435
  0
LINE
  8
Layer1
  6
DASHED1
 62
7
 10
669.141
 20
321.435
 11
668.141
 21
320.435
  0
LINE
  8
Layer1
  6
DASHED1
 62
7
 10
671.684
 20
326.435
 11
668.141
 21
326.435
  0
LINE
  8
Layer1
  6
DASHED1
 62
7
 10
671.684
 20
320.435
 11
668.141
 21
320.435
  0
LINE
  8
Layer1
  6
DASHED1
 62
7
 10
671.684
 20
326.435
 11
672.55
 21
325.935
  0
LINE
  8
Layer1
  6
DASHED1
 62
7
 10
671.684
 20
320.435
 11
672.55
 21
320.935
  0
LINE
  8
Layer1
  6
DASHED1
 62
7
 10
672.55
 20
325.935
 11
672.55
 21
320.935
  0
LINE
  8
Layer1
  6
CONTINUOUS
 62
7
 10
653.032
 20
326.435
 11
638.143
 21
326.435
  0
LINE
  8
Layer1
  6
DASHED1
 62
7
 10
653.032
 20
325.935
 11
671.643
 21
325.935
  0
LINE
  8
Layer1
  6
DASHED1
 62
7
 10
653.032
 20
320.935
 11
671.643
 21
320.935
  0
LINE
  8
Layer1
  6
CONTINUOUS
 62
7
 10
653.032
 20
320.435
 11
638.143
 21
320.435
  0
POLYLINE
  8
Layer1
  6
CONTINUOUS
 62
7
 66
1
 10
0
 20
0
 30
0
  0
VERTEX
  8
Layer1
 10
631.032
 20
311.882
  0
VERTEX
  8
Layer1
 10
631.323
 20
311.992
  0
VERTEX
  8
Layer1
 10
631.613
 20
312.1
  0
VERTEX
  8
Layer1
 10
631.904
 20
312.205
  0
VERTEX
  8
Layer1
 10
632.196
 20
312.305
  0
VERTEX
  8
Layer1
 10
632.488
 20
312.398
  0
VERTEX
  8
Layer1
 10
632.78
 20
312.483
  0
VERTEX
  8
Layer1
 10
633.074
 20
312.558
  0
VERTEX
  8
Layer1
 10
633.368
 20
312.621
  0
VERTEX
  8
Layer1
 10
633.664
 20
312.67
  0
VERTEX
  8
Layer1
 10
633.96
 20
312.705
  0
VERTEX
  8
Layer1
 10
634.258
 20
312.723
  0
VERTEX
  8
Layer1
 10
634.558
 20
312.722
  0
VERTEX
  8
Layer1
 10
634.859
 20
312.701
  0
VERTEX
  8
Layer1
 10
635.162
 20
312.66
  0
VERTEX
  8
Layer1
 10
635.466
 20
312.6
  0
VERTEX
  8
Layer1
 10
635.771
 20
312.525
  0
VERTEX
  8
Layer1
 10
636.076
 20
312.438
  0
VERTEX
  8
Layer1
 10
636.382
 20
312.342
  0
VERTEX
  8
Layer1
 10
636.687
 20
312.24
  0
VERTEX
  8
Layer1
 10
636.991
 20
312.136
  0
VERTEX
  8
Layer1
 10
637.294
 20
312.033
  0
VERTEX
  8
Layer1
 10
637.595
 20
311.933
  0
VERTEX
  8
Layer1
 10
637.893
 20
311.841
  0
VERTEX
  8
Layer1
 10
638.19
 20
311.759
  0
VERTEX
  8
Layer1
 10
638.483
 20
311.69
  0
VERTEX
  8
Layer1
 10
638.772
 20
311.637
  0
VERTEX
  8
Layer1
 10
639.058
 20
311.604
  0
VERTEX
  8
Layer1
 10
639.339
 20
311.594
  0
VERTEX
  8
Layer1
 10
639.616
 20
311.61
  0
VERTEX
  8
Layer1
 10
639.887
 20
311.656
  0
VERTEX
  8
Layer1
 10
640.153
 20
311.733
  0
VERTEX
  8
Layer1
 10
640.413
 20
311.841
  0
VERTEX
  8
Layer1
 10
640.669
 20
311.977
  0
VERTEX
  8
Layer1
 10
640.92
 20
312.137
  0
VERTEX
  8
Layer1
 10
641.167
 20
312.318
  0
VERTEX
  8
Layer1
 10
641.412
 20
312.515
  0
VERTEX
  8
Layer1
 10
641.654
 20
312.726
  0
VERTEX
  8
Layer1
 10
641.895
 20
312.948
  0
VERTEX
  8
Layer1
 10
642.134
 20
313.176
  0
VERTEX
  8
Layer1
 10
642.372
 20
313.407
  0
VERTEX
  8
Layer1
 10
642.611
 20
313.638
  0
VERTEX
  8
Layer1
 10
642.85
 20
313.866
  0
VERTEX
  8
Layer1
 10
643.09
 20
314.086
  0
VERTEX
  8
Layer1
 10
643.332
 20
314.295
  0
VERTEX
  8
Layer1
 10
643.576
 20
314.49
  0
VERTEX
  8
Layer1
 10
643.823
 20
314.667
  0
VERTEX
  8
Layer1
 10
644.074
 20
314.823
  0
VERTEX
  8
Layer1
 10
644.329
 20
314.955
  0
VERTEX
  8
Layer1
 10
644.588
 20
315.059
  0
VERTEX
  8
Layer1
 10
644.853
 20
315.13
  0
VERTEX
  8
Layer1
 10
645.124
 20
315.167
  0
VERTEX
  8
Layer1
 10
645.401
 20
315.167
  0
VERTEX
  8
Layer1
 10
645.683
 20
315.135
  0
VERTEX
  8
Layer1
 10
645.971
 20
315.075
  0
VERTEX
  8
Layer1
 10
646.262
 20
314.993
  0
VERTEX
  8
Layer1
 10
646.556
 20
314.894
  0
VERTEX
  8
Layer1
 10
646.852
 20
314.785
  0
VERTEX
  8
Layer1
 10
647.15
 20
314.669
  0
VERTEX
  8
Layer1
 10
647.448
 20
314.552
  0
VERTEX
  8
Layer1
 10
647.745
 20
314.441
  0
VERTEX
  8
Layer1
 10
648.041
 20
314.339
  0
VERTEX
  8
Layer1
 10
648.335
 20
314.252
  0
VERTEX
  8
Layer1
 10
648.626
 20
314.186
  0
VERTEX
  8
Layer1
 10
648.913
 20
314.146
  0
VERTEX
  8
Layer1
 10
649.195
 20
314.137
  0
VERTEX
  8
Layer1
 10
649.473
 20
314.159
  0
VERTEX
  8
Layer1
 10
649.746
 20
314.211
  0
VERTEX
  8
Layer1
 10
650.015
 20
314.29
  0
VERTEX
  8
Layer1
 10
650.28
 20
314.394
  0
VERTEX
  8
Layer1
 10
650.541
 20
314.521
  0
VERTEX
  8
Layer1
 10
650.799
 20
314.669
  0
VERTEX
  8
Layer1
 10
651.055
 20
314.837
  0
VERTEX
  8
Layer1
 10
651.307
 20
315.021
  0
VERTEX
  8
Layer1
 10
651.558
 20
315.219
  0
VERTEX
  8
Layer1
 10
651.807
 20
315.43
  0
VERTEX
  8
Layer1
 10
652.054
 20
315.652
  0
VERTEX
  8
Layer1
 10
652.299
 20
315.882
  0
VERTEX
  8
Layer1
 10
652.544
 20
316.119
  0
VERTEX
  8
Layer1
 10
652.788
 20
316.36
  0
VERTEX
  8
Layer1
 10
653.032
 20
316.602
  0
SEQEND
  0
LINE
  8
Layer1
  6
CONTINUOUS
 62
7
 10
783.032
 20
570.164
 11
783.032
 21
472.164
  0
LINE
  8
Layer1
  6
CONTINUOUS
 62
7
 10
768.032
 20
586.164
 11
768.032
 21
471.164
  0
LINE
  8
Layer1
  6
CONTINUOUS
 62
7
 10
719.032
 20
469.664
 11
719.032
 21
572.664
  0
LINE
  8
Layer1
  6
CONTINUOUS
 62
7
 10
658.032
 20
456.164
 11
658.032
 21
586.164
  0
LINE
  8
Layer1
  6
CONTINUOUS
 62
7
 10
653.032
 20
489.664
 11
653.032
 21
552.664
  0
LINE
  8
Layer1
  6
CONTINUOUS
 62
7
 10
631.032
 20
489.664
 11
631.032
 21
552.664
  0
LINE
  8
Layer1
  6
CONTINUOUS
 62
7
 10
767.032
 20
468.664
 11
720.032
 21
468.664
  0
LINE
  8
Layer1
  6
CONTINUOUS
 62
7
 10
718.032
 20
472.164
 11
718.032
 21
570.164
  0
LINE
  8
Layer1
  6
CENTER1
 62
7
 10
688.032
 20
505.072
 11
688.032
 21
547.855
  0
LINE
  8
Layer1
  6
CONTINUOUS
 62
7
 10
662.955
 20
591.164
 11
657.955
 21
586.164
  0
LINE
  8
Layer1
  6
CONTINUOUS
 62
7
 10
657.955
 20
456.164
 11
662.955
 21
451.164
  0
LINE
  8
Layer1
  6
CONTINUOUS
 62
7
 10
763.032
 20
451.164
 11
768.032
 21
456.164
  0
LINE
  8
Layer1
  6
CONTINUOUS
 62
7
 10
768.032
 20
586.164
 11
763.032
 21
591.164
  0
LINE
  8
Layer1
  6
CENTER1
 62
7
 10
660.558
 20
480.164
 11
677.135
 21
480.164
  0
LINE
  8
Layer1
  6
CENTER1
 62
7
 10
706.032
 20
568.697
 11
706.032
 21
557.346
  0
LINE
  8
Layer1
  6
CENTER1
 62
7
 10
670.032
 20
556.749
 11
670.032
 21
568.398
  0
LINE
  8
Layer1
  6
CENTER1
 62
7
 10
670.032
 20
472.718
 11
670.032
 21
487.63
  0
LINE
  8
Layer1
  6
CENTER1
 62
7
 10
695.986
 20
480.164
 11
713.742
 21
480.164
  0
LINE
  8
Layer1
  6
CENTER1
 62
7
 10
706.032
 20
486.981
 11
706.032
 21
472.254
  0
POLYLINE
  8
Layer1
  6
CONTINUOUS
 62
7
 66
1
 10
0
 20
0
 30
0
 70
1
  0
VERTEX
  8
Layer1
 10
670.032
 20
565.596
  0
VERTEX
  8
Layer1
 10
667.06
 20
563.88
  0
VERTEX
  8
Layer1
 10
667.06
 20
560.448
  0
VERTEX
  8
Layer1
 10
670.032
 20
558.732
  0
VERTEX
  8
Layer1
 10
673.004
 20
560.448
  0
VERTEX
  8
Layer1
 10
673.004
 20
563.88
  0
SEQEND
  0
POLYLINE
  8
Layer1
  6
CONTINUOUS
 62
7
 66
1
 10
0
 20
0
 30
0
 70
1
  0
VERTEX
  8
Layer1
 10
673.464
 20
562.164
  0
VERTEX
  8
Layer1
 10
673.435
 20
562.612
  0
VERTEX
  8
Layer1
 10
673.347
 20
563.053
  0
VERTEX
  8
Layer1
 10
673.203
 20
563.478
  0
VERTEX
  8
Layer1
 10
673.004
 20
563.88
  0
VERTEX
  8
Layer1
 10
672.755
 20
564.254
  0
VERTEX
  8
Layer1
 10
672.459
 20
564.591
  0
VERTEX
  8
Layer1
 10
672.121
 20
564.887
  0
VERTEX
  8
Layer1
 10
671.748
 20
565.136
  0
VERTEX
  8
Layer1
 10
671.346
 20
565.335
  0
VERTEX
  8
Layer1
 10
670.92
 20
565.479
  0
VERTEX
  8
Layer1
 10
670.48
 20
565.567
  0
VERTEX
  8
Layer1
 10
670.032
 20
565.596
  0
VERTEX
  8
Layer1
 10
669.584
 20
565.567
  0
VERTEX
  8
Layer1
 10
669.144
 20
565.479
  0
VERTEX
  8
Layer1
 10
668.719
 20
565.335
  0
VERTEX
  8
Layer1
 10
668.316
 20
565.136
  0
VERTEX
  8
Layer1
 10
667.943
 20
564.887
  0
VERTEX
  8
Layer1
 10
667.605
 20
564.591
  0
VERTEX
  8
Layer1
 10
667.309
 20
564.254
  0
VERTEX
  8
Layer1
 10
667.06
 20
563.88
  0
VERTEX
  8
Layer1
 10
666.861
 20
563.478
  0
VERTEX
  8
Layer1
 10
666.717
 20
563.053
  0
VERTEX
  8
Layer1
 10
666.63
 20
562.612
  0
VERTEX
  8
Layer1
 10
666.6
 20
562.164
  0
VERTEX
  8
Layer1
 10
666.63
 20
561.716
  0
VERTEX
  8
Layer1
 10
666.717
 20
561.276
  0
VERTEX
  8
Layer1
 10
666.861
 20
560.851
  0
VERTEX
  8
Layer1
 10
667.06
 20
560.448
  0
VERTEX
  8
Layer1
 10
667.309
 20
560.075
  0
VERTEX
  8
Layer1
 10
667.605
 20
559.737
  0
VERTEX
  8
Layer1
 10
667.943
 20
559.441
  0
VERTEX
  8
Layer1
 10
668.316
 20
559.192
  0
VERTEX
  8
Layer1
 10
668.719
 20
558.994
  0
VERTEX
  8
Layer1
 10
669.144
 20
558.849
  0
VERTEX
  8
Layer1
 10
669.584
 20
558.762
  0
VERTEX
  8
Layer1
 10
670.032
 20
558.732
  0
VERTEX
  8
Layer1
 10
670.48
 20
558.762
  0
VERTEX
  8
Layer1
 10
670.92
 20
558.849
  0
VERTEX
  8
Layer1
 10
671.346
 20
558.994
  0
VERTEX
  8
Layer1
 10
671.748
 20
559.192
  0
VERTEX
  8
Layer1
 10
672.121
 20
559.441
  0
VERTEX
  8
Layer1
 10
672.459
 20
559.737
  0
VERTEX
  8
Layer1
 10
672.755
 20
560.075
  0
VERTEX
  8
Layer1
 10
673.004
 20
560.448
  0
VERTEX
  8
Layer1
 10
673.203
 20
560.851
  0
VERTEX
  8
Layer1
 10
673.347
 20
561.276
  0
VERTEX
  8
Layer1
 10
673.435
 20
561.716
  0
SEQEND
  0
CIRCLE
  8
Layer1
  6
CONTINUOUS
 62
7
 10
675.556
 20
581.164
 40
4.5
  0
CIRCLE
  8
Layer1
  6
CONTINUOUS
 62
7
 10
675.556
 20
581.164
 40
7
  0
LINE
  8
Layer1
  6
CENTER1
 62
7
 10
675.532
 20
592.484
 11
675.532
 21
571.713
  0
LINE
  8
Layer1
  6
CENTER1
 62
7
 10
666.486
 20
581.164
 11
684.626
 21
581.164
  0
LINE
  8
Layer1
  6
CENTER1
 62
7
 10
736.733
 20
581.164
 11
754.873
 21
581.164
  0
CIRCLE
  8
Layer1
  6
CONTINUOUS
 62
7
 10
675.532
 20
461.164
 40
4.5
  0
CIRCLE
  8
Layer1
  6
CONTINUOUS
 62
7
 10
675.532
 20
461.164
 40
7
  0
LINE
  8
Layer1
  6
CENTER1
 62
7
 10
675.532
 20
472.484
 11
675.532
 21
451.713
  0
LINE
  8
Layer1
  6
CENTER1
 62
7
 10
665.822
 20
461.164
 11
683.962
 21
461.164
  0
LINE
  8
Layer1
  6
CENTER1
 62
7
 10
745.532
 20
589.8
 11
745.532
 21
575.979
  0
TEXT
  8
Layer1
 62
7
 10
745.266
 20
516.995
 72
1
 11
745.266
 21
516.995
 40
5
 41
1
 50
90
  1
 85 
  0
LINE
  8
Layer1
  6
CONTINUOUS
 62
7
 10
738.432
 20
563.664
 11
746.516
 21
563.664
  0
LINE
  8
Layer1
  6
CONTINUOUS
 62
7
 10
738.532
 20
478.664
 11
746.516
 21
478.664
  0
POLYLINE
  8
Layer1
  6
CONTINUOUS
 62
7
 66
1
 10
0
 20
0
 30
0
  0
VERTEX
  8
Layer1
 10
745.266
 20
563.664
  0
VERTEX
  8
Layer1
 10
745.266
 20
478.664
  0
SEQEND
  0
POLYLINE
  8
Layer1
  6
CONTINUOUS
 62
7
 66
1
 10
0
 20
0
 30
0
  0
VERTEX
  8
Layer1
 10
744.295
 20
560.042
  0
VERTEX
  8
Layer1
 10
745.266
 20
563.664
  0
VERTEX
  8
Layer1
 10
746.236
 20
560.042
  0
SEQEND
  0
POLYLINE
  8
Layer1
  6
CONTINUOUS
 62
7
 66
1
 10
0
 20
0
 30
0
  0
VERTEX
  8
Layer1
 10
746.236
 20
482.286
  0
VERTEX
  8
Layer1
 10
745.266
 20
478.664
  0
VERTEX
  8
Layer1
 10
744.295
 20
482.286
  0
SEQEND
  0
LINE
  8
Layer1
  6
CONTINUOUS
 62
7
 10
355.778
 20
281.935
 11
355.778
 21
266.935
  0
LINE
  8
Layer1
  6
CONTINUOUS
 62
7
 10
495.778
 20
266.935
 11
495.778
 21
281.935
  0
LINE
  8
Layer1
  6
CENTER1
 62
7
 10
365.778
 20
262.868
 11
365.778
 21
287.736
  0
LINE
  8
Layer1
  6
CENTER1
 62
7
 10
485.778
 20
262.868
 11
485.778
 21
287.736
  0
LINE
  8
Layer1
  6
CONTINUOUS
 62
7
 10
475.778
 20
329.935
 11
475.778
 21
285.935
  0
LINE
  8
Layer1
  6
CONTINUOUS
 62
7
 10
375.778
 20
329.935
 11
375.778
 21
285.935
  0
LINE
  8
Layer1
  6
CONTINUOUS
 62
7
 10
375.778
 20
345.935
 11
375.778
 21
331.935
  0
LINE
  8
Layer1
  6
CONTINUOUS
 62
7
 10
475.778
 20
345.935
 11
475.778
 21
331.935
  0
ARC
  8
Layer1
  6
CONTINUOUS
 62
7
 10
372.778
 20
285.935
 40
3
 50
270
 51
2.03555e-013
  0
ARC
  8
Layer1
  6
CONTINUOUS
 62
7
 10
478.778
 20
285.935
 40
3
 50
180
 51
270
  0
LINE
  8
Layer1
  6
CONTINUOUS
 62
7
 10
376.778
 20
330.935
 11
375.778
 21
329.935
  0
LINE
  8
Layer1
  6
CONTINUOUS
 62
7
 10
474.778
 20
330.935
 11
475.778
 21
329.935
  0
LINE
  8
Layer1
  6
CONTINUOUS
 62
7
 10
474.778
 20
330.935
 11
475.778
 21
331.935
  0
LINE
  8
Layer1
  6
CONTINUOUS
 62
7
 10
375.778
 20
331.935
 11
376.778
 21
330.935
  0
LINE
  8
Layer1
  6
CONTINUOUS
 62
7
 10
375.778
 20
345.935
 11
376.778
 21
346.935
  0
LINE
  8
Layer1
  6
CONTINUOUS
 62
7
 10
474.778
 20
346.935
 11
475.778
 21
345.935
  0
LINE
  8
Layer1
  6
CONTINUOUS
 62
7
 10
494.778
 20
282.935
 11
495.778
 21
281.935
  0
LINE
  8
Layer1
  6
CONTINUOUS
 62
7
 10
495.778
 20
266.935
 11
494.778
 21
265.935
  0
LINE
  8
Layer1
  6
CONTINUOUS
 62
7
 10
355.778
 20
266.935
 11
356.778
 21
265.935
  0
LINE
  8
Layer1
  6
CONTINUOUS
 62
7
 10
355.778
 20
281.935
 11
356.778
 21
282.935
  0
LINE
  8
Layer1
  6
CONTINUOUS
 62
7
 10
393.278
 20
329.935
 11
393.278
 21
290.935
  0
LINE
  8
Layer1
  6
CONTINUOUS
 62
7
 10
458.278
 20
329.935
 11
458.278
 21
290.935
  0
LINE
  8
Layer1
  6
CONTINUOUS
 62
7
 10
393.278
 20
291.935
 11
394.278
 21
290.935
  0
LINE
  8
Layer1
  6
CONTINUOUS
 62
7
 10
457.278
 20
290.935
 11
458.278
 21
291.935
  0
LINE
  8
Layer1
  6
CONTINUOUS
 62
7
 10
394.278
 20
330.935
 11
393.278
 21
329.935
  0
LINE
  8
Layer1
  6
CONTINUOUS
 62
7
 10
457.278
 20
330.935
 11
458.278
 21
329.935
  0
LINE
  8
Layer1
  6
CONTINUOUS
 62
7
 10
392.278
 20
330.935
 11
393.278
 21
329.935
  0
LINE
  8
Layer1
  6
CONTINUOUS
 62
7
 10
459.278
 20
330.935
 11
474.778
 21
330.935
  0
LINE
  8
Layer1
  6
CONTINUOUS
 62
7
 10
459.278
 20
330.935
 11
458.278
 21
329.935
  0
LINE
  8
Layer1
  6
CENTER1
 62
7
 10
450.778
 20
290.935
 11
450.778
 21
303.395
  0
LINE
  8
Layer1
  6
CENTER1
 62
7
 10
400.778
 20
290.935
 11
400.778
 21
304.416
  0
LINE
  8
Layer1
  6
CENTER1
 62
7
 10
443.87
 20
323.435
 11
456.502
 21
323.435
  0
LINE
  8
Layer1
  6
CENTER1
 62
7
 10
443.529
 20
298.435
 11
457.623
 21
298.435
  0
LINE
  8
Layer1
  6
CENTER1
 62
7
 10
450.778
 20
318.543
 11
450.778
 21
330.935
  0
LINE
  8
Layer1
  6
CENTER1
 62
7
 10
400.778
 20
317.522
 11
400.778
 21
330.935
  0
LINE
  8
Layer1
  6
CONTINUOUS
 62
7
 10
373.278
 20
388.935
 11
373.278
 21
403.935
  0
LINE
  8
Layer1
  6
CONTINUOUS
 62
7
 10
478.278
 20
403.935
 11
478.278
 21
388.935
  0
LINE
  8
Layer1
  6
CONTINUOUS
 62
7
 10
374.278
 20
404.935
 11
373.278
 21
403.935
  0
LINE
  8
Layer1
  6
CONTINUOUS
 62
7
 10
373.278
 20
388.935
 11
374.278
 21
387.935
  0
LINE
  8
Layer1
  6
CONTINUOUS
 62
7
 10
477.278
 20
387.935
 11
478.278
 21
388.935
  0
LINE
  8
Layer1
  6
CONTINUOUS
 62
7
 10
478.278
 20
403.935
 11
477.278
 21
404.935
  0
LINE
  8
Layer1
  6
CENTER1
 62
7
 10
383.278
 20
414.71
 11
383.278
 21
378.626
  0
LINE
  8
Layer1
  6
CENTER1
 62
7
 10
468.278
 20
417.802
 11
468.278
 21
378.626
  0
ARC
  8
Layer1
  6
DASHED1
 62
7
 10
425.778
 20
332.935
 40
10
 50
0
 51
180
  0
LINE
  8
Layer1
  6
CENTER1
 62
7
 10
399.32
 20
278.935
 11
422.235
 21
278.935
  0
LINE
  8
Layer1
  6
CENTER1
 62
7
 10
410.778
 20
287.971
 11
410.778
 21
267.238
  0
LINE
  8
Layer1
  6
CENTER1
 62
7
 10
440.778
 20
289.912
 11
440.778
 21
269
  0
LINE
  8
Layer1
  6
CENTER1
 62
7
 10
429.301
 20
278.935
 11
452.255
 21
278.935
  0
CIRCLE
  8
Layer1
  6
DASHED1
 62
7
 10
410.778
 20
278.935
 40
8
  0
CIRCLE
  8
Layer1
  6
DASHED1
 62
7
 10
440.778
 20
278.935
 40
8
  0
CIRCLE
  8
Layer1
  6
DASHED1
 62
7
 10
440.778
 20
278.935
 40
4
  0
CIRCLE
  8
Layer1
  6
DASHED1
 62
7
 10
410.778
 20
278.935
 40
4
  0
LINE
  8
Layer1
  6
CONTINUOUS
 62
7
 10
662.955
 20
591.164
 11
763.032
 21
591.164
  0
LINE
  8
Layer1
  6
CONTINUOUS
 62
7
 10
662.955
 20
451.164
 11
763.032
 21
451.164
  0
LINE
  8
Layer1
  6
CONTINUOUS
 62
7
 10
717.032
 20
471.164
 11
658.955
 21
471.164
  0
LINE
  8
Layer1
  6
DASHED1
 62
7
 10
657.955
 20
488.664
 11
768.032
 21
488.664
  0
LINE
  8
Layer1
  6
DASHED1
 62
7
 10
657.955
 20
553.664
 11
768.032
 21
553.664
  0
LINE
  8
Layer1
  6
CONTINUOUS
 62
7
 10
717.109
 20
571.164
 11
659.032
 21
571.164
  0
LINE
  8
Layer1
  6
CONTINUOUS
 62
7
 10
720.032
 20
573.664
 11
767.032
 21
573.664
  0
LINE
  8
Layer1
  6
CONTINUOUS
 62
7
 10
768.032
 20
456.164
 11
768.032
 21
570.164
  0
LINE
  8
Layer1
  6
CONTINUOUS
 62
7
 10
767.032
 20
573.664
 11
768.032
 21
572.664
  0
LINE
  8
Layer1
  6
CONTINUOUS
 62
7
 10
720.032
 20
573.664
 11
719.032
 21
572.664
  0
LINE
  8
Layer1
  6
CONTINUOUS
 62
7
 10
658.032
 20
570.164
 11
659.032
 21
571.164
  0
LINE
  8
Layer1
  6
CONTINUOUS
 62
7
 10
717.032
 20
571.164
 11
718.032
 21
570.164
  0
LINE
  8
Layer1
  6
CONTINUOUS
 62
7
 10
719.032
 20
469.664
 11
720.032
 21
468.664
  0
LINE
  8
Layer1
  6
CONTINUOUS
 62
7
 10
767.032
 20
468.664
 11
768.032
 21
469.664
  0
LINE
  8
Layer1
  6
CONTINUOUS
 62
7
 10
658.032
 20
472.164
 11
659.032
 21
471.164
  0
LINE
  8
Layer1
  6
CONTINUOUS
 62
7
 10
717.032
 20
471.164
 11
718.032
 21
472.164
  0
CIRCLE
  8
Layer1
  6
CONTINUOUS
 62
7
 10
745.532
 20
581.164
 40
4.49037
  0
ARC
  8
Layer1
  6
CONTINUOUS
 62
7
 10
745.532
 20
581.164
 40
7
 50
315
 51
225.623
  0
LINE
  8
Layer1
  6
CENTER1
 62
7
 10
736.157
 20
461.164
 11
754.297
 21
461.164
  0
LINE
  8
Layer1
  6
CENTER1
 62
7
 10
745.532
 20
452.528
 11
745.532
 21
466.348
  0
CIRCLE
  8
Layer1
  6
CONTINUOUS
 62
7
 10
745.532
 20
461.164
 40
4.49037
  0
ARC
  8
Layer1
  6
CONTINUOUS
 62
7
 10
745.532
 20
461.164
 40
7
 50
134.377
 51
45
  0
LINE
  8
Layer1
  6
CONTINUOUS
 62
7
 10
631.955
 20
553.664
 11
652.032
 21
553.664
  0
LINE
  8
Layer1
  6
CONTINUOUS
 62
7
 10
632.032
 20
488.664
 11
652.032
 21
488.664
  0
LINE
  8
Layer1
  6
CONTINUOUS
 62
7
 10
653.955
 20
553.664
 11
657.955
 21
553.664
  0
LINE
  8
Layer1
  6
CONTINUOUS
 62
7
 10
654.032
 20
488.664
 11
658.032
 21
488.664
  0
LINE
  8
Layer1
  6
CONTINUOUS
 62
7
 10
652.032
 20
553.664
 11
653.032
 21
552.664
  0
LINE
  8
Layer1
  6
CONTINUOUS
 62
7
 10
653.032
 20
552.664
 11
654.032
 21
553.664
  0
LINE
  8
Layer1
  6
CONTINUOUS
 62
7
 10
653.032
 20
489.664
 11
652.032
 21
488.664
  0
LINE
  8
Layer1
  6
CONTINUOUS
 62
7
 10
653.032
 20
489.664
 11
654.032
 21
488.664
  0
LINE
  8
Layer1
  6
CONTINUOUS
 62
7
 10
630.955
 20
552.664
 11
631.955
 21
553.664
  0
LINE
  8
Layer1
  6
CONTINUOUS
 62
7
 10
631.032
 20
489.664
 11
632.032
 21
488.664
  0
LINE
  8
Layer1
  6
CENTER1
 62
7
 10
719.862
 20
563.664
 11
738.002
 21
563.664
  0
LINE
  8
Layer1
  6
CONTINUOUS
 62
7
 10
782.032
 20
571.164
 11
769.109
 21
571.164
  0
LINE
  8
Layer1
  6
CONTINUOUS
 62
7
 10
782.032
 20
471.164
 11
769.109
 21
471.164
  0
LINE
  8
Layer1
  6
CENTER1
 62
7
 10
758.109
 20
562.164
 11
795.124
 21
562.164
  0
LINE
  8
Layer1
  6
CENTER1
 62
7
 10
750.359
 20
480.164
 11
794.67
 21
480.164
  0
LINE
  8
Layer1
  6
CONTINUOUS
 62
7
 10
768.109
 20
570.164
 11
769.109
 21
571.164
  0
LINE
  8
Layer1
  6
CONTINUOUS
 62
7
 10
768.109
 20
472.164
 11
769.109
 21
471.164
  0
LINE
  8
Layer1
  6
CONTINUOUS
 62
7
 10
782.032
 20
471.164
 11
783.032
 21
472.164
  0
LINE
  8
Layer1
  6
CONTINUOUS
 62
7
 10
783.032
 20
570.164
 11
782.032
 21
571.164
  0
LINE
  8
Layer1
  6
CONTINUOUS
 62
7
 10
783.032
 20
526.938
 11
787.528
 21
526.938
  0
LINE
  8
Layer1
  6
CONTINUOUS
 62
7
 10
787.528
 20
526.938
 11
788.032
 21
526.064
  0
LINE
  8
Layer1
  6
CONTINUOUS
 62
7
 10
788.032
 20
526.064
 11
788.032
 21
516.264
  0
LINE
  8
Layer1
  6
CONTINUOUS
 62
7
 10
788.032
 20
516.264
 11
787.528
 21
515.39
  0
LINE
  8
Layer1
  6
CONTINUOUS
 62
7
 10
787.528
 20
515.39
 11
783.032
 21
515.39
  0
LINE
  8
Layer1
  6
CONTINUOUS
 62
7
 10
783.032
 20
524.051
 11
787.528
 21
524.051
  0
LINE
  8
Layer1
  6
CONTINUOUS
 62
7
 10
783.032
 20
518.277
 11
787.528
 21
518.277
  0
LINE
  8
Layer1
  6
CONTINUOUS
 62
7
 10
788.032
 20
524.164
 11
790.993
 21
524.164
  0
LINE
  8
Layer1
  6
CONTINUOUS
 62
7
 10
788.032
 20
518.164
 11
790.993
 21
518.164
  0
LINE
  8
Layer1
  6
CONTINUOUS
 62
7
 10
790.993
 20
524.164
 11
790.993
 21
518.164
  0
LINE
  8
Layer1
  6
CONTINUOUS
 62
7
 10
788.032
 20
523.764
 11
791.393
 21
523.764
  0
LINE
  8
Layer1
  6
CONTINUOUS
 62
7
 10
788.032
 20
518.564
 11
791.393
 21
518.564
  0
ARC
  8
Layer1
  6
CONTINUOUS
 62
7
 10
778.421
 20
521.164
 40
9.553
 50
342.412
 51
17.588
  0
ARC
  8
Layer1
  6
CONTINUOUS
 62
7
 10
785.418
 20
525.494
 40
2.556
 50
325.616
 51
34.384
  0
ARC
  8
Layer1
  6
CONTINUOUS
 62
7
 10
785.418
 20
516.834
 40
2.556
 50
325.616
 51
34.384
  0
LINE
  8
Layer1
  6
CONTINUOUS
 62
7
 10
791.993
 20
523.164
 11
791.993
 21
519.164
  0
LINE
  8
Layer1
  6
CONTINUOUS
 62
7
 10
790.993
 20
524.164
 11
791.993
 21
523.164
  0
LINE
  8
Layer1
  6
CONTINUOUS
 62
7
 10
790.993
 20
518.164
 11
791.993
 21
519.164
  0
LINE
  8
Layer1
  6
CONTINUOUS
 62
7
 10
783.032
 20
526.938
 11
783.032
 21
515.39
  0
TEXT
  8
Layer1
 62
7
 10
823.905
 20
521.164
 72
1
 11
823.905
 21
521.164
 40
5
 41
1
 50
90
  1
105
  0
LINE
  8
Layer1
  6
CONTINUOUS
 62
7
 10
764.455
 20
573.664
 11
824.557
 21
573.664
  0
LINE
  8
Layer1
  6
CONTINUOUS
 62
7
 10
767.032
 20
468.664
 11
827.368
 21
468.664
  0
POLYLINE
  8
Layer1
  6
CONTINUOUS
 62
7
 66
1
 10
0
 20
0
 30
0
  0
VERTEX
  8
Layer1
 10
823.905
 20
573.664
  0
VERTEX
  8
Layer1
 10
823.905
 20
468.664
  0
SEQEND
  0
POLYLINE
  8
Layer1
  6
CONTINUOUS
 62
7
 66
1
 10
0
 20
0
 30
0
 70
1
  0
VERTEX
  8
Layer1
 10
822.87
 20
569.8
  0
VERTEX
  8
Layer1
 10
823.905
 20
573.664
  0
VERTEX
  8
Layer1
 10
824.94
 20
569.8
  0
SEQEND
  0
POLYLINE
  8
Layer1
  6
CONTINUOUS
 62
7
 66
1
 10
0
 20
0
 30
0
 70
1
  0
VERTEX
  8
Layer1
 10
824.94
 20
472.528
  0
VERTEX
  8
Layer1
 10
823.905
 20
468.664
  0
VERTEX
  8
Layer1
 10
822.87
 20
472.528
  0
SEQEND
  0
TEXT
  8
Layer1
 62
7
 10
607.127
 20
521.164
 72
1
 11
607.127
 21
521.164
 40
5
 41
1
 50
90
  1
 100 
  0
LINE
  8
Layer1
  6
CONTINUOUS
 62
7
 10
662.798
 20
571.164
 11
605.877
 21
571.164
  0
LINE
  8
Layer1
  6
CONTINUOUS
 62
7
 10
656.455
 20
471.164
 11
605.877
 21
471.164
  0
POLYLINE
  8
Layer1
  6
CONTINUOUS
 62
7
 66
1
 10
0
 20
0
 30
0
  0
VERTEX
  8
Layer1
 10
607.127
 20
571.164
  0
VERTEX
  8
Layer1
 10
607.127
 20
471.164
  0
SEQEND
  0
POLYLINE
  8
Layer1
  6
CONTINUOUS
 62
7
 66
1
 10
0
 20
0
 30
0
 70
1
  0
VERTEX
  8
Layer1
 10
606.092
 20
567.3
  0
VERTEX
  8
Layer1
 10
607.127
 20
571.164
  0
VERTEX
  8
Layer1
 10
608.162
 20
567.3
  0
SEQEND
  0
POLYLINE
  8
Layer1
  6
CONTINUOUS
 62
7
 66
1
 10
0
 20
0
 30
0
 70
1
  0
VERTEX
  8
Layer1
 10
608.162
 20
475.028
  0
VERTEX
  8
Layer1
 10
607.127
 20
471.164
  0
VERTEX
  8
Layer1
 10
606.092
 20
475.028
  0
SEQEND
  0
POLYLINE
  8
Layer1
  6
CONTINUOUS
 62
7
 66
1
 10
0
 20
0
 30
0
  0
VERTEX
  8
Layer1
 10
606.156
 20
567.542
  0
VERTEX
  8
Layer1
 10
607.127
 20
571.164
  0
VERTEX
  8
Layer1
 10
608.097
 20
567.542
  0
SEQEND
  0
TEXT
  8
Layer1
 62
7
 10
812.998
 20
521.164
 72
1
 11
812.998
 21
521.164
 40
5
 41
1
 50
90
  1
 82 
  0
LINE
  8
Layer1
  6
CONTINUOUS
 62
7
 10
797.547
 20
562.164
 11
814.248
 21
562.164
  0
LINE
  8
Layer1
  6
CONTINUOUS
 62
7
 10
797.093
 20
480.164
 11
814.248
 21
480.164
  0
POLYLINE
  8
Layer1
  6
CONTINUOUS
 62
7
 66
1
 10
0
 20
0
 30
0
  0
VERTEX
  8
Layer1
 10
812.998
 20
562.164
  0
VERTEX
  8
Layer1
 10
812.998
 20
480.164
  0
SEQEND
  0
POLYLINE
  8
Layer1
  6
CONTINUOUS
 62
7
 66
1
 10
0
 20
0
 30
0
 70
1
  0
VERTEX
  8
Layer1
 10
811.963
 20
558.3
  0
VERTEX
  8
Layer1
 10
812.998
 20
562.164
  0
VERTEX
  8
Layer1
 10
814.033
 20
558.3
  0
SEQEND
  0
POLYLINE
  8
Layer1
  6
CONTINUOUS
 62
7
 66
1
 10
0
 20
0
 30
0
 70
1
  0
VERTEX
  8
Layer1
 10
814.033
 20
484.028
  0
VERTEX
  8
Layer1
 10
812.998
 20
480.164
  0
VERTEX
  8
Layer1
 10
811.963
 20
484.028
  0
SEQEND
  0
POLYLINE
  8
Layer1
  6
CONTINUOUS
 62
7
 66
1
 10
0
 20
0
 30
0
  0
VERTEX
  8
Layer1
 10
812.028
 20
558.542
  0
VERTEX
  8
Layer1
 10
812.998
 20
562.164
  0
VERTEX
  8
Layer1
 10
813.969
 20
558.542
  0
SEQEND
  0
POLYLINE
  8
Layer1
  6
CONTINUOUS
 62
7
 66
1
 10
0
 20
0
 30
0
  0
VERTEX
  8
Layer1
 10
813.969
 20
483.786
  0
VERTEX
  8
Layer1
 10
812.998
 20
480.164
  0
VERTEX
  8
Layer1
 10
812.028
 20
483.786
  0
SEQEND
  0
TEXT
  8
Layer1
 62
7
 10
837.539
 20
521.164
 72
1
 11
837.539
 21
521.164
 40
5
 41
1
 50
90
  1
 120 
  0
LINE
  8
Layer1
  6
CONTINUOUS
 62
7
 10
757.373
 20
581.164
 11
838.789
 21
581.164
  0
LINE
  8
Layer1
  6
CONTINUOUS
 62
7
 10
754.955
 20
461.164
 11
838.789
 21
461.164
  0
POLYLINE
  8
Layer1
  6
CONTINUOUS
 62
7
 66
1
 10
0
 20
0
 30
0
  0
VERTEX
  8
Layer1
 10
837.539
 20
581.164
  0
VERTEX
  8
Layer1
 10
837.539
 20
461.164
  0
SEQEND
  0
POLYLINE
  8
Layer1
  6
CONTINUOUS
 62
7
 66
1
 10
0
 20
0
 30
0
 70
1
  0
VERTEX
  8
Layer1
 10
836.504
 20
577.3
  0
VERTEX
  8
Layer1
 10
837.539
 20
581.164
  0
VERTEX
  8
Layer1
 10
838.574
 20
577.3
  0
SEQEND
  0
POLYLINE
  8
Layer1
  6
CONTINUOUS
 62
7
 66
1
 10
0
 20
0
 30
0
 70
1
  0
VERTEX
  8
Layer1
 10
838.574
 20
465.028
  0
VERTEX
  8
Layer1
 10
837.539
 20
461.164
  0
VERTEX
  8
Layer1
 10
836.504
 20
465.028
  0
SEQEND
  0
POLYLINE
  8
Layer1
  6
CONTINUOUS
 62
7
 66
1
 10
0
 20
0
 30
0
  0
VERTEX
  8
Layer1
 10
836.569
 20
577.542
  0
VERTEX
  8
Layer1
 10
837.539
 20
581.164
  0
VERTEX
  8
Layer1
 10
838.51
 20
577.542
  0
SEQEND
  0
POLYLINE
  8
Layer1
  6
CONTINUOUS
 62
7
 66
1
 10
0
 20
0
 30
0
  0
VERTEX
  8
Layer1
 10
838.51
 20
464.786
  0
VERTEX
  8
Layer1
 10
837.539
 20
461.164
  0
VERTEX
  8
Layer1
 10
836.569
 20
464.786
  0
SEQEND
  0
TEXT
  8
Layer1
 62
7
 10
853.9
 20
521.164
 72
1
 11
853.9
 21
521.164
 40
5
 41
1
 50
90
  1
 140 
  0
LINE
  8
Layer1
  6
CONTINUOUS
 62
7
 10
765.532
 20
591.164
 11
855.15
 21
591.164
  0
LINE
  8
Layer1
  6
CONTINUOUS
 62
7
 10
765.532
 20
451.164
 11
855.15
 21
451.164
  0
POLYLINE
  8
Layer1
  6
CONTINUOUS
 62
7
 66
1
 10
0
 20
0
 30
0
  0
VERTEX
  8
Layer1
 10
853.9
 20
591.164
  0
VERTEX
  8
Layer1
 10
853.9
 20
451.164
  0
SEQEND
  0
POLYLINE
  8
Layer1
  6
CONTINUOUS
 62
7
 66
1
 10
0
 20
0
 30
0
 70
1
  0
VERTEX
  8
Layer1
 10
852.865
 20
587.3
  0
VERTEX
  8
Layer1
 10
853.9
 20
591.164
  0
VERTEX
  8
Layer1
 10
854.935
 20
587.3
  0
SEQEND
  0
POLYLINE
  8
Layer1
  6
CONTINUOUS
 62
7
 66
1
 10
0
 20
0
 30
0
 70
1
  0
VERTEX
  8
Layer1
 10
854.935
 20
455.028
  0
VERTEX
  8
Layer1
 10
853.9
 20
451.164
  0
VERTEX
  8
Layer1
 10
852.865
 20
455.028
  0
SEQEND
  0
POLYLINE
  8
Layer1
  6
CONTINUOUS
 62
7
 66
1
 10
0
 20
0
 30
0
  0
VERTEX
  8
Layer1
 10
852.929
 20
587.542
  0
VERTEX
  8
Layer1
 10
853.9
 20
591.164
  0
VERTEX
  8
Layer1
 10
854.87
 20
587.542
  0
SEQEND
  0
POLYLINE
  8
Layer1
  6
CONTINUOUS
 62
7
 66
1
 10
0
 20
0
 30
0
  0
VERTEX
  8
Layer1
 10
854.87
 20
454.786
  0
VERTEX
  8
Layer1
 10
853.9
 20
451.164
  0
VERTEX
  8
Layer1
 10
852.929
 20
454.786
  0
SEQEND
  0
TEXT
  8
Layer1
 62
7
 10
666.975
 20
602.832
 72
1
 11
666.975
 21
602.832
 40
5
 41
1
  1
 17.5 
  0
LINE
  8
Layer1
  6
CONTINUOUS
 62
7
 10
675.532
 20
592.484
 11
675.532
 21
603.31
  0
POLYLINE
  8
Layer1
  6
CONTINUOUS
 62
7
 66
1
 10
0
 20
0
 30
0
  0
VERTEX
  8
Layer1
 10
657.955
 20
601.752
  0
VERTEX
  8
Layer1
 10
675.455
 20
601.752
  0
SEQEND
  0
POLYLINE
  8
Layer1
  6
CONTINUOUS
 62
7
 66
1
 10
0
 20
0
 30
0
 70
1
  0
VERTEX
  8
Layer1
 10
661.819
 20
600.717
  0
VERTEX
  8
Layer1
 10
657.955
 20
601.752
  0
VERTEX
  8
Layer1
 10
661.819
 20
602.787
  0
SEQEND
  0
POLYLINE
  8
Layer1
  6
CONTINUOUS
 62
7
 66
1
 10
0
 20
0
 30
0
 70
1
  0
VERTEX
  8
Layer1
 10
671.591
 20
602.787
  0
VERTEX
  8
Layer1
 10
675.455
 20
601.752
  0
VERTEX
  8
Layer1
 10
671.591
 20
600.717
  0
SEQEND
  0
POLYLINE
  8
Layer1
  6
CONTINUOUS
 62
7
 66
1
 10
0
 20
0
 30
0
  0
VERTEX
  8
Layer1
 10
661.577
 20
600.782
  0
VERTEX
  8
Layer1
 10
657.955
 20
601.752
  0
VERTEX
  8
Layer1
 10
661.577
 20
602.723
  0
SEQEND
  0
TEXT
  8
Layer1
 62
7
 10
710.455
 20
601.752
 72
1
 11
710.455
 21
601.752
 40
5
 41
1
  1
 70 
  0
LINE
  8
Layer1
  6
CONTINUOUS
 62
7
 10
745.532
 20
589.8
 11
745.532
 21
603.598
  0
POLYLINE
  8
Layer1
  6
CONTINUOUS
 62
7
 66
1
 10
0
 20
0
 30
0
  0
VERTEX
  8
Layer1
 10
675.455
 20
601.752
  0
VERTEX
  8
Layer1
 10
745.532
 20
601.752
  0
SEQEND
  0
POLYLINE
  8
Layer1
  6
CONTINUOUS
 62
7
 66
1
 10
0
 20
0
 30
0
 70
1
  0
VERTEX
  8
Layer1
 10
679.319
 20
600.717
  0
VERTEX
  8
Layer1
 10
675.455
 20
601.752
  0
VERTEX
  8
Layer1
 10
679.319
 20
602.787
  0
SEQEND
  0
POLYLINE
  8
Layer1
  6
CONTINUOUS
 62
7
 66
1
 10
0
 20
0
 30
0
 70
1
  0
VERTEX
  8
Layer1
 10
741.668
 20
602.787
  0
VERTEX
  8
Layer1
 10
745.532
 20
601.752
  0
VERTEX
  8
Layer1
 10
741.668
 20
600.717
  0
SEQEND
  0
TEXT
  8
Layer1
 62
7
 10
743.532
 20
415.423
 72
1
 11
743.532
 21
415.423
 40
5
 41
1
  1
 49 
  0
LINE
  8
Layer1
  6
CONTINUOUS
 62
7
 10
719.032
 20
464.664
 11
719.032
 21
414.173
  0
LINE
  8
Layer1
  6
CONTINUOUS
 62
7
 10
768.032
 20
464.664
 11
768.032
 21
414.173
  0
POLYLINE
  8
Layer1
  6
CONTINUOUS
 62
7
 66
1
 10
0
 20
0
 30
0
  0
VERTEX
  8
Layer1
 10
719.032
 20
415.423
  0
VERTEX
  8
Layer1
 10
768.032
 20
415.423
  0
SEQEND
  0
POLYLINE
  8
Layer1
  6
CONTINUOUS
 62
7
 66
1
 10
0
 20
0
 30
0
 70
1
  0
VERTEX
  8
Layer1
 10
722.896
 20
414.388
  0
VERTEX
  8
Layer1
 10
719.032
 20
415.423
  0
VERTEX
  8
Layer1
 10
722.896
 20
416.458
  0
SEQEND
  0
POLYLINE
  8
Layer1
  6
CONTINUOUS
 62
7
 66
1
 10
0
 20
0
 30
0
 70
1
  0
VERTEX
  8
Layer1
 10
764.168
 20
416.458
  0
VERTEX
  8
Layer1
 10
768.032
 20
415.423
  0
VERTEX
  8
Layer1
 10
764.168
 20
414.388
  0
SEQEND
  0
POLYLINE
  8
Layer1
  6
CONTINUOUS
 62
7
 66
1
 10
0
 20
0
 30
0
  0
VERTEX
  8
Layer1
 10
722.655
 20
414.452
  0
VERTEX
  8
Layer1
 10
719.032
 20
415.423
  0
VERTEX
  8
Layer1
 10
722.655
 20
416.393
  0
SEQEND
  0
POLYLINE
  8
Layer1
  6
CONTINUOUS
 62
7
 66
1
 10
0
 20
0
 30
0
  0
VERTEX
  8
Layer1
 10
764.41
 20
416.393
  0
VERTEX
  8
Layer1
 10
768.032
 20
415.423
  0
VERTEX
  8
Layer1
 10
764.41
 20
414.452
  0
SEQEND
  0
LINE
  8
Layer1
  6
CONTINUOUS
 62
7
 10
758.032
 20
464.724
 11
758.032
 21
425.989
  0
LINE
  8
Layer1
  6
CONTINUOUS
 62
7
 10
768.032
 20
469.664
 11
768.032
 21
425.989
  0
TEXT
  8
Layer1
 62
7
 10
743.532
 20
427.239
 72
1
 11
743.532
 21
427.239
 40
5
 41
1
  1
 29 
  0
LINE
  8
Layer1
  6
CONTINUOUS
 62
7
 10
729.032
 20
464.468
 11
729.032
 21
425.989
  0
POLYLINE
  8
Layer1
  6
CONTINUOUS
 62
7
 66
1
 10
0
 20
0
 30
0
  0
VERTEX
  8
Layer1
 10
729.032
 20
427.239
  0
VERTEX
  8
Layer1
 10
758.032
 20
427.239
  0
SEQEND
  0
POLYLINE
  8
Layer1
  6
CONTINUOUS
 62
7
 66
1
 10
0
 20
0
 30
0
 70
1
  0
VERTEX
  8
Layer1
 10
732.896
 20
426.204
  0
VERTEX
  8
Layer1
 10
729.032
 20
427.239
  0
VERTEX
  8
Layer1
 10
732.896
 20
428.274
  0
SEQEND
  0
POLYLINE
  8
Layer1
  6
CONTINUOUS
 62
7
 66
1
 10
0
 20
0
 30
0
 70
1
  0
VERTEX
  8
Layer1
 10
754.168
 20
428.274
  0
VERTEX
  8
Layer1
 10
758.032
 20
427.239
  0
VERTEX
  8
Layer1
 10
754.168
 20
426.204
  0
SEQEND
  0
POLYLINE
  8
Layer1
  6
CONTINUOUS
 62
7
 66
1
 10
0
 20
0
 30
0
  0
VERTEX
  8
Layer1
 10
732.655
 20
426.268
  0
VERTEX
  8
Layer1
 10
729.032
 20
427.239
  0
VERTEX
  8
Layer1
 10
732.655
 20
428.209
  0
SEQEND
  0
POLYLINE
  8
Layer1
  6
CONTINUOUS
 62
7
 66
1
 10
0
 20
0
 30
0
  0
VERTEX
  8
Layer1
 10
754.41
 20
428.209
  0
VERTEX
  8
Layer1
 10
758.032
 20
427.239
  0
VERTEX
  8
Layer1
 10
754.41
 20
426.268
  0
SEQEND
  0
CIRCLE
  8
Layer1
  6
CONTINUOUS
 62
7
 10
670.032
 20
562.164
 40
6.5
  0
CIRCLE
  8
Layer1
  6
CONTINUOUS
 62
7
 10
706.032
 20
562.164
 40
6.5
  0
POLYLINE
  8
Layer1
  6
CONTINUOUS
 62
7
 66
1
 10
0
 20
0
 30
0
 70
1
  0
VERTEX
  8
Layer1
 10
706.032
 20
565.594
  0
VERTEX
  8
Layer1
 10
703.062
 20
563.879
  0
VERTEX
  8
Layer1
 10
703.062
 20
560.449
  0
VERTEX
  8
Layer1
 10
706.032
 20
558.734
  0
VERTEX
  8
Layer1
 10
709.003
 20
560.449
  0
VERTEX
  8
Layer1
 10
709.003
 20
563.879
  0
SEQEND
  0
CIRCLE
  8
Layer1
  6
CONTINUOUS
 62
7
 10
706.032
 20
562.164
 40
3.43
  0
LINE
  8
Layer1
  6
CENTER1
 62
7
 10
695.812
 20
562.164
 11
714.177
 21
562.164
  0
CIRCLE
  8
Layer1
  6
CONTINUOUS
 62
7
 10
670.032
 20
480.164
 40
6.5
  0
POLYLINE
  8
Layer1
  6
CONTINUOUS
 62
7
 66
1
 10
0
 20
0
 30
0
 70
1
  0
VERTEX
  8
Layer1
 10
670.032
 20
483.594
  0
VERTEX
  8
Layer1
 10
667.062
 20
481.879
  0
VERTEX
  8
Layer1
 10
667.062
 20
478.449
  0
VERTEX
  8
Layer1
 10
670.032
 20
476.734
  0
VERTEX
  8
Layer1
 10
673.003
 20
478.449
  0
VERTEX
  8
Layer1
 10
673.003
 20
481.879
  0
SEQEND
  0
CIRCLE
  8
Layer1
  6
CONTINUOUS
 62
7
 10
670.032
 20
480.164
 40
3.43
  0
CIRCLE
  8
Layer1
  6
CONTINUOUS
 62
7
 10
706.032
 20
480.164
 40
6.5
  0
POLYLINE
  8
Layer1
  6
CONTINUOUS
 62
7
 66
1
 10
0
 20
0
 30
0
 70
1
  0
VERTEX
  8
Layer1
 10
706.032
 20
483.594
  0
VERTEX
  8
Layer1
 10
703.062
 20
481.879
  0
VERTEX
  8
Layer1
 10
703.062
 20
478.449
  0
VERTEX
  8
Layer1
 10
706.032
 20
476.734
  0
VERTEX
  8
Layer1
 10
709.003
 20
478.449
  0
VERTEX
  8
Layer1
 10
709.003
 20
481.879
  0
SEQEND
  0
CIRCLE
  8
Layer1
  6
CONTINUOUS
 62
7
 10
706.032
 20
480.164
 40
3.43
  0
TEXT
  8
Layer1
 62
7
 10
817.652
 20
327.075
 72
1
 11
817.652
 21
327.075
 40
3
 41
1
 50
90
  1
(シャットハイト） 
  0
TEXT
  8
Layer1
 62
7
 10
839.196
 20
365.654
 72
1
 11
839.196
 21
365.654
 40
3
 41
1
 50
90
  1
(オープンハイト）
  0
LINE
  8
Layer1
  6
CONTINUOUS
 62
7
 10
711.51
 20
346.935
 11
701.669
 21
337.094
  0
LINE
  8
Layer1
  6
CONTINUOUS
 62
7
 10
715.51
 20
346.935
 11
702.994
 21
334.419
  0
LINE
  8
Layer1
  6
CONTINUOUS
 62
7
 10
718.032
 20
344.457
 11
704.51
 21
330.935
  0
LINE
  8
Layer1
  6
CONTINUOUS
 62
7
 10
718.032
 20
340.457
 11
708.51
 21
330.935
  0
LINE
  8
Layer1
  6
CONTINUOUS
 62
7
 10
718.032
 20
340.457
 11
708.51
 21
330.935
  0
LINE
  8
Layer1
  6
CONTINUOUS
 62
7
 10
718.032
 20
336.457
 11
712.51
 21
330.935
  0
LINE
  8
Layer1
  6
CONTINUOUS
 62
7
 10
718.032
 20
332.457
 11
716.51
 21
330.935
  0
TEXT
  8
Layer1
 62
7
 10
360.583
 20
396.435
 72
1
 11
360.583
 21
396.435
 40
6
 41
1
 50
90
  1
 17 
  0
LINE
  8
Layer1
  6
CONTINUOUS
 62
7
 10
374.278
 20
404.935
 11
358.583
 21
404.935
  0
LINE
  8
Layer1
  6
CONTINUOUS
 62
7
 10
374.278
 20
387.935
 11
358.583
 21
387.935
  0
POLYLINE
  8
Layer1
  6
CONTINUOUS
 62
7
 66
1
 10
0
 20
0
 30
0
  0
VERTEX
  8
Layer1
 10
362.583
 20
404.935
  0
VERTEX
  8
Layer1
 10
362.583
 20
387.935
  0
SEQEND
  0
POLYLINE
  8
Layer1
  6
CONTINUOUS
 62
7
 66
1
 10
0
 20
0
 30
0
 70
1
  0
VERTEX
  8
Layer1
 10
361.548
 20
401.071
  0
VERTEX
  8
Layer1
 10
362.583
 20
404.935
  0
VERTEX
  8
Layer1
 10
363.618
 20
401.071
  0
SEQEND
  0
POLYLINE
  8
Layer1
  6
CONTINUOUS
 62
7
 66
1
 10
0
 20
0
 30
0
 70
1
  0
VERTEX
  8
Layer1
 10
363.618
 20
391.799
  0
VERTEX
  8
Layer1
 10
362.583
 20
387.935
  0
VERTEX
  8
Layer1
 10
361.548
 20
391.799
  0
SEQEND
  0
TEXT
  8
Layer1
 62
7
 10
342.59
 20
359.935
 72
1
 11
342.59
 21
359.935
 40
6
 41
1
 50
90
  1
 90 
  0
LINE
  8
Layer1
  6
CONTINUOUS
 62
7
 10
398.278
 20
314.935
 11
340.59
 21
314.935
  0
LINE
  8
Layer1
  6
CONTINUOUS
 62
7
 10
374.278
 20
404.935
 11
340.59
 21
404.935
  0
POLYLINE
  8
Layer1
  6
CONTINUOUS
 62
7
 66
1
 10
0
 20
0
 30
0
  0
VERTEX
  8
Layer1
 10
344.59
 20
314.935
  0
VERTEX
  8
Layer1
 10
344.59
 20
404.935
  0
SEQEND
  0
POLYLINE
  8
Layer1
  6
CONTINUOUS
 62
7
 66
1
 10
0
 20
0
 30
0
 70
1
  0
VERTEX
  8
Layer1
 10
345.626
 20
318.799
  0
VERTEX
  8
Layer1
 10
344.59
 20
314.935
  0
VERTEX
  8
Layer1
 10
343.555
 20
318.799
  0
SEQEND
  0
POLYLINE
  8
Layer1
  6
CONTINUOUS
 62
7
 66
1
 10
0
 20
0
 30
0
 70
1
  0
VERTEX
  8
Layer1
 10
343.555
 20
401.071
  0
VERTEX
  8
Layer1
 10
344.59
 20
404.935
  0
VERTEX
  8
Layer1
 10
345.626
 20
401.071
  0
SEQEND
  0
TEXT
  8
Layer1
 62
7
 10
340.09
 20
274.435
 72
1
 11
340.09
 21
274.435
 40
6
 41
1
 50
90
  1
 17 
  0
LINE
  8
Layer1
  6
CONTINUOUS
 62
7
 10
356.778
 20
265.935
 11
338.09
 21
265.935
  0
LINE
  8
Layer1
  6
CONTINUOUS
 62
7
 10
356.778
 20
282.935
 11
338.09
 21
282.935
  0
POLYLINE
  8
Layer1
  6
CONTINUOUS
 62
7
 66
1
 10
0
 20
0
 30
0
  0
VERTEX
  8
Layer1
 10
342.09
 20
265.935
  0
VERTEX
  8
Layer1
 10
342.09
 20
282.935
  0
SEQEND
  0
POLYLINE
  8
Layer1
  6
CONTINUOUS
 62
7
 66
1
 10
0
 20
0
 30
0
 70
1
  0
VERTEX
  8
Layer1
 10
343.126
 20
269.799
  0
VERTEX
  8
Layer1
 10
342.09
 20
265.935
  0
VERTEX
  8
Layer1
 10
341.055
 20
269.799
  0
SEQEND
  0
POLYLINE
  8
Layer1
  6
CONTINUOUS
 62
7
 66
1
 10
0
 20
0
 30
0
 70
1
  0
VERTEX
  8
Layer1
 10
341.055
 20
279.071
  0
VERTEX
  8
Layer1
 10
342.09
 20
282.935
  0
VERTEX
  8
Layer1
 10
343.126
 20
279.071
  0
SEQEND
  0
TEXT
  8
Layer1
 62
7
 10
515.52
 20
310.935
 72
1
 11
515.52
 21
310.935
 40
6
 41
1
 50
90
  1
 25 
  0
LINE
  8
Layer1
  6
CONTINUOUS
 62
7
 10
456.502
 20
323.435
 11
521.52
 21
323.435
  0
LINE
  8
Layer1
  6
CONTINUOUS
 62
7
 10
457.623
 20
298.435
 11
521.52
 21
298.435
  0
POLYLINE
  8
Layer1
  6
CONTINUOUS
 62
7
 66
1
 10
0
 20
0
 30
0
  0
VERTEX
  8
Layer1
 10
517.52
 20
323.435
  0
VERTEX
  8
Layer1
 10
517.52
 20
298.435
  0
SEQEND
  0
POLYLINE
  8
Layer1
  6
CONTINUOUS
 62
7
 66
1
 10
0
 20
0
 30
0
 70
1
  0
VERTEX
  8
Layer1
 10
516.484
 20
319.571
  0
VERTEX
  8
Layer1
 10
517.52
 20
323.435
  0
VERTEX
  8
Layer1
 10
518.555
 20
319.571
  0
SEQEND
  0
POLYLINE
  8
Layer1
  6
CONTINUOUS
 62
7
 66
1
 10
0
 20
0
 30
0
 70
1
  0
VERTEX
  8
Layer1
 10
518.555
 20
302.299
  0
VERTEX
  8
Layer1
 10
517.52
 20
298.435
  0
VERTEX
  8
Layer1
 10
516.484
 20
302.299
  0
SEQEND
  0
TEXT
  8
Layer1
 62
7
 10
506.024
 20
286.49
 72
1
 11
506.024
 21
286.49
 40
6
 41
1
 50
90
  1
 45 
  0
TEXT
  8
Layer1
 62
7
 10
530.513
 20
310.935
 72
1
 11
530.513
 21
310.935
 40
6
 41
1
 50
90
  1
 40 
  0
LINE
  8
Layer1
  6
CONTINUOUS
 62
7
 10
474.778
 20
330.935
 11
536.513
 21
330.935
  0
LINE
  8
Layer1
  6
CONTINUOUS
 62
7
 10
457.278
 20
290.935
 11
536.513
 21
290.935
  0
POLYLINE
  8
Layer1
  6
CONTINUOUS
 62
7
 66
1
 10
0
 20
0
 30
0
  0
VERTEX
  8
Layer1
 10
532.513
 20
330.935
  0
VERTEX
  8
Layer1
 10
532.513
 20
290.935
  0
SEQEND
  0
POLYLINE
  8
Layer1
  6
CONTINUOUS
 62
7
 66
1
 10
0
 20
0
 30
0
 70
1
  0
VERTEX
  8
Layer1
 10
531.478
 20
327.071
  0
VERTEX
  8
Layer1
 10
532.513
 20
330.935
  0
VERTEX
  8
Layer1
 10
533.549
 20
327.071
  0
SEQEND
  0
POLYLINE
  8
Layer1
  6
CONTINUOUS
 62
7
 66
1
 10
0
 20
0
 30
0
 70
1
  0
VERTEX
  8
Layer1
 10
533.549
 20
294.799
  0
VERTEX
  8
Layer1
 10
532.513
 20
290.935
  0
VERTEX
  8
Layer1
 10
531.478
 20
294.799
  0
SEQEND
  0
TEXT
  8
Layer1
 62
7
 10
544.008
 20
306.435
 72
1
 11
544.008
 21
306.435
 40
6
 41
1
 50
90
  1
 81 
  0
LINE
  8
Layer1
  6
CONTINUOUS
 62
7
 10
506.024
 20
265.935
 11
550.008
 21
265.935
  0
LINE
  8
Layer1
  6
CONTINUOUS
 62
7
 10
474.778
 20
346.935
 11
550.008
 21
346.935
  0
POLYLINE
  8
Layer1
  6
CONTINUOUS
 62
7
 66
1
 10
0
 20
0
 30
0
  0
VERTEX
  8
Layer1
 10
546.008
 20
265.935
  0
VERTEX
  8
Layer1
 10
546.008
 20
346.935
  0
SEQEND
  0
POLYLINE
  8
Layer1
  6
CONTINUOUS
 62
7
 66
1
 10
0
 20
0
 30
0
 70
1
  0
VERTEX
  8
Layer1
 10
547.043
 20
269.799
  0
VERTEX
  8
Layer1
 10
546.008
 20
265.935
  0
VERTEX
  8
Layer1
 10
544.973
 20
269.799
  0
SEQEND
  0
POLYLINE
  8
Layer1
  6
CONTINUOUS
 62
7
 66
1
 10
0
 20
0
 30
0
 70
1
  0
VERTEX
  8
Layer1
 10
544.973
 20
343.071
  0
VERTEX
  8
Layer1
 10
546.008
 20
346.935
  0
VERTEX
  8
Layer1
 10
547.043
 20
343.071
  0
SEQEND
  0
TEXT
  8
Layer1
 62
7
 10
508.465
 20
265.854
 73
3
 11
508.465
 21
265.854
 40
4
 41
1
 50
90
  1
(中心間距離）
  0
LINE
  8
Layer1
  6
CONTINUOUS
 62
7
 10
464.95
 20
310.935
 11
510.024
 21
310.935
  0
LINE
  8
Layer1
  6
CONTINUOUS
 62
7
 10
492.279
 20
265.935
 11
510.024
 21
265.935
  0
POLYLINE
  8
Layer1
  6
CONTINUOUS
 62
7
 66
1
 10
0
 20
0
 30
0
  0
VERTEX
  8
Layer1
 10
506.024
 20
310.935
  0
VERTEX
  8
Layer1
 10
506.024
 20
265.935
  0
SEQEND
  0
POLYLINE
  8
Layer1
  6
CONTINUOUS
 62
7
 66
1
 10
0
 20
0
 30
0
 70
1
  0
VERTEX
  8
Layer1
 10
504.989
 20
307.071
  0
VERTEX
  8
Layer1
 10
506.024
 20
310.935
  0
VERTEX
  8
Layer1
 10
507.059
 20
307.071
  0
SEQEND
  0
POLYLINE
  8
Layer1
  6
CONTINUOUS
 62
7
 66
1
 10
0
 20
0
 30
0
 70
1
  0
VERTEX
  8
Layer1
 10
507.059
 20
269.799
  0
VERTEX
  8
Layer1
 10
506.024
 20
265.935
  0
VERTEX
  8
Layer1
 10
504.989
 20
269.799
  0
SEQEND
  0
TEXT
  8
Layer1
 62
7
 10
642.032
 20
357.403
 72
1
 11
642.032
 21
357.403
 40
6
 41
1
  1
 22 
  0
LINE
  8
Layer1
  6
CONTINUOUS
 62
7
 10
631.032
 20
329.935
 11
631.032
 21
359.403
  0
LINE
  8
Layer1
  6
CONTINUOUS
 62
7
 10
653.032
 20
329.935
 11
653.032
 21
359.403
  0
POLYLINE
  8
Layer1
  6
CONTINUOUS
 62
7
 66
1
 10
0
 20
0
 30
0
  0
VERTEX
  8
Layer1
 10
631.032
 20
355.403
  0
VERTEX
  8
Layer1
 10
653.032
 20
355.403
  0
SEQEND
  0
POLYLINE
  8
Layer1
  6
CONTINUOUS
 62
7
 66
1
 10
0
 20
0
 30
0
 70
1
  0
VERTEX
  8
Layer1
 10
634.896
 20
354.368
  0
VERTEX
  8
Layer1
 10
631.032
 20
355.403
  0
VERTEX
  8
Layer1
 10
634.896
 20
356.439
  0
SEQEND
  0
POLYLINE
  8
Layer1
  6
CONTINUOUS
 62
7
 66
1
 10
0
 20
0
 30
0
 70
1
  0
VERTEX
  8
Layer1
 10
649.168
 20
356.439
  0
VERTEX
  8
Layer1
 10
653.032
 20
355.403
  0
VERTEX
  8
Layer1
 10
649.168
 20
354.368
  0
SEQEND
  0
TEXT
  8
Layer1
 62
7
 10
655.532
 20
357.403
 72
1
 11
655.532
 21
357.403
 40
6
 41
1
  1
 5 
  0
LINE
  8
Layer1
  6
CONTINUOUS
 62
7
 10
658.032
 20
344.935
 11
658.032
 21
359.403
  0
POLYLINE
  8
Layer1
  6
CONTINUOUS
 62
7
 66
1
 10
0
 20
0
 30
0
  0
VERTEX
  8
Layer1
 10
674.032
 20
355.403
  0
VERTEX
  8
Layer1
 10
658.032
 20
355.403
  0
SEQEND
  0
POLYLINE
  8
Layer1
  6
CONTINUOUS
 62
7
 66
1
 10
0
 20
0
 30
0
 70
1
  0
VERTEX
  8
Layer1
 10
661.896
 20
354.368
  0
VERTEX
  8
Layer1
 10
658.032
 20
355.403
  0
VERTEX
  8
Layer1
 10
661.896
 20
356.439
  0
SEQEND
  0
POLYLINE
  8
Layer1
  6
CONTINUOUS
 62
7
 66
1
 10
0
 20
0
 30
0
  0
VERTEX
  8
Layer1
 10
637.032
 20
355.403
  0
VERTEX
  8
Layer1
 10
653.032
 20
355.403
  0
SEQEND
  0
POLYLINE
  8
Layer1
  6
CONTINUOUS
 62
7
 66
1
 10
0
 20
0
 30
0
 70
1
  0
VERTEX
  8
Layer1
 10
649.168
 20
356.439
  0
VERTEX
  8
Layer1
 10
653.032
 20
355.403
  0
VERTEX
  8
Layer1
 10
649.168
 20
354.368
  0
SEQEND
  0
LINE
  8
Layer1
  6
CONTINUOUS
 62
7
 10
658.032
 20
355.403
 11
653.032
 21
355.403
  0
TEXT
  8
Layer1
 62
7
 10
754.287
 20
334.117
 72
1
 11
754.287
 21
334.117
 40
6
 41
1
 50
22.5
  1
 45°
  0
ARC
  8
Layer1
  6
CONTINUOUS
 62
7
 10
768.032
 20
300.935
 40
33.9164
 50
90
 51
135
  0
TEXT
  8
Layer1
 62
7
 10
761.032
 20
319.935
 72
1
 11
761.032
 21
319.935
 40
6
 41
1
  1
 14 
  0
LINE
  8
Layer1
  6
CONTINUOUS
 62
7
 10
754.032
 20
314.935
 11
754.032
 21
321.935
  0
POLYLINE
  8
Layer1
  6
CONTINUOUS
 62
7
 66
1
 10
0
 20
0
 30
0
  0
VERTEX
  8
Layer1
 10
754.032
 20
317.935
  0
VERTEX
  8
Layer1
 10
768.032
 20
317.935
  0
SEQEND
  0
POLYLINE
  8
Layer1
  6
CONTINUOUS
 62
7
 66
1
 10
0
 20
0
 30
0
 70
1
  0
VERTEX
  8
Layer1
 10
757.896
 20
316.9
  0
VERTEX
  8
Layer1
 10
754.032
 20
317.935
  0
VERTEX
  8
Layer1
 10
757.896
 20
318.97
  0
SEQEND
  0
POLYLINE
  8
Layer1
  6
CONTINUOUS
 62
7
 66
1
 10
0
 20
0
 30
0
 70
1
  0
VERTEX
  8
Layer1
 10
764.168
 20
318.97
  0
VERTEX
  8
Layer1
 10
768.032
 20
317.935
  0
VERTEX
  8
Layer1
 10
764.168
 20
316.9
  0
SEQEND
  0
LINE
  8
Layer1
  6
CENTER1
 62
7
 10
762.285
 20
283.935
 11
789.043
 21
283.935
  0
LINE
  8
Layer1
  6
CENTER1
 62
7
 10
762.279
 20
303.935
 11
790.781
 21
303.935
  0
LINE
  8
Layer1
  6
CENTER1
 62
7
 10
765.539
 20
323.935
 11
791.292
 21
323.935
  0
TEXT
  8
Layer1
 62
7
 10
802.712
 20
277.837
 72
1
 11
802.712
 21
277.837
 40
6
 41
1
 50
90
  1
17
  0
TEXT
  8
Layer1
 62
7
 10
800.288
 20
293.935
 72
1
 11
800.288
 21
293.935
 40
6
 41
1
 50
90
  1
 20 
  0
LINE
  8
Layer1
  6
CONTINUOUS
 62
7
 10
783.032
 20
303.935
 11
806.288
 21
303.935
  0
POLYLINE
  8
Layer1
  6
CONTINUOUS
 62
7
 66
1
 10
0
 20
0
 30
0
  0
VERTEX
  8
Layer1
 10
802.288
 20
303.935
  0
VERTEX
  8
Layer1
 10
802.288
 20
283.935
  0
SEQEND
  0
POLYLINE
  8
Layer1
  6
CONTINUOUS
 62
7
 66
1
 10
0
 20
0
 30
0
 70
1
  0
VERTEX
  8
Layer1
 10
801.253
 20
300.071
  0
VERTEX
  8
Layer1
 10
802.288
 20
303.935
  0
VERTEX
  8
Layer1
 10
803.323
 20
300.071
  0
SEQEND
  0
POLYLINE
  8
Layer1
  6
CONTINUOUS
 62
7
 66
1
 10
0
 20
0
 30
0
 70
1
  0
VERTEX
  8
Layer1
 10
803.323
 20
287.799
  0
VERTEX
  8
Layer1
 10
802.288
 20
283.935
  0
VERTEX
  8
Layer1
 10
801.253
 20
287.799
  0
SEQEND
  0
TEXT
  8
Layer1
 62
7
 10
800.288
 20
313.935
 72
1
 11
800.288
 21
313.935
 40
6
 41
1
 50
90
  1
 20 
  0
LINE
  8
Layer1
  6
CONTINUOUS
 62
7
 10
783.032
 20
323.935
 11
806.288
 21
323.935
  0
POLYLINE
  8
Layer1
  6
CONTINUOUS
 62
7
 66
1
 10
0
 20
0
 30
0
  0
VERTEX
  8
Layer1
 10
802.288
 20
323.935
  0
VERTEX
  8
Layer1
 10
802.288
 20
303.935
  0
SEQEND
  0
POLYLINE
  8
Layer1
  6
CONTINUOUS
 62
7
 66
1
 10
0
 20
0
 30
0
 70
1
  0
VERTEX
  8
Layer1
 10
801.253
 20
320.071
  0
VERTEX
  8
Layer1
 10
802.288
 20
323.935
  0
VERTEX
  8
Layer1
 10
803.323
 20
320.071
  0
SEQEND
  0
POLYLINE
  8
Layer1
  6
CONTINUOUS
 62
7
 66
1
 10
0
 20
0
 30
0
 70
1
  0
VERTEX
  8
Layer1
 10
803.323
 20
307.799
  0
VERTEX
  8
Layer1
 10
802.288
 20
303.935
  0
VERTEX
  8
Layer1
 10
801.253
 20
307.799
  0
SEQEND
  0
TEXT
  8
Layer1
 62
7
 10
802.086
 20
258.819
 72
1
 11
802.086
 21
258.819
 40
6
 41
1
 50
90
  1
1
  0
POLYLINE
  8
Layer1
  6
CONTINUOUS
 62
7
 66
1
 10
0
 20
0
 30
0
  0
VERTEX
  8
Layer1
 10
802.288
 20
254.319
  0
VERTEX
  8
Layer1
 10
802.288
 20
265.935
  0
SEQEND
  0
POLYLINE
  8
Layer1
  6
CONTINUOUS
 62
7
 66
1
 10
0
 20
0
 30
0
 70
1
  0
VERTEX
  8
Layer1
 10
801.253
 20
262.071
  0
VERTEX
  8
Layer1
 10
802.288
 20
265.935
  0
VERTEX
  8
Layer1
 10
803.323
 20
262.071
  0
SEQEND
  0
LINE
  8
Layer1
  6
CONTINUOUS
 62
7
 10
802.288
 20
266.635
 11
802.288
 21
265.635
  0
LINE
  8
Layer1
  6
CONTINUOUS
 62
7
 10
782.032
 20
266.935
 11
806.288
 21
266.935
  0
LINE
  8
Layer1
  6
CONTINUOUS
 62
7
 10
783.032
 20
283.935
 11
806.288
 21
283.935
  0
POLYLINE
  8
Layer1
  6
CONTINUOUS
 62
7
 66
1
 10
0
 20
0
 30
0
  0
VERTEX
  8
Layer1
 10
802.288
 20
299.935
  0
VERTEX
  8
Layer1
 10
802.288
 20
283.935
  0
SEQEND
  0
POLYLINE
  8
Layer1
  6
CONTINUOUS
 62
7
 66
1
 10
0
 20
0
 30
0
 70
1
  0
VERTEX
  8
Layer1
 10
803.323
 20
287.799
  0
VERTEX
  8
Layer1
 10
802.288
 20
283.935
  0
VERTEX
  8
Layer1
 10
801.253
 20
287.799
  0
SEQEND
  0
LINE
  8
Layer1
  6
CONTINUOUS
 62
7
 10
802.288
 20
266.935
 11
802.288
 21
283.935
  0
CIRCLE
  8
Layer1
  6
CONTINUOUS
 62
7
 10
802.288
 20
266.935
 40
0.3
  0
CIRCLE
  8
Layer1
  6
CONTINUOUS
 62
7
 10
802.288
 20
283.935
 40
0.3
  0
LINE
  8
Layer1
  6
CONTINUOUS
 62
7
 10
783.032
 20
317.435
 11
790.532
 21
317.435
  0
LINE
  8
Layer1
  6
CONTINUOUS
 62
7
 10
783.032
 20
330.435
 11
790.532
 21
330.435
  0
LINE
  8
Layer1
  6
CONTINUOUS
 62
7
 10
790.532
 20
317.435
 11
790.532
 21
330.435
  0
LINE
  8
Layer1
  6
CONTINUOUS
 62
7
 10
791.032
 20
317.935
 11
791.032
 21
329.935
  0
LINE
  8
Layer1
  6
CONTINUOUS
 62
7
 10
790.532
 20
317.435
 11
791.032
 21
317.935
  0
LINE
  8
Layer1
  6
CONTINUOUS
 62
7
 10
790.532
 20
330.435
 11
791.032
 21
329.935
  0
LINE
  8
Layer1
  6
CONTINUOUS
 62
7
 10
783.032
 20
330.435
 11
783.032
 21
317.435
  0
LINE
  8
Layer1
  6
CONTINUOUS
 62
7
 10
783.609
 20
329.435
 11
789.955
 21
329.435
  0
LINE
  8
Layer1
  6
CONTINUOUS
 62
7
 10
784.186
 20
328.435
 11
789.378
 21
328.435
  0
LINE
  8
Layer1
  6
CONTINUOUS
 62
7
 10
784.763
 20
327.435
 11
788.801
 21
327.435
  0
LINE
  8
Layer1
  6
CONTINUOUS
 62
7
 10
785.34
 20
326.435
 11
788.224
 21
326.435
  0
LINE
  8
Layer1
  6
CONTINUOUS
 62
7
 10
783.032
 20
277.435
 11
790.532
 21
277.435
  0
LINE
  8
Layer1
  6
CONTINUOUS
 62
7
 10
783.032
 20
290.435
 11
790.532
 21
290.435
  0
LINE
  8
Layer1
  6
CONTINUOUS
 62
7
 10
790.532
 20
277.435
 11
790.532
 21
290.435
  0
LINE
  8
Layer1
  6
CONTINUOUS
 62
7
 10
791.032
 20
277.935
 11
791.032
 21
289.935
  0
LINE
  8
Layer1
  6
CONTINUOUS
 62
7
 10
790.532
 20
277.435
 11
791.032
 21
277.935
  0
LINE
  8
Layer1
  6
CONTINUOUS
 62
7
 10
790.532
 20
290.435
 11
791.032
 21
289.935
  0
LINE
  8
Layer1
  6
CONTINUOUS
 62
7
 10
783.032
 20
290.435
 11
783.032
 21
277.435
  0
LINE
  8
Layer1
  6
CONTINUOUS
 62
7
 10
783.609
 20
289.435
 11
789.955
 21
289.435
  0
LINE
  8
Layer1
  6
CONTINUOUS
 62
7
 10
784.186
 20
288.435
 11
789.378
 21
288.435
  0
LINE
  8
Layer1
  6
CONTINUOUS
 62
7
 10
784.763
 20
287.435
 11
788.801
 21
287.435
  0
LINE
  8
Layer1
  6
CONTINUOUS
 62
7
 10
785.34
 20
286.435
 11
788.224
 21
286.435
  0
LINE
  8
Layer1
  6
PHANTOM1
 62
7
 10
783.032
 20
296.548
 11
790.532
 21
296.548
  0
LINE
  8
Layer1
  6
PHANTOM1
 62
7
 10
783.032
 20
309.548
 11
790.532
 21
309.548
  0
LINE
  8
Layer1
  6
PHANTOM1
 62
7
 10
790.532
 20
296.548
 11
790.532
 21
309.548
  0
LINE
  8
Layer1
  6
PHANTOM1
 62
7
 10
791.032
 20
297.048
 11
791.032
 21
309.048
  0
LINE
  8
Layer1
  6
PHANTOM1
 62
7
 10
790.532
 20
296.548
 11
791.032
 21
297.048
  0
LINE
  8
Layer1
  6
PHANTOM1
 62
7
 10
790.532
 20
309.548
 11
791.032
 21
309.048
  0
LINE
  8
Layer1
  6
PHANTOM1
 62
7
 10
783.032
 20
309.548
 11
783.032
 21
296.548
  0
LINE
  8
Layer1
  6
PHANTOM1
 62
7
 10
783.609
 20
308.548
 11
789.955
 21
308.548
  0
LINE
  8
Layer1
  6
PHANTOM1
 62
7
 10
784.186
 20
307.548
 11
789.378
 21
307.548
  0
LINE
  8
Layer1
  6
PHANTOM1
 62
7
 10
784.763
 20
306.548
 11
788.801
 21
306.548
  0
LINE
  8
Layer1
  6
PHANTOM1
 62
7
 10
785.34
 20
305.548
 11
788.224
 21
305.548
  0
LINE
  8
Layer1
  6
PHANTOM1
 62
7
 10
607.032
 20
330.935
 11
627.032
 21
330.935
  0
LINE
  8
Layer1
  6
PHANTOM1
 62
7
 10
607.032
 20
290.935
 11
627.032
 21
290.935
  0
LINE
  8
Layer1
  6
PHANTOM1
 62
7
 10
606.032
 20
329.935
 11
606.032
 21
291.935
  0
LINE
  8
Layer1
  6
PHANTOM1
 62
7
 10
628.032
 20
329.935
 11
628.032
 21
291.935
  0
LINE
  8
Layer1
  6
PHANTOM1
 62
7
 10
628.032
 20
291.935
 11
627.032
 21
290.935
  0
LINE
  8
Layer1
  6
PHANTOM1
 62
7
 10
607.032
 20
290.935
 11
606.032
 21
291.935
  0
LINE
  8
Layer1
  6
PHANTOM1
 62
7
 10
628.032
 20
329.935
 11
627.032
 21
330.935
  0
LINE
  8
Layer1
  6
PHANTOM1
 62
7
 10
607.032
 20
330.935
 11
606.032
 21
329.935
  0
LINE
  8
Layer1
  6
CONTINUOUS
 62
7
 10
606.032
 20
291.935
 11
606.032
 21
261.935
  0
LINE
  8
Layer1
  6
CONTINUOUS
 62
7
 10
631.032
 20
291.935
 11
631.032
 21
261.935
  0
POLYLINE
  8
Layer1
  6
CONTINUOUS
 62
7
 66
1
 10
0
 20
0
 30
0
  0
VERTEX
  8
Layer1
 10
606.032
 20
265.935
  0
VERTEX
  8
Layer1
 10
631.032
 20
265.935
  0
SEQEND
  0
POLYLINE
  8
Layer1
  6
CONTINUOUS
 62
7
 66
1
 10
0
 20
0
 30
0
 70
1
  0
VERTEX
  8
Layer1
 10
609.896
 20
264.9
  0
VERTEX
  8
Layer1
 10
606.032
 20
265.935
  0
VERTEX
  8
Layer1
 10
609.896
 20
266.97
  0
SEQEND
  0
POLYLINE
  8
Layer1
  6
CONTINUOUS
 62
7
 66
1
 10
0
 20
0
 30
0
 70
1
  0
VERTEX
  8
Layer1
 10
627.168
 20
266.97
  0
VERTEX
  8
Layer1
 10
631.032
 20
265.935
  0
VERTEX
  8
Layer1
 10
627.168
 20
264.9
  0
SEQEND
  0
TEXT
  8
Layer1
 62
7
 10
619.36
 20
253.943
 72
1
 11
619.36
 21
253.943
 40
6
 41
1
  1
25ストローク 
  0
LINE
  8
Layer1
  6
CONTINUOUS
 62
7
 10
457.778
 20
349.935
 11
428.895
 21
349.935
  0
LINE
  8
Layer1
  6
CONTINUOUS
 62
7
 10
422.75
 20
349.935
 11
393.778
 21
349.935
  0
LINE
  8
Layer1
  6
PHANTOM1
 62
7
 10
739.957
 20
290.837
 11
739.957
 21
304.01
  0
LINE
  8
Layer1
  6
PHANTOM1
 62
7
 10
712.77
 20
331.197
 11
739.957
 21
304.01
  0
TEXT
  8
Layer1
 62
7
 10
425.778
 20
255.477
 72
1
 11
425.778
 21
255.477
 40
6
 41
1
  1
 50 
  0
LINE
  8
Layer1
  6
CONTINUOUS
 62
7
 10
400.778
 20
290.935
 11
400.778
 21
249.477
  0
LINE
  8
Layer1
  6
CONTINUOUS
 62
7
 10
450.778
 20
290.935
 11
450.778
 21
249.477
  0
POLYLINE
  8
Layer1
  6
CONTINUOUS
 62
7
 66
1
 10
0
 20
0
 30
0
  0
VERTEX
  8
Layer1
 10
400.778
 20
253.477
  0
VERTEX
  8
Layer1
 10
450.778
 20
253.477
  0
SEQEND
  0
POLYLINE
  8
Layer1
  6
CONTINUOUS
 62
7
 66
1
 10
0
 20
0
 30
0
 70
1
  0
VERTEX
  8
Layer1
 10
404.642
 20
252.442
  0
VERTEX
  8
Layer1
 10
400.778
 20
253.477
  0
VERTEX
  8
Layer1
 10
404.642
 20
254.512
  0
SEQEND
  0
POLYLINE
  8
Layer1
  6
CONTINUOUS
 62
7
 66
1
 10
0
 20
0
 30
0
 70
1
  0
VERTEX
  8
Layer1
 10
446.915
 20
254.512
  0
VERTEX
  8
Layer1
 10
450.778
 20
253.477
  0
VERTEX
  8
Layer1
 10
446.915
 20
252.442
  0
SEQEND
  0
TEXT
  8
Layer1
 62
7
 10
425.778
 20
242.913
 72
1
 11
425.778
 21
242.913
 40
6
 41
1
  1
 65 
  0
LINE
  8
Layer1
  6
CONTINUOUS
 62
7
 10
458.278
 20
287.747
 11
458.278
 21
236.913
  0
LINE
  8
Layer1
  6
CONTINUOUS
 62
7
 10
393.278
 20
287.747
 11
393.278
 21
236.913
  0
POLYLINE
  8
Layer1
  6
CONTINUOUS
 62
7
 66
1
 10
0
 20
0
 30
0
  0
VERTEX
  8
Layer1
 10
458.278
 20
240.913
  0
VERTEX
  8
Layer1
 10
393.278
 20
240.913
  0
SEQEND
  0
POLYLINE
  8
Layer1
  6
CONTINUOUS
 62
7
 66
1
 10
0
 20
0
 30
0
 70
1
  0
VERTEX
  8
Layer1
 10
454.415
 20
241.949
  0
VERTEX
  8
Layer1
 10
458.278
 20
240.913
  0
VERTEX
  8
Layer1
 10
454.415
 20
239.878
  0
SEQEND
  0
POLYLINE
  8
Layer1
  6
CONTINUOUS
 62
7
 66
1
 10
0
 20
0
 30
0
 70
1
  0
VERTEX
  8
Layer1
 10
397.142
 20
239.878
  0
VERTEX
  8
Layer1
 10
393.278
 20
240.913
  0
VERTEX
  8
Layer1
 10
397.142
 20
241.949
  0
SEQEND
  0
POLYLINE
  8
Layer1
  6
CONTINUOUS
 62
7
 66
1
 10
0
 20
0
 30
0
  0
VERTEX
  8
Layer1
 10
684.416
 20
308.786
  0
VERTEX
  8
Layer1
 10
654.558
 20
226.752
  0
VERTEX
  8
Layer1
 10
654.558
 20
226.752
  0
SEQEND
  0
CIRCLE
  8
Layer1
  6
CONTINUOUS
 62
7
 10
684.416
 20
308.786
 40
1
  0
CIRCLE
  8
Layer1
  6
CONTINUOUS
 62
7
 10
653.411
 20
223.6
 40
3.3541
  0
TEXT
  8
Layer1
 62
7
 10
653.411
 20
223.6
 72
1
 73
2
 11
653.411
 21
223.6
 40
6
 41
1
  1
1
  0
POLYLINE
  8
Layer1
  6
CONTINUOUS
 62
7
 66
1
 10
0
 20
0
 30
0
  0
VERTEX
  8
Layer1
 10
751.03
 20
272.952
  0
VERTEX
  8
Layer1
 10
735.051
 20
226.752
  0
VERTEX
  8
Layer1
 10
735.051
 20
226.752
  0
SEQEND
  0
CIRCLE
  8
Layer1
  6
CONTINUOUS
 62
7
 10
751.03
 20
272.952
 40
1
  0
CIRCLE
  8
Layer1
  6
CONTINUOUS
 62
7
 10
733.954
 20
223.582
 40
3.3541
  0
TEXT
  8
Layer1
 62
7
 10
733.954
 20
223.582
 72
1
 73
2
 11
733.954
 21
223.582
 40
6
 41
1
  1
6
  0
POLYLINE
  8
Layer1
  6
CONTINUOUS
 62
7
 66
1
 10
0
 20
0
 30
0
  0
VERTEX
  8
Layer1
 10
707.441
 20
315.364
  0
VERTEX
  8
Layer1
 10
675.244
 20
226.752
  0
VERTEX
  8
Layer1
 10
675.244
 20
226.752
  0
SEQEND
  0
CIRCLE
  8
Layer1
  6
CONTINUOUS
 62
7
 10
707.441
 20
315.364
 40
1
  0
CIRCLE
  8
Layer1
  6
CONTINUOUS
 62
7
 10
674.098
 20
223.6
 40
3.3541
  0
TEXT
  8
Layer1
 62
7
 10
674.098
 20
223.6
 72
1
 73
2
 11
674.098
 21
223.6
 40
6
 41
1
  1
2
  0
POLYLINE
  8
Layer1
  6
CONTINUOUS
 62
7
 66
1
 10
0
 20
0
 30
0
  0
VERTEX
  8
Layer1
 10
719.167
 20
275.015
  0
VERTEX
  8
Layer1
 10
700.875
 20
226.752
  0
VERTEX
  8
Layer1
 10
700.875
 20
226.752
  0
SEQEND
  0
CIRCLE
  8
Layer1
  6
CONTINUOUS
 62
7
 10
719.167
 20
275.015
 40
1
  0
CIRCLE
  8
Layer1
  6
CONTINUOUS
 62
7
 10
699.687
 20
223.616
 40
3.3541
  0
TEXT
  8
Layer1
 62
7
 10
699.687
 20
223.616
 72
1
 73
2
 11
699.687
 21
223.616
 40
6
 41
1
  1
7
  0
POLYLINE
  8
Layer1
  6
CONTINUOUS
 62
7
 66
1
 10
0
 20
0
 30
0
  0
VERTEX
  8
Layer1
 10
784.763
 20
306.548
  0
VERTEX
  8
Layer1
 10
810.674
 20
236.202
  0
VERTEX
  8
Layer1
 10
810.674
 20
236.202
  0
SEQEND
  0
CIRCLE
  8
Layer1
  6
CONTINUOUS
 62
7
 10
784.763
 20
306.548
 40
1
  0
CIRCLE
  8
Layer1
  6
CONTINUOUS
 62
7
 10
812.14
 20
232.221
 40
4.24264
  0
TEXT
  8
Layer1
 62
7
 10
812.14
 20
232.221
 72
1
 73
2
 11
812.14
 21
232.221
 40
6
 41
1
  1
12
  0
POLYLINE
  8
Layer1
  6
CONTINUOUS
 62
7
 66
1
 10
0
 20
0
 30
0
  0
VERTEX
  8
Layer1
 10
759.092
 20
297.391
  0
VERTEX
  8
Layer1
 10
781.894
 20
235.752
  0
VERTEX
  8
Layer1
 10
781.894
 20
235.752
  0
SEQEND
  0
CIRCLE
  8
Layer1
  6
CONTINUOUS
 62
7
 10
759.092
 20
297.391
 40
1
  0
CIRCLE
  8
Layer1
  6
CONTINUOUS
 62
7
 10
783.366
 20
231.773
 40
4.24264
  0
TEXT
  8
Layer1
 62
7
 10
783.366
 20
231.773
 72
1
 73
2
 11
783.366
 21
231.773
 40
6
 41
1
  1
10
  0
POLYLINE
  8
Layer1
  6
CONTINUOUS
 62
7
 66
1
 10
0
 20
0
 30
0
  0
VERTEX
  8
Layer1
 10
646.931
 20
305.539
  0
VERTEX
  8
Layer1
 10
623.997
 20
386.435
  0
VERTEX
  8
Layer1
 10
623.997
 20
386.435
  0
SEQEND
  0
CIRCLE
  8
Layer1
  6
CONTINUOUS
 62
7
 10
646.931
 20
305.539
 40
1
  0
CIRCLE
  8
Layer1
  6
CONTINUOUS
 62
7
 10
622.84
 20
390.517
 40
4.24264
  0
TEXT
  8
Layer1
 62
7
 10
622.84
 20
390.517
 72
1
 73
2
 11
622.84
 21
390.517
 40
6
 41
1
  1
13
  0
POLYLINE
  8
Layer1
  6
CONTINUOUS
 62
7
 66
1
 10
0
 20
0
 30
0
  0
VERTEX
  8
Layer1
 10
633.032
 20
323.435
  0
VERTEX
  8
Layer1
 10
610.057
 20
386.435
  0
VERTEX
  8
Layer1
 10
610.057
 20
386.435
  0
SEQEND
  0
CIRCLE
  8
Layer1
  6
CONTINUOUS
 62
7
 10
633.032
 20
323.435
 40
1
  0
CIRCLE
  8
Layer1
  6
CONTINUOUS
 62
7
 10
608.604
 20
390.421
 40
4.24264
  0
TEXT
  8
Layer1
 62
7
 10
608.604
 20
390.421
 72
1
 73
2
 11
608.604
 21
390.421
 40
6
 41
1
  1
14
  0
POLYLINE
  8
Layer1
  6
CONTINUOUS
 62
7
 66
1
 10
0
 20
0
 30
0
  0
VERTEX
  8
Layer1
 10
710.615
 20
338.038
  0
VERTEX
  8
Layer1
 10
693.194
 20
386.476
  0
VERTEX
  8
Layer1
 10
693.194
 20
386.476
  0
SEQEND
  0
CIRCLE
  8
Layer1
  6
CONTINUOUS
 62
7
 10
710.615
 20
338.038
 40
1
  0
CIRCLE
  8
Layer1
  6
CONTINUOUS
 62
7
 10
692.059
 20
389.632
 40
3.3541
  0
TEXT
  8
Layer1
 62
7
 10
692.059
 20
389.632
 72
1
 73
2
 11
692.059
 21
389.632
 40
6
 41
1
  1
4
  0
POLYLINE
  8
Layer1
  6
CONTINUOUS
 62
7
 66
1
 10
0
 20
0
 30
0
  0
VERTEX
  8
Layer1
 10
668.782
 20
341.435
  0
VERTEX
  8
Layer1
 10
652.173
 20
387.613
  0
VERTEX
  8
Layer1
 10
652.173
 20
387.613
  0
SEQEND
  0
CIRCLE
  8
Layer1
  6
CONTINUOUS
 62
7
 10
668.782
 20
341.435
 40
1
  0
CIRCLE
  8
Layer1
  6
CONTINUOUS
 62
7
 10
650.738
 20
391.605
 40
4.24264
  0
TEXT
  8
Layer1
 62
7
 10
650.738
 20
391.605
 72
1
 73
2
 11
650.738
 21
391.605
 40
6
 41
1
  1
11
  0
POLYLINE
  8
Layer1
  6
CONTINUOUS
 62
7
 66
1
 10
0
 20
0
 30
0
  0
VERTEX
  8
Layer1
 10
689.154
 20
351.07
  0
VERTEX
  8
Layer1
 10
676.241
 20
387.215
  0
VERTEX
  8
Layer1
 10
676.241
 20
387.215
  0
SEQEND
  0
CIRCLE
  8
Layer1
  6
CONTINUOUS
 62
7
 10
689.154
 20
351.07
 40
1
  0
CIRCLE
  8
Layer1
  6
CONTINUOUS
 62
7
 10
675.113
 20
390.374
 40
3.3541
  0
TEXT
  8
Layer1
 62
7
 10
675.113
 20
390.374
 72
1
 73
2
 11
675.113
 21
390.374
 40
6
 41
1
  1
8
  0
POLYLINE
  8
Layer1
  6
CONTINUOUS
 62
7
 66
1
 10
0
 20
0
 30
0
  0
VERTEX
  8
Layer1
 10
725.216
 20
359.74
  0
VERTEX
  8
Layer1
 10
707.795
 20
408.178
  0
VERTEX
  8
Layer1
 10
707.795
 20
408.178
  0
SEQEND
  0
CIRCLE
  8
Layer1
  6
CONTINUOUS
 62
7
 10
725.216
 20
359.74
 40
1
  0
CIRCLE
  8
Layer1
  6
CONTINUOUS
 62
7
 10
706.66
 20
411.334
 40
3.3541
  0
TEXT
  8
Layer1
 62
7
 10
706.66
 20
411.334
 72
1
 73
2
 11
706.66
 21
411.334
 40
6
 41
1
  1
3
  0
TEXT
  8
Layer1
 62
7
 10
762.501
 20
427.865
 72
1
 11
762.501
 21
427.865
 40
6
 41
1
  1
 10 
  0
LINE
  8
Layer1
  6
CONTINUOUS
 62
7
 10
719.032
 20
427.577
 11
719.032
 21
423.239
  0
POLYLINE
  8
Layer1
  6
CONTINUOUS
 62
7
 66
1
 10
0
 20
0
 30
0
  0
VERTEX
  8
Layer1
 10
745.032
 20
427.239
  0
VERTEX
  8
Layer1
 10
729.032
 20
427.239
  0
SEQEND
  0
POLYLINE
  8
Layer1
  6
CONTINUOUS
 62
7
 66
1
 10
0
 20
0
 30
0
 70
1
  0
VERTEX
  8
Layer1
 10
732.896
 20
426.204
  0
VERTEX
  8
Layer1
 10
729.032
 20
427.239
  0
VERTEX
  8
Layer1
 10
732.896
 20
428.274
  0
SEQEND
  0
POLYLINE
  8
Layer1
  6
CONTINUOUS
 62
7
 66
1
 10
0
 20
0
 30
0
  0
VERTEX
  8
Layer1
 10
768.032
 20
427.239
  0
VERTEX
  8
Layer1
 10
784.032
 20
427.239
  0
SEQEND
  0
POLYLINE
  8
Layer1
  6
CONTINUOUS
 62
7
 66
1
 10
0
 20
0
 30
0
 70
1
  0
VERTEX
  8
Layer1
 10
771.896
 20
428.274
  0
VERTEX
  8
Layer1
 10
768.032
 20
427.239
  0
VERTEX
  8
Layer1
 10
771.896
 20
426.204
  0
SEQEND
  0
LINE
  8
Layer1
  6
CONTINUOUS
 62
7
 10
768.032
 20
427.239
 11
758.032
 21
427.239
  0
TEXT
  8
Layer1
 62
7
 10
713.032
 20
614.772
 72
1
 11
713.032
 21
614.772
 40
6
 41
1
  1
 110
  0
LINE
  8
Layer1
  6
CONTINUOUS
 62
7
 10
658.032
 20
582.925
 11
658.032
 21
616.772
  0
LINE
  8
Layer1
  6
CONTINUOUS
 62
7
 10
768.032
 20
586.164
 11
768.032
 21
616.772
  0
POLYLINE
  8
Layer1
  6
CONTINUOUS
 62
7
 66
1
 10
0
 20
0
 30
0
  0
VERTEX
  8
Layer1
 10
658.032
 20
612.772
  0
VERTEX
  8
Layer1
 10
768.032
 20
612.772
  0
SEQEND
  0
POLYLINE
  8
Layer1
  6
CONTINUOUS
 62
7
 66
1
 10
0
 20
0
 30
0
 70
1
  0
VERTEX
  8
Layer1
 10
661.896
 20
611.737
  0
VERTEX
  8
Layer1
 10
658.032
 20
612.772
  0
VERTEX
  8
Layer1
 10
661.896
 20
613.808
  0
SEQEND
  0
POLYLINE
  8
Layer1
  6
CONTINUOUS
 62
7
 66
1
 10
0
 20
0
 30
0
 70
1
  0
VERTEX
  8
Layer1
 10
764.168
 20
613.808
  0
VERTEX
  8
Layer1
 10
768.032
 20
612.772
  0
VERTEX
  8
Layer1
 10
764.168
 20
611.737
  0
SEQEND
  0
TEXT
  8
Layer1
 62
7
 10
795.588
 20
595.303
 40
6
 41
1
  1
アッパー取付穴
  0
POLYLINE
  8
Layer1
  6
CONTINUOUS
 62
7
 66
1
 10
0
 20
0
 30
0
  0
VERTEX
  8
Layer1
 10
761.72
 20
566.402
  0
VERTEX
  8
Layer1
 10
801.884
 20
608.947
  0
VERTEX
  8
Layer1
 10
801.884
 20
608.947
  0
SEQEND
  0
POLYLINE
  8
Layer1
  6
CONTINUOUS
 62
7
 66
1
 10
0
 20
0
 30
0
 70
1
  0
VERTEX
  8
Layer1
 10
765.125
 20
568.501
  0
VERTEX
  8
Layer1
 10
761.72
 20
566.402
  0
VERTEX
  8
Layer1
 10
763.619
 20
569.922
  0
SEQEND
  0
LINE
  8
Layer1
  6
CONTINUOUS
 62
7
 10
801.884
 20
608.947
 11
816.884
 21
608.947
  0
TEXT
  8
Layer1
 62
7
 10
816.884
 20
610.947
 72
2
 11
816.884
 21
610.947
 40
6
 41
1
  1
4-φ9
  0
POLYLINE
  8
Layer1
  6
CONTINUOUS
 62
7
 66
1
 10
0
 20
0
 30
0
  0
VERTEX
  8
Layer1
 10
672.374
 20
584.346
  0
VERTEX
  8
Layer1
 10
640.533
 20
611.061
  0
VERTEX
  8
Layer1
 10
640.533
 20
611.061
  0
SEQEND
  0
POLYLINE
  8
Layer1
  6
CONTINUOUS
 62
7
 66
1
 10
0
 20
0
 30
0
 70
1
  0
VERTEX
  8
Layer1
 10
670.08
 20
587.622
  0
VERTEX
  8
Layer1
 10
672.374
 20
584.346
  0
VERTEX
  8
Layer1
 10
668.749
 20
586.036
  0
SEQEND
  0
LINE
  8
Layer1
  6
CONTINUOUS
 62
7
 10
640.533
 20
611.061
 11
625.533
 21
611.061
  0
TEXT
  8
Layer1
 62
7
 10
625.533
 20
613.061
 40
6
 41
1
  1
4-φ9
  0
TEXT
  8
Layer1
 62
7
 10
611.304
 20
598.021
 40
6
 41
1
  1
ベース取付穴
  0
LINE
  8
Layer1
  6
CENTER1
 62
7
 10
688.032
 20
565.081
 11
688.032
 21
559.329
  0
LINE
  8
Layer1
  6
CENTER1
 62
7
 10
685.761
 20
562.164
 11
690.952
 21
562.164
  0
CIRCLE
  8
Layer1
  6
CONTINUOUS
 62
7
 10
688.032
 20
562.164
 40
1.25
  0
LINE
  8
Layer1
  6
CENTER1
 62
7
 10
659.29
 20
562.164
 11
677.655
 21
562.164
  0
LINE
  8
Layer1
  6
CENTER1
 62
7
 10
688.032
 20
483.081
 11
688.032
 21
477.329
  0
LINE
  8
Layer1
  6
CENTER1
 62
7
 10
685.761
 20
480.164
 11
690.952
 21
480.164
  0
CIRCLE
  8
Layer1
  6
CONTINUOUS
 62
7
 10
688.032
 20
480.164
 40
1.25
  0
ENDSEC
  0
EOF
