  0
SECTION
  2
HEADER
  9
$EXTMIN
 10
0
 20
0
  9
$EXTMAX
 10
1189
 20
841
  9
$LTSCALE
 40
1
  9
$LIMMIN
 10
0
 20
0
  9
$LIMMAX
 10
1189
 20
841
  9
$DIMSCALE
 40
1
  0
ENDSEC
  0
SECTION
  2
TABLES
  0
TABLE
  2
LTYPE
 70
9
  0
LTYPE
  2
CONTINUOUS
 70
64
  3
----------
 72
65
 73
0
 40
0
  0
LTYPE
  2
DASHED1
 70
64
  3
--  --  --  --  --  --  --  --  
 72
65
 73
2
 40
2.5
 49
1.25
 49
-1.25
  0
LTYPE
  2
DASHED2
 70
64
  3
----    ----    ----    ----    
 72
65
 73
2
 40
5
 49
2.5
 49
-2.5
  0
LTYPE
  2
DASHED3
 70
64
  3
------  ------  ------  ------  
 72
65
 73
2
 40
5
 49
3.75
 49
-1.25
  0
LTYPE
  2
CENTER1
 70
64
  3
----- - ----- - ----- - ----- - 
 72
65
 73
4
 40
7.5
 49
3.75
 49
-1.25
 49
1.25
 49
-1.25
  0
LTYPE
  2
CENTER2
 70
64
  3
----------  --  ----------  --  
 72
65
 73
4
 40
13.75
 49
6.25
 49
-2.5
 49
2.5
 49
-2.5
  0
LTYPE
  2
PHANTOM1
 70
64
  3
--- - - --- - - --- - - --- - - 
 72
65
 73
6
 40
9.5
 49
3.25
 49
-1.25
 49
1.25
 49
-1.25
 49
1.25
 49
-1.25
  0
LTYPE
  2
PHANTOM2
 70
64
  3
--------  -  -  --------  -  -  
 72
65
 73
6
 40
18
 49
8
 49
-2.5
 49
1.25
 49
-2.5
 49
1.25
 49
-2.5
  0
LTYPE
  2
DOT
 70
64
  3
-   -   -   -   -   -   -   -   
 72
65
 73
2
 40
2.5
 49
0.625
 49
-1.875
  0
LTYPE
  2
HOJO
 70
64
  3
-   -   -   -   -   -   -   -   
 72
65
 73
2
 40
2.5
 49
0.625
 49
-1.875
  0
ENDTAB
  0
TABLE
  2
STYLE
 70
2
  0
STYLE
  2
STANDARD
 70
64
 40
0
 41
1
 42
0
 50
0
 71
0
  3
TXT
  4
BIGFONT
  0
STYLE
  2
TATEGAKI
 70
68
 40
0
 41
1
 42
0
 50
0
 71
0
  3
TXT
  4
EXTFONT
  0
ENDTAB
  0
TABLE
  2
LAYER
 70
1
  0
LAYER
  2
Layer1
 70
64
 62
7
  6
CONTINUOUS
  0
ENDTAB
  0
ENDSEC
  0
SECTION
  2
ENTITIES
  0
LINE
  8
Layer1
  6
CONTINUOUS
 62
7
 10
669.386
 20
334.02
 11
662.901
 21
327.536
  0
LINE
  8
Layer1
  6
CENTER2
 62
7
 10
434.507
 20
335.794
 11
434.507
 21
253.469
  0
LINE
  8
Layer1
  6
CONTINUOUS
 62
7
 10
380.507
 20
273.536
 11
395.007
 21
273.536
  0
LINE
  8
Layer1
  6
CONTINUOUS
 62
7
 10
488.507
 20
273.536
 11
474.007
 21
273.536
  0
LINE
  8
Layer1
  6
CENTER2
 62
7
 10
601.516
 20
544.265
 11
776.814
 21
544.265
  0
LINE
  8
Layer1
  6
DASHED1
 62
7
 10
470.023
 20
338.536
 11
470.007
 21
338.52
  0
LINE
  8
Layer1
  6
CENTER2
 62
7
 10
434.507
 20
408.403
 11
434.507
 21
335.794
  0
LINE
  8
Layer1
  6
DASHED1
 62
7
 10
457.007
 20
307.536
 11
457.007
 21
338.536
  0
LINE
  8
Layer1
  6
CONTINUOUS
 62
7
 10
457.007
 20
336.536
 11
457.007
 21
376.536
  0
LINE
  8
Layer1
  6
DASHED1
 62
7
 10
412.007
 20
307.536
 11
412.007
 21
336.536
  0
LINE
  8
Layer1
  6
CONTINUOUS
 62
7
 10
412.007
 20
336.536
 11
412.007
 21
376.536
  0
LINE
  8
Layer1
  6
CONTINUOUS
 62
7
 10
674.886
 20
336.536
 11
674.886
 21
329.336
  0
LINE
  8
Layer1
  6
CONTINUOUS
 62
7
 10
669.886
 20
336.536
 11
669.886
 21
329.336
  0
LINE
  8
Layer1
  6
CONTINUOUS
 62
7
 10
675.386
 20
335.536
 11
675.386
 21
327.536
  0
LINE
  8
Layer1
  6
DASHED1
 62
7
 10
655.92
 20
317.036
 11
655.92
 21
311.036
  0
POLYLINE
  8
Layer1
  6
CONTINUOUS
 62
7
 66
1
 10
0
 20
0
 30
0
  0
VERTEX
  8
Layer1
 10
660.887
 20
336.536
  0
VERTEX
  8
Layer1
 10
661.012
 20
335.684
  0
VERTEX
  8
Layer1
 10
661.14
 20
334.834
  0
VERTEX
  8
Layer1
 10
661.274
 20
333.987
  0
VERTEX
  8
Layer1
 10
661.417
 20
333.145
  0
VERTEX
  8
Layer1
 10
661.572
 20
332.31
  0
VERTEX
  8
Layer1
 10
661.743
 20
331.484
  0
VERTEX
  8
Layer1
 10
661.933
 20
330.669
  0
VERTEX
  8
Layer1
 10
662.143
 20
329.865
  0
VERTEX
  8
Layer1
 10
662.379
 20
329.075
  0
VERTEX
  8
Layer1
 10
662.641
 20
328.301
  0
VERTEX
  8
Layer1
 10
662.935
 20
327.545
  0
VERTEX
  8
Layer1
 10
663.263
 20
326.807
  0
VERTEX
  8
Layer1
 10
663.627
 20
326.09
  0
VERTEX
  8
Layer1
 10
664.032
 20
325.396
  0
VERTEX
  8
Layer1
 10
664.478
 20
324.726
  0
VERTEX
  8
Layer1
 10
664.972
 20
324.082
  0
VERTEX
  8
Layer1
 10
665.514
 20
323.465
  0
VERTEX
  8
Layer1
 10
666.095
 20
322.871
  0
VERTEX
  8
Layer1
 10
666.697
 20
322.29
  0
VERTEX
  8
Layer1
 10
667.303
 20
321.714
  0
VERTEX
  8
Layer1
 10
667.894
 20
321.132
  0
VERTEX
  8
Layer1
 10
668.453
 20
320.536
  0
VERTEX
  8
Layer1
 10
668.962
 20
319.917
  0
VERTEX
  8
Layer1
 10
669.404
 20
319.265
  0
VERTEX
  8
Layer1
 10
669.763
 20
318.572
  0
VERTEX
  8
Layer1
 10
670.047
 20
317.843
  0
VERTEX
  8
Layer1
 10
670.264
 20
317.08
  0
VERTEX
  8
Layer1
 10
670.428
 20
316.29
  0
VERTEX
  8
Layer1
 10
670.548
 20
315.477
  0
VERTEX
  8
Layer1
 10
670.636
 20
314.648
  0
VERTEX
  8
Layer1
 10
670.702
 20
313.806
  0
VERTEX
  8
Layer1
 10
670.759
 20
312.957
  0
VERTEX
  8
Layer1
 10
670.816
 20
312.106
  0
VERTEX
  8
Layer1
 10
670.885
 20
311.258
  0
VERTEX
  8
Layer1
 10
670.976
 20
310.419
  0
VERTEX
  8
Layer1
 10
671.102
 20
309.592
  0
VERTEX
  8
Layer1
 10
671.264
 20
308.78
  0
VERTEX
  8
Layer1
 10
671.46
 20
307.982
  0
VERTEX
  8
Layer1
 10
671.688
 20
307.197
  0
VERTEX
  8
Layer1
 10
671.947
 20
306.424
  0
VERTEX
  8
Layer1
 10
672.234
 20
305.663
  0
VERTEX
  8
Layer1
 10
672.549
 20
304.913
  0
VERTEX
  8
Layer1
 10
672.889
 20
304.173
  0
VERTEX
  8
Layer1
 10
673.253
 20
303.443
  0
VERTEX
  8
Layer1
 10
673.638
 20
302.721
  0
VERTEX
  8
Layer1
 10
674.043
 20
302.008
  0
VERTEX
  8
Layer1
 10
674.466
 20
301.302
  0
VERTEX
  8
Layer1
 10
674.906
 20
300.603
  0
VERTEX
  8
Layer1
 10
675.36
 20
299.91
  0
VERTEX
  8
Layer1
 10
675.827
 20
299.222
  0
VERTEX
  8
Layer1
 10
676.304
 20
298.539
  0
VERTEX
  8
Layer1
 10
676.792
 20
297.86
  0
VERTEX
  8
Layer1
 10
677.286
 20
297.184
  0
VERTEX
  8
Layer1
 10
677.786
 20
296.511
  0
VERTEX
  8
Layer1
 10
678.291
 20
295.84
  0
VERTEX
  8
Layer1
 10
678.796
 20
295.17
  0
VERTEX
  8
Layer1
 10
679.303
 20
294.5
  0
VERTEX
  8
Layer1
 10
679.808
 20
293.83
  0
VERTEX
  8
Layer1
 10
680.31
 20
293.16
  0
VERTEX
  8
Layer1
 10
680.805
 20
292.487
  0
VERTEX
  8
Layer1
 10
681.293
 20
291.811
  0
VERTEX
  8
Layer1
 10
681.766
 20
291.13
  0
VERTEX
  8
Layer1
 10
682.225
 20
290.442
  0
VERTEX
  8
Layer1
 10
682.662
 20
289.746
  0
VERTEX
  8
Layer1
 10
683.078
 20
289.04
  0
VERTEX
  8
Layer1
 10
683.466
 20
288.322
  0
VERTEX
  8
Layer1
 10
683.823
 20
287.592
  0
VERTEX
  8
Layer1
 10
684.148
 20
286.847
  0
VERTEX
  8
Layer1
 10
684.433
 20
286.085
  0
VERTEX
  8
Layer1
 10
684.678
 20
285.305
  0
VERTEX
  8
Layer1
 10
684.88
 20
284.507
  0
VERTEX
  8
Layer1
 10
685.043
 20
283.693
  0
VERTEX
  8
Layer1
 10
685.173
 20
282.863
  0
VERTEX
  8
Layer1
 10
685.269
 20
282.021
  0
VERTEX
  8
Layer1
 10
685.337
 20
281.167
  0
VERTEX
  8
Layer1
 10
685.38
 20
280.304
  0
VERTEX
  8
Layer1
 10
685.404
 20
279.433
  0
VERTEX
  8
Layer1
 10
685.409
 20
278.557
  0
VERTEX
  8
Layer1
 10
685.401
 20
277.678
  0
VERTEX
  8
Layer1
 10
685.383
 20
276.796
  0
VERTEX
  8
Layer1
 10
685.359
 20
275.914
  0
VERTEX
  8
Layer1
 10
685.332
 20
275.035
  0
VERTEX
  8
Layer1
 10
685.306
 20
274.159
  0
VERTEX
  8
Layer1
 10
685.284
 20
273.288
  0
VERTEX
  8
Layer1
 10
685.272
 20
272.425
  0
VERTEX
  8
Layer1
 10
685.271
 20
271.571
  0
VERTEX
  8
Layer1
 10
685.284
 20
270.729
  0
VERTEX
  8
Layer1
 10
685.318
 20
269.899
  0
VERTEX
  8
Layer1
 10
685.373
 20
269.084
  0
VERTEX
  8
Layer1
 10
685.457
 20
268.286
  0
VERTEX
  8
Layer1
 10
685.569
 20
267.507
  0
VERTEX
  8
Layer1
 10
685.715
 20
266.748
  0
VERTEX
  8
Layer1
 10
685.898
 20
266.011
  0
VERTEX
  8
Layer1
 10
686.122
 20
265.298
  0
VERTEX
  8
Layer1
 10
686.39
 20
264.612
  0
VERTEX
  8
Layer1
 10
686.707
 20
263.953
  0
VERTEX
  8
Layer1
 10
687.077
 20
263.324
  0
VERTEX
  8
Layer1
 10
687.501
 20
262.726
  0
VERTEX
  8
Layer1
 10
687.976
 20
262.158
  0
VERTEX
  8
Layer1
 10
688.503
 20
261.618
  0
VERTEX
  8
Layer1
 10
689.073
 20
261.104
  0
VERTEX
  8
Layer1
 10
689.686
 20
260.614
  0
VERTEX
  8
Layer1
 10
690.337
 20
260.145
  0
VERTEX
  8
Layer1
 10
691.021
 20
259.695
  0
VERTEX
  8
Layer1
 10
691.736
 20
259.263
  0
VERTEX
  8
Layer1
 10
692.476
 20
258.845
  0
VERTEX
  8
Layer1
 10
693.24
 20
258.441
  0
VERTEX
  8
Layer1
 10
694.023
 20
258.047
  0
VERTEX
  8
Layer1
 10
694.821
 20
257.662
  0
VERTEX
  8
Layer1
 10
695.63
 20
257.283
  0
VERTEX
  8
Layer1
 10
696.446
 20
256.909
  0
VERTEX
  8
Layer1
 10
697.266
 20
256.536
  0
SEQEND
  0
LINE
  8
Layer1
  6
CONTINUOUS
 62
7
 10
752.343
 20
390.536
 11
752.343
 21
257.613
  0
LINE
  8
Layer1
  6
CONTINUOUS
 62
7
 10
751.418
 20
395.536
 11
752.418
 21
394.536
  0
LINE
  8
Layer1
  6
CONTINUOUS
 62
7
 10
752.418
 20
380.536
 11
752.418
 21
394.536
  0
LINE
  8
Layer1
  6
CONTINUOUS
 62
7
 10
751.418
 20
379.536
 11
752.418
 21
380.536
  0
LINE
  8
Layer1
  6
CONTINUOUS
 62
7
 10
616.343
 20
310.036
 11
616.343
 21
318.036
  0
LINE
  8
Layer1
  6
CONTINUOUS
 62
7
 10
617.343
 20
319.036
 11
622.343
 21
319.036
  0
LINE
  8
Layer1
  6
CONTINUOUS
 62
7
 10
617.343
 20
309.036
 11
622.343
 21
309.036
  0
LINE
  8
Layer1
  6
CONTINUOUS
 62
7
 10
622.343
 20
319.536
 11
622.343
 21
308.536
  0
LINE
  8
Layer1
  6
CONTINUOUS
 62
7
 10
616.343
 20
310.036
 11
617.343
 21
309.036
  0
LINE
  8
Layer1
  6
CONTINUOUS
 62
7
 10
622.343
 20
319.536
 11
615.343
 21
319.536
  0
LINE
  8
Layer1
  6
CONTINUOUS
 62
7
 10
622.343
 20
308.536
 11
615.343
 21
308.536
  0
LINE
  8
Layer1
  6
CONTINUOUS
 62
7
 10
617.343
 20
319.036
 11
617.343
 21
309.036
  0
LINE
  8
Layer1
  6
CONTINUOUS
 62
7
 10
617.343
 20
319.036
 11
622.343
 21
319.036
  0
LINE
  8
Layer1
  6
CONTINUOUS
 62
7
 10
616.343
 20
318.036
 11
617.343
 21
319.036
  0
LINE
  8
Layer1
  6
CONTINUOUS
 62
7
 10
622.343
 20
319.036
 11
617.343
 21
319.036
  0
LINE
  8
Layer1
  6
CONTINUOUS
 62
7
 10
622.093
 20
318.536
 11
617.593
 21
318.536
  0
LINE
  8
Layer1
  6
CONTINUOUS
 62
7
 10
621.593
 20
317.536
 11
618.093
 21
317.536
  0
LINE
  8
Layer1
  6
CONTINUOUS
 62
7
 10
621.093
 20
316.536
 11
618.593
 21
316.536
  0
LINE
  8
Layer1
  6
CONTINUOUS
 62
7
 10
767.343
 20
567.265
 11
774.843
 21
567.265
  0
LINE
  8
Layer1
  6
CONTINUOUS
 62
7
 10
767.343
 20
580.265
 11
774.843
 21
580.265
  0
LINE
  8
Layer1
  6
CONTINUOUS
 62
7
 10
774.843
 20
567.265
 11
774.843
 21
580.265
  0
LINE
  8
Layer1
  6
CONTINUOUS
 62
7
 10
775.343
 20
567.765
 11
775.343
 21
579.765
  0
LINE
  8
Layer1
  6
CONTINUOUS
 62
7
 10
774.843
 20
567.265
 11
775.343
 21
567.765
  0
LINE
  8
Layer1
  6
CONTINUOUS
 62
7
 10
774.843
 20
580.265
 11
775.343
 21
579.765
  0
LINE
  8
Layer1
  6
CONTINUOUS
 62
7
 10
767.343
 20
580.265
 11
767.343
 21
567.265
  0
LINE
  8
Layer1
  6
CONTINUOUS
 62
7
 10
767.92
 20
579.265
 11
774.266
 21
579.265
  0
LINE
  8
Layer1
  6
CONTINUOUS
 62
7
 10
768.497
 20
578.265
 11
773.689
 21
578.265
  0
LINE
  8
Layer1
  6
CONTINUOUS
 62
7
 10
769.074
 20
577.265
 11
773.112
 21
577.265
  0
LINE
  8
Layer1
  6
CONTINUOUS
 62
7
 10
769.651
 20
576.265
 11
772.535
 21
576.265
  0
LINE
  8
Layer1
  6
CONTINUOUS
 62
7
 10
767.343
 20
508.265
 11
774.823
 21
508.265
  0
LINE
  8
Layer1
  6
CONTINUOUS
 62
7
 10
767.343
 20
521.265
 11
774.843
 21
521.265
  0
LINE
  8
Layer1
  6
CONTINUOUS
 62
7
 10
774.843
 20
508.265
 11
774.843
 21
521.265
  0
LINE
  8
Layer1
  6
CONTINUOUS
 62
7
 10
775.343
 20
508.765
 11
775.343
 21
520.765
  0
LINE
  8
Layer1
  6
CONTINUOUS
 62
7
 10
774.843
 20
508.265
 11
775.343
 21
508.765
  0
LINE
  8
Layer1
  6
CONTINUOUS
 62
7
 10
774.843
 20
521.265
 11
775.343
 21
520.765
  0
LINE
  8
Layer1
  6
CONTINUOUS
 62
7
 10
767.343
 20
521.265
 11
767.343
 21
508.265
  0
LINE
  8
Layer1
  6
CONTINUOUS
 62
7
 10
767.92
 20
520.265
 11
774.266
 21
520.265
  0
LINE
  8
Layer1
  6
CONTINUOUS
 62
7
 10
768.497
 20
519.265
 11
773.689
 21
519.265
  0
LINE
  8
Layer1
  6
CONTINUOUS
 62
7
 10
769.074
 20
518.265
 11
773.112
 21
518.265
  0
LINE
  8
Layer1
  6
CONTINUOUS
 62
7
 10
769.554
 20
517.265
 11
772.438
 21
517.265
  0
CIRCLE
  8
Layer1
  6
CONTINUOUS
 62
7
 10
672.343
 20
544.265
 40
3.76681
  0
LINE
  8
Layer1
  6
CONTINUOUS
 62
7
 10
430.755
 20
343.086
 11
438.6
 21
343.086
  0
LINE
  8
Layer1
  6
CONTINUOUS
 62
7
 10
430.427
 20
342.482
 11
438.901
 21
342.482
  0
LINE
  8
Layer1
  6
CONTINUOUS
 62
7
 10
430.332
 20
339.103
 11
438.781
 21
339.103
  0
LINE
  8
Layer1
  6
CONTINUOUS
 62
7
 10
439.505
 20
338.379
 11
429.608
 21
338.379
  0
LINE
  8
Layer1
  6
CONTINUOUS
 62
7
 10
439.505
 20
338.379
 11
439.505
 21
336.508
  0
LINE
  8
Layer1
  6
CONTINUOUS
 62
7
 10
429.608
 20
338.379
 11
429.608
 21
336.508
  0
POLYLINE
  8
Layer1
  6
CONTINUOUS
 62
7
 66
1
 10
0
 20
0
 30
0
  0
VERTEX
  8
Layer1
 10
434.55
 20
340.299
  0
VERTEX
  8
Layer1
 10
434.484
 20
340.356
  0
VERTEX
  8
Layer1
 10
434.418
 20
340.411
  0
VERTEX
  8
Layer1
 10
434.349
 20
340.465
  0
VERTEX
  8
Layer1
 10
434.28
 20
340.517
  0
VERTEX
  8
Layer1
 10
434.209
 20
340.567
  0
VERTEX
  8
Layer1
 10
434.137
 20
340.615
  0
VERTEX
  8
Layer1
 10
434.064
 20
340.661
  0
VERTEX
  8
Layer1
 10
433.989
 20
340.705
  0
VERTEX
  8
Layer1
 10
433.913
 20
340.748
  0
VERTEX
  8
Layer1
 10
433.837
 20
340.788
  0
VERTEX
  8
Layer1
 10
433.759
 20
340.827
  0
VERTEX
  8
Layer1
 10
433.68
 20
340.863
  0
VERTEX
  8
Layer1
 10
433.601
 20
340.897
  0
VERTEX
  8
Layer1
 10
433.52
 20
340.93
  0
VERTEX
  8
Layer1
 10
433.439
 20
340.96
  0
VERTEX
  8
Layer1
 10
433.357
 20
340.988
  0
VERTEX
  8
Layer1
 10
433.274
 20
341.014
  0
VERTEX
  8
Layer1
 10
433.191
 20
341.038
  0
VERTEX
  8
Layer1
 10
433.107
 20
341.059
  0
VERTEX
  8
Layer1
 10
433.022
 20
341.079
  0
VERTEX
  8
Layer1
 10
432.937
 20
341.096
  0
VERTEX
  8
Layer1
 10
432.852
 20
341.111
  0
VERTEX
  8
Layer1
 10
432.766
 20
341.124
  0
VERTEX
  8
Layer1
 10
432.68
 20
341.134
  0
VERTEX
  8
Layer1
 10
432.594
 20
341.143
  0
VERTEX
  8
Layer1
 10
432.507
 20
341.149
  0
VERTEX
  8
Layer1
 10
432.421
 20
341.153
  0
VERTEX
  8
Layer1
 10
432.334
 20
341.155
  0
VERTEX
  8
Layer1
 10
432.247
 20
341.154
  0
VERTEX
  8
Layer1
 10
432.16
 20
341.151
  0
VERTEX
  8
Layer1
 10
432.074
 20
341.146
  0
VERTEX
  8
Layer1
 10
431.987
 20
341.139
  0
VERTEX
  8
Layer1
 10
431.901
 20
341.129
  0
VERTEX
  8
Layer1
 10
431.815
 20
341.118
  0
VERTEX
  8
Layer1
 10
431.73
 20
341.104
  0
VERTEX
  8
Layer1
 10
431.645
 20
341.087
  0
VERTEX
  8
Layer1
 10
431.56
 20
341.069
  0
VERTEX
  8
Layer1
 10
431.476
 20
341.048
  0
VERTEX
  8
Layer1
 10
431.392
 20
341.026
  0
VERTEX
  8
Layer1
 10
431.309
 20
341.001
  0
VERTEX
  8
Layer1
 10
431.226
 20
340.974
  0
VERTEX
  8
Layer1
 10
431.145
 20
340.945
  0
VERTEX
  8
Layer1
 10
431.064
 20
340.913
  0
VERTEX
  8
Layer1
 10
430.984
 20
340.88
  0
VERTEX
  8
Layer1
 10
430.905
 20
340.845
  0
VERTEX
  8
Layer1
 10
430.827
 20
340.807
  0
VERTEX
  8
Layer1
 10
430.749
 20
340.768
  0
VERTEX
  8
Layer1
 10
430.673
 20
340.726
  0
SEQEND
  0
POLYLINE
  8
Layer1
  6
CONTINUOUS
 62
7
 66
1
 10
0
 20
0
 30
0
  0
VERTEX
  8
Layer1
 10
438.902
 20
340.672
  0
VERTEX
  8
Layer1
 10
438.815
 20
340.707
  0
VERTEX
  8
Layer1
 10
438.726
 20
340.741
  0
VERTEX
  8
Layer1
 10
438.638
 20
340.773
  0
VERTEX
  8
Layer1
 10
438.548
 20
340.803
  0
VERTEX
  8
Layer1
 10
438.458
 20
340.832
  0
VERTEX
  8
Layer1
 10
438.368
 20
340.858
  0
VERTEX
  8
Layer1
 10
438.276
 20
340.883
  0
VERTEX
  8
Layer1
 10
438.185
 20
340.906
  0
VERTEX
  8
Layer1
 10
438.093
 20
340.927
  0
VERTEX
  8
Layer1
 10
438
 20
340.947
  0
VERTEX
  8
Layer1
 10
437.908
 20
340.964
  0
VERTEX
  8
Layer1
 10
437.814
 20
340.98
  0
VERTEX
  8
Layer1
 10
437.721
 20
340.994
  0
VERTEX
  8
Layer1
 10
437.627
 20
341.005
  0
VERTEX
  8
Layer1
 10
437.533
 20
341.015
  0
VERTEX
  8
Layer1
 10
437.439
 20
341.024
  0
VERTEX
  8
Layer1
 10
437.345
 20
341.03
  0
VERTEX
  8
Layer1
 10
437.251
 20
341.034
  0
VERTEX
  8
Layer1
 10
437.156
 20
341.037
  0
VERTEX
  8
Layer1
 10
437.062
 20
341.037
  0
VERTEX
  8
Layer1
 10
436.968
 20
341.036
  0
VERTEX
  8
Layer1
 10
436.873
 20
341.033
  0
VERTEX
  8
Layer1
 10
436.779
 20
341.028
  0
VERTEX
  8
Layer1
 10
436.685
 20
341.021
  0
VERTEX
  8
Layer1
 10
436.591
 20
341.012
  0
VERTEX
  8
Layer1
 10
436.497
 20
341.001
  0
VERTEX
  8
Layer1
 10
436.403
 20
340.989
  0
VERTEX
  8
Layer1
 10
436.31
 20
340.974
  0
VERTEX
  8
Layer1
 10
436.217
 20
340.958
  0
VERTEX
  8
Layer1
 10
436.124
 20
340.94
  0
VERTEX
  8
Layer1
 10
436.031
 20
340.919
  0
VERTEX
  8
Layer1
 10
435.94
 20
340.898
  0
VERTEX
  8
Layer1
 10
435.849
 20
340.874
  0
VERTEX
  8
Layer1
 10
435.758
 20
340.848
  0
VERTEX
  8
Layer1
 10
435.667
 20
340.821
  0
VERTEX
  8
Layer1
 10
435.578
 20
340.792
  0
VERTEX
  8
Layer1
 10
435.488
 20
340.761
  0
VERTEX
  8
Layer1
 10
435.4
 20
340.728
  0
VERTEX
  8
Layer1
 10
435.312
 20
340.694
  0
VERTEX
  8
Layer1
 10
435.225
 20
340.658
  0
VERTEX
  8
Layer1
 10
435.138
 20
340.62
  0
VERTEX
  8
Layer1
 10
435.052
 20
340.58
  0
VERTEX
  8
Layer1
 10
434.968
 20
340.539
  0
VERTEX
  8
Layer1
 10
434.884
 20
340.495
  0
VERTEX
  8
Layer1
 10
434.8
 20
340.451
  0
VERTEX
  8
Layer1
 10
434.718
 20
340.404
  0
VERTEX
  8
Layer1
 10
434.637
 20
340.356
  0
VERTEX
  8
Layer1
 10
434.557
 20
340.307
  0
SEQEND
  0
LINE
  8
Layer1
  6
CONTINUOUS
 62
7
 10
431.019
 20
340.895
 11
430.685
 21
340.705
  0
LINE
  8
Layer1
  6
CONTINUOUS
 62
7
 10
430.755
 20
343.086
 11
429.895
 21
341.502
  0
LINE
  8
Layer1
  6
CONTINUOUS
 62
7
 10
438.6
 20
343.086
 11
439.487
 21
341.27
  0
LINE
  8
Layer1
  6
CONTINUOUS
 62
7
 10
438.418
 20
340.816
 11
438.902
 21
340.672
  0
POLYLINE
  8
Layer1
  6
CONTINUOUS
 62
7
 66
1
 10
0
 20
0
 30
0
  0
VERTEX
  8
Layer1
 10
429.895
 20
341.502
  0
VERTEX
  8
Layer1
 10
429.88
 20
341.474
  0
VERTEX
  8
Layer1
 10
429.867
 20
341.446
  0
VERTEX
  8
Layer1
 10
429.855
 20
341.416
  0
VERTEX
  8
Layer1
 10
429.844
 20
341.387
  0
VERTEX
  8
Layer1
 10
429.835
 20
341.356
  0
VERTEX
  8
Layer1
 10
429.828
 20
341.325
  0
VERTEX
  8
Layer1
 10
429.823
 20
341.294
  0
VERTEX
  8
Layer1
 10
429.819
 20
341.263
  0
VERTEX
  8
Layer1
 10
429.817
 20
341.231
  0
VERTEX
  8
Layer1
 10
429.817
 20
341.2
  0
VERTEX
  8
Layer1
 10
429.818
 20
341.168
  0
VERTEX
  8
Layer1
 10
429.822
 20
341.136
  0
VERTEX
  8
Layer1
 10
429.826
 20
341.105
  0
VERTEX
  8
Layer1
 10
429.833
 20
341.074
  0
VERTEX
  8
Layer1
 10
429.841
 20
341.044
  0
VERTEX
  8
Layer1
 10
429.851
 20
341.014
  0
VERTEX
  8
Layer1
 10
429.863
 20
340.984
  0
VERTEX
  8
Layer1
 10
429.876
 20
340.955
  0
VERTEX
  8
Layer1
 10
429.89
 20
340.927
  0
VERTEX
  8
Layer1
 10
429.906
 20
340.9
  0
VERTEX
  8
Layer1
 10
429.924
 20
340.874
  0
VERTEX
  8
Layer1
 10
429.943
 20
340.849
  0
VERTEX
  8
Layer1
 10
429.964
 20
340.824
  0
VERTEX
  8
Layer1
 10
429.985
 20
340.801
  0
VERTEX
  8
Layer1
 10
430.008
 20
340.779
  0
VERTEX
  8
Layer1
 10
430.031
 20
340.759
  0
VERTEX
  8
Layer1
 10
430.057
 20
340.74
  0
VERTEX
  8
Layer1
 10
430.083
 20
340.722
  0
VERTEX
  8
Layer1
 10
430.11
 20
340.705
  0
VERTEX
  8
Layer1
 10
430.138
 20
340.691
  0
VERTEX
  8
Layer1
 10
430.167
 20
340.677
  0
VERTEX
  8
Layer1
 10
430.196
 20
340.665
  0
VERTEX
  8
Layer1
 10
430.226
 20
340.655
  0
VERTEX
  8
Layer1
 10
430.257
 20
340.647
  0
VERTEX
  8
Layer1
 10
430.288
 20
340.64
  0
VERTEX
  8
Layer1
 10
430.319
 20
340.635
  0
VERTEX
  8
Layer1
 10
430.35
 20
340.631
  0
VERTEX
  8
Layer1
 10
430.382
 20
340.629
  0
VERTEX
  8
Layer1
 10
430.413
 20
340.629
  0
VERTEX
  8
Layer1
 10
430.445
 20
340.631
  0
VERTEX
  8
Layer1
 10
430.476
 20
340.635
  0
VERTEX
  8
Layer1
 10
430.508
 20
340.64
  0
VERTEX
  8
Layer1
 10
430.539
 20
340.647
  0
VERTEX
  8
Layer1
 10
430.569
 20
340.655
  0
VERTEX
  8
Layer1
 10
430.599
 20
340.665
  0
VERTEX
  8
Layer1
 10
430.628
 20
340.677
  0
VERTEX
  8
Layer1
 10
430.656
 20
340.69
  0
VERTEX
  8
Layer1
 10
430.685
 20
340.705
  0
SEQEND
  0
POLYLINE
  8
Layer1
  6
CONTINUOUS
 62
7
 66
1
 10
0
 20
0
 30
0
  0
VERTEX
  8
Layer1
 10
438.902
 20
340.672
  0
VERTEX
  8
Layer1
 10
438.923
 20
340.666
  0
VERTEX
  8
Layer1
 10
438.944
 20
340.661
  0
VERTEX
  8
Layer1
 10
438.965
 20
340.658
  0
VERTEX
  8
Layer1
 10
438.986
 20
340.655
  0
VERTEX
  8
Layer1
 10
439.007
 20
340.653
  0
VERTEX
  8
Layer1
 10
439.029
 20
340.652
  0
VERTEX
  8
Layer1
 10
439.05
 20
340.652
  0
VERTEX
  8
Layer1
 10
439.071
 20
340.653
  0
VERTEX
  8
Layer1
 10
439.093
 20
340.655
  0
VERTEX
  8
Layer1
 10
439.114
 20
340.658
  0
VERTEX
  8
Layer1
 10
439.135
 20
340.662
  0
VERTEX
  8
Layer1
 10
439.156
 20
340.667
  0
VERTEX
  8
Layer1
 10
439.176
 20
340.673
  0
VERTEX
  8
Layer1
 10
439.197
 20
340.68
  0
VERTEX
  8
Layer1
 10
439.217
 20
340.687
  0
VERTEX
  8
Layer1
 10
439.236
 20
340.696
  0
VERTEX
  8
Layer1
 10
439.255
 20
340.705
  0
VERTEX
  8
Layer1
 10
439.274
 20
340.716
  0
VERTEX
  8
Layer1
 10
439.292
 20
340.727
  0
VERTEX
  8
Layer1
 10
439.31
 20
340.739
  0
VERTEX
  8
Layer1
 10
439.327
 20
340.752
  0
VERTEX
  8
Layer1
 10
439.344
 20
340.765
  0
VERTEX
  8
Layer1
 10
439.36
 20
340.779
  0
VERTEX
  8
Layer1
 10
439.375
 20
340.794
  0
VERTEX
  8
Layer1
 10
439.39
 20
340.81
  0
VERTEX
  8
Layer1
 10
439.404
 20
340.826
  0
VERTEX
  8
Layer1
 10
439.417
 20
340.843
  0
VERTEX
  8
Layer1
 10
439.429
 20
340.861
  0
VERTEX
  8
Layer1
 10
439.441
 20
340.879
  0
VERTEX
  8
Layer1
 10
439.452
 20
340.897
  0
VERTEX
  8
Layer1
 10
439.461
 20
340.916
  0
VERTEX
  8
Layer1
 10
439.47
 20
340.936
  0
VERTEX
  8
Layer1
 10
439.479
 20
340.955
  0
VERTEX
  8
Layer1
 10
439.486
 20
340.976
  0
VERTEX
  8
Layer1
 10
439.492
 20
340.996
  0
VERTEX
  8
Layer1
 10
439.497
 20
341.017
  0
VERTEX
  8
Layer1
 10
439.502
 20
341.038
  0
VERTEX
  8
Layer1
 10
439.505
 20
341.059
  0
VERTEX
  8
Layer1
 10
439.508
 20
341.08
  0
VERTEX
  8
Layer1
 10
439.509
 20
341.101
  0
VERTEX
  8
Layer1
 10
439.51
 20
341.123
  0
VERTEX
  8
Layer1
 10
439.51
 20
341.144
  0
VERTEX
  8
Layer1
 10
439.508
 20
341.166
  0
VERTEX
  8
Layer1
 10
439.506
 20
341.187
  0
VERTEX
  8
Layer1
 10
439.503
 20
341.208
  0
VERTEX
  8
Layer1
 10
439.498
 20
341.229
  0
VERTEX
  8
Layer1
 10
439.493
 20
341.25
  0
VERTEX
  8
Layer1
 10
439.487
 20
341.27
  0
SEQEND
  0
LINE
  8
Layer1
  6
CONTINUOUS
 62
7
 10
437.624
 20
341.006
 11
437.624
 21
339.103
  0
LINE
  8
Layer1
  6
CONTINUOUS
 62
7
 10
431.479
 20
341.049
 11
431.479
 21
339.103
  0
LINE
  8
Layer1
  6
CONTINUOUS
 62
7
 10
430.332
 20
339.103
 11
429.608
 21
338.379
  0
LINE
  8
Layer1
  6
CONTINUOUS
 62
7
 10
438.781
 20
339.103
 11
439.505
 21
338.379
  0
LINE
  8
Layer1
  6
CENTER1
 62
7
 10
406.007
 20
316.894
 11
406.007
 21
340.598
  0
LINE
  8
Layer1
  6
CONTINUOUS
 62
7
 10
667.891
 20
345.749
 11
676.794
 21
345.749
  0
LINE
  8
Layer1
  6
CONTINUOUS
 62
7
 10
667.891
 20
343.434
 11
675.727
 21
343.434
  0
LINE
  8
Layer1
  6
CONTINUOUS
 62
7
 10
676.794
 20
345.749
 11
678.218
 21
344.087
  0
LINE
  8
Layer1
  6
CONTINUOUS
 62
7
 10
678.218
 20
343.434
 11
678.218
 21
344.087
  0
POLYLINE
  8
Layer1
  6
CONTINUOUS
 62
7
 66
1
 10
0
 20
0
 30
0
  0
VERTEX
  8
Layer1
 10
675.727
 20
343.434
  0
VERTEX
  8
Layer1
 10
675.727
 20
343.352
  0
VERTEX
  8
Layer1
 10
675.736
 20
343.271
  0
VERTEX
  8
Layer1
 10
675.747
 20
343.189
  0
VERTEX
  8
Layer1
 10
675.766
 20
343.109
  0
VERTEX
  8
Layer1
 10
675.791
 20
343.031
  0
VERTEX
  8
Layer1
 10
675.819
 20
342.954
  0
VERTEX
  8
Layer1
 10
675.851
 20
342.878
  0
VERTEX
  8
Layer1
 10
675.89
 20
342.806
  0
VERTEX
  8
Layer1
 10
675.933
 20
342.736
  0
VERTEX
  8
Layer1
 10
675.981
 20
342.669
  0
VERTEX
  8
Layer1
 10
676.031
 20
342.605
  0
VERTEX
  8
Layer1
 10
676.088
 20
342.545
  0
VERTEX
  8
Layer1
 10
676.147
 20
342.488
  0
VERTEX
  8
Layer1
 10
676.209
 20
342.436
  0
VERTEX
  8
Layer1
 10
676.276
 20
342.388
  0
VERTEX
  8
Layer1
 10
676.347
 20
342.344
  0
VERTEX
  8
Layer1
 10
676.418
 20
342.305
  0
VERTEX
  8
Layer1
 10
676.493
 20
342.271
  0
VERTEX
  8
Layer1
 10
676.57
 20
342.242
  0
VERTEX
  8
Layer1
 10
676.648
 20
342.218
  0
VERTEX
  8
Layer1
 10
676.727
 20
342.2
  0
VERTEX
  8
Layer1
 10
676.81
 20
342.186
  0
VERTEX
  8
Layer1
 10
676.891
 20
342.178
  0
VERTEX
  8
Layer1
 10
676.973
 20
342.175
  0
VERTEX
  8
Layer1
 10
677.054
 20
342.178
  0
VERTEX
  8
Layer1
 10
677.137
 20
342.186
  0
VERTEX
  8
Layer1
 10
677.218
 20
342.2
  0
VERTEX
  8
Layer1
 10
677.299
 20
342.218
  0
VERTEX
  8
Layer1
 10
677.377
 20
342.242
  0
VERTEX
  8
Layer1
 10
677.454
 20
342.271
  0
VERTEX
  8
Layer1
 10
677.529
 20
342.305
  0
VERTEX
  8
Layer1
 10
677.6
 20
342.344
  0
VERTEX
  8
Layer1
 10
677.669
 20
342.388
  0
VERTEX
  8
Layer1
 10
677.736
 20
342.436
  0
VERTEX
  8
Layer1
 10
677.8
 20
342.488
  0
VERTEX
  8
Layer1
 10
677.859
 20
342.545
  0
VERTEX
  8
Layer1
 10
677.916
 20
342.605
  0
VERTEX
  8
Layer1
 10
677.967
 20
342.669
  0
VERTEX
  8
Layer1
 10
678.015
 20
342.736
  0
VERTEX
  8
Layer1
 10
678.058
 20
342.806
  0
VERTEX
  8
Layer1
 10
678.094
 20
342.878
  0
VERTEX
  8
Layer1
 10
678.128
 20
342.954
  0
VERTEX
  8
Layer1
 10
678.157
 20
343.031
  0
VERTEX
  8
Layer1
 10
678.179
 20
343.109
  0
VERTEX
  8
Layer1
 10
678.198
 20
343.189
  0
VERTEX
  8
Layer1
 10
678.209
 20
343.271
  0
VERTEX
  8
Layer1
 10
678.218
 20
343.352
  0
VERTEX
  8
Layer1
 10
678.218
 20
343.434
  0
SEQEND
  0
LINE
  8
Layer1
  6
CONTINUOUS
 62
7
 10
667.891
 20
345.749
 11
665.48
 21
343.221
  0
LINE
  8
Layer1
  6
CONTINUOUS
 62
7
 10
667.891
 20
343.434
 11
666.468
 21
342.188
  0
POLYLINE
  8
Layer1
  6
CONTINUOUS
 62
7
 66
1
 10
0
 20
0
 30
0
  0
VERTEX
  8
Layer1
 10
665.48
 20
343.221
  0
VERTEX
  8
Layer1
 10
665.448
 20
343.187
  0
VERTEX
  8
Layer1
 10
665.419
 20
343.151
  0
VERTEX
  8
Layer1
 10
665.394
 20
343.114
  0
VERTEX
  8
Layer1
 10
665.371
 20
343.075
  0
VERTEX
  8
Layer1
 10
665.351
 20
343.034
  0
VERTEX
  8
Layer1
 10
665.332
 20
342.993
  0
VERTEX
  8
Layer1
 10
665.317
 20
342.95
  0
VERTEX
  8
Layer1
 10
665.304
 20
342.906
  0
VERTEX
  8
Layer1
 10
665.294
 20
342.862
  0
VERTEX
  8
Layer1
 10
665.285
 20
342.817
  0
VERTEX
  8
Layer1
 10
665.283
 20
342.772
  0
VERTEX
  8
Layer1
 10
665.281
 20
342.726
  0
VERTEX
  8
Layer1
 10
665.283
 20
342.681
  0
VERTEX
  8
Layer1
 10
665.288
 20
342.635
  0
VERTEX
  8
Layer1
 10
665.294
 20
342.59
  0
VERTEX
  8
Layer1
 10
665.304
 20
342.546
  0
VERTEX
  8
Layer1
 10
665.317
 20
342.502
  0
VERTEX
  8
Layer1
 10
665.332
 20
342.46
  0
VERTEX
  8
Layer1
 10
665.351
 20
342.418
  0
VERTEX
  8
Layer1
 10
665.371
 20
342.378
  0
VERTEX
  8
Layer1
 10
665.396
 20
342.339
  0
VERTEX
  8
Layer1
 10
665.422
 20
342.301
  0
VERTEX
  8
Layer1
 10
665.448
 20
342.265
  0
VERTEX
  8
Layer1
 10
665.481
 20
342.232
  0
VERTEX
  8
Layer1
 10
665.512
 20
342.2
  0
VERTEX
  8
Layer1
 10
665.548
 20
342.17
  0
VERTEX
  8
Layer1
 10
665.583
 20
342.143
  0
VERTEX
  8
Layer1
 10
665.621
 20
342.118
  0
VERTEX
  8
Layer1
 10
665.66
 20
342.095
  0
VERTEX
  8
Layer1
 10
665.702
 20
342.075
  0
VERTEX
  8
Layer1
 10
665.743
 20
342.057
  0
VERTEX
  8
Layer1
 10
665.785
 20
342.043
  0
VERTEX
  8
Layer1
 10
665.831
 20
342.031
  0
VERTEX
  8
Layer1
 10
665.875
 20
342.021
  0
VERTEX
  8
Layer1
 10
665.919
 20
342.015
  0
VERTEX
  8
Layer1
 10
665.966
 20
342.012
  0
VERTEX
  8
Layer1
 10
666.011
 20
342.011
  0
VERTEX
  8
Layer1
 10
666.057
 20
342.013
  0
VERTEX
  8
Layer1
 10
666.101
 20
342.019
  0
VERTEX
  8
Layer1
 10
666.146
 20
342.027
  0
VERTEX
  8
Layer1
 10
666.189
 20
342.038
  0
VERTEX
  8
Layer1
 10
666.233
 20
342.051
  0
VERTEX
  8
Layer1
 10
666.275
 20
342.068
  0
VERTEX
  8
Layer1
 10
666.317
 20
342.087
  0
VERTEX
  8
Layer1
 10
666.358
 20
342.108
  0
VERTEX
  8
Layer1
 10
666.396
 20
342.133
  0
VERTEX
  8
Layer1
 10
666.434
 20
342.159
  0
VERTEX
  8
Layer1
 10
666.468
 20
342.188
  0
SEQEND
  0
LINE
  8
Layer1
  6
CONTINUOUS
 62
7
 10
669.214
 20
343.434
 11
669.214
 21
340.311
  0
LINE
  8
Layer1
  6
CONTINUOUS
 62
7
 10
675.124
 20
343.434
 11
675.124
 21
340.311
  0
LINE
  8
Layer1
  6
CONTINUOUS
 62
7
 10
670.149
 20
330.116
 11
674.538
 21
330.116
  0
LINE
  8
Layer1
  6
CONTINUOUS
 62
7
 10
669.343
 20
330.665
 11
675.343
 21
330.665
  0
LINE
  8
Layer1
  6
CONTINUOUS
 62
7
 10
670.149
 20
330.116
 11
669.343
 21
330.665
  0
LINE
  8
Layer1
  6
CONTINUOUS
 62
7
 10
674.538
 20
330.116
 11
675.343
 21
330.665
  0
LINE
  8
Layer1
  6
CONTINUOUS
 62
7
 10
677.323
 20
336.579
 11
677.323
 21
339.666
  0
LINE
  8
Layer1
  6
CONTINUOUS
 62
7
 10
677.323
 20
339.666
 11
676.207
 21
340.311
  0
LINE
  8
Layer1
  6
CONTINUOUS
 62
7
 10
676.207
 20
340.311
 11
668.303
 21
340.311
  0
LINE
  8
Layer1
  6
CONTINUOUS
 62
7
 10
668.303
 20
340.311
 11
667.185
 21
339.666
  0
LINE
  8
Layer1
  6
CONTINUOUS
 62
7
 10
667.185
 20
339.666
 11
667.185
 21
336.579
  0
LINE
  8
Layer1
  6
CONTINUOUS
 62
7
 10
674.79
 20
336.579
 11
674.79
 21
339.666
  0
LINE
  8
Layer1
  6
CONTINUOUS
 62
7
 10
669.721
 20
336.579
 11
669.721
 21
339.666
  0
POLYLINE
  8
Layer1
  6
CONTINUOUS
 62
7
 66
1
 10
0
 20
0
 30
0
  0
VERTEX
  8
Layer1
 10
674.79
 20
339.666
  0
VERTEX
  8
Layer1
 10
674.687
 20
339.698
  0
VERTEX
  8
Layer1
 10
674.583
 20
339.728
  0
VERTEX
  8
Layer1
 10
674.481
 20
339.757
  0
VERTEX
  8
Layer1
 10
674.377
 20
339.785
  0
VERTEX
  8
Layer1
 10
674.274
 20
339.811
  0
VERTEX
  8
Layer1
 10
674.169
 20
339.837
  0
VERTEX
  8
Layer1
 10
674.064
 20
339.86
  0
VERTEX
  8
Layer1
 10
673.958
 20
339.883
  0
VERTEX
  8
Layer1
 10
673.855
 20
339.904
  0
VERTEX
  8
Layer1
 10
673.75
 20
339.924
  0
VERTEX
  8
Layer1
 10
673.644
 20
339.942
  0
VERTEX
  8
Layer1
 10
673.538
 20
339.959
  0
VERTEX
  8
Layer1
 10
673.432
 20
339.975
  0
VERTEX
  8
Layer1
 10
673.326
 20
339.989
  0
VERTEX
  8
Layer1
 10
673.218
 20
340.002
  0
VERTEX
  8
Layer1
 10
673.111
 20
340.014
  0
VERTEX
  8
Layer1
 10
673.005
 20
340.024
  0
VERTEX
  8
Layer1
 10
672.899
 20
340.033
  0
VERTEX
  8
Layer1
 10
672.791
 20
340.041
  0
VERTEX
  8
Layer1
 10
672.685
 20
340.047
  0
VERTEX
  8
Layer1
 10
672.577
 20
340.052
  0
VERTEX
  8
Layer1
 10
672.468
 20
340.055
  0
VERTEX
  8
Layer1
 10
672.362
 20
340.057
  0
VERTEX
  8
Layer1
 10
672.255
 20
340.058
  0
VERTEX
  8
Layer1
 10
672.148
 20
340.057
  0
VERTEX
  8
Layer1
 10
672.041
 20
340.055
  0
VERTEX
  8
Layer1
 10
671.934
 20
340.052
  0
VERTEX
  8
Layer1
 10
671.827
 20
340.047
  0
VERTEX
  8
Layer1
 10
671.718
 20
340.041
  0
VERTEX
  8
Layer1
 10
671.611
 20
340.033
  0
VERTEX
  8
Layer1
 10
671.505
 20
340.024
  0
VERTEX
  8
Layer1
 10
671.399
 20
340.014
  0
VERTEX
  8
Layer1
 10
671.291
 20
340.002
  0
VERTEX
  8
Layer1
 10
671.185
 20
339.989
  0
VERTEX
  8
Layer1
 10
671.079
 20
339.975
  0
VERTEX
  8
Layer1
 10
670.973
 20
339.959
  0
VERTEX
  8
Layer1
 10
670.867
 20
339.942
  0
VERTEX
  8
Layer1
 10
670.761
 20
339.924
  0
VERTEX
  8
Layer1
 10
670.656
 20
339.904
  0
VERTEX
  8
Layer1
 10
670.55
 20
339.883
  0
VERTEX
  8
Layer1
 10
670.446
 20
339.86
  0
VERTEX
  8
Layer1
 10
670.341
 20
339.837
  0
VERTEX
  8
Layer1
 10
670.236
 20
339.811
  0
VERTEX
  8
Layer1
 10
670.131
 20
339.785
  0
VERTEX
  8
Layer1
 10
670.029
 20
339.757
  0
VERTEX
  8
Layer1
 10
669.925
 20
339.728
  0
VERTEX
  8
Layer1
 10
669.822
 20
339.698
  0
VERTEX
  8
Layer1
 10
669.721
 20
339.666
  0
SEQEND
  0
POLYLINE
  8
Layer1
  6
CONTINUOUS
 62
7
 66
1
 10
0
 20
0
 30
0
  0
VERTEX
  8
Layer1
 10
677.323
 20
339.666
  0
VERTEX
  8
Layer1
 10
677.276
 20
339.697
  0
VERTEX
  8
Layer1
 10
677.231
 20
339.727
  0
VERTEX
  8
Layer1
 10
677.183
 20
339.756
  0
VERTEX
  8
Layer1
 10
677.132
 20
339.783
  0
VERTEX
  8
Layer1
 10
677.083
 20
339.809
  0
VERTEX
  8
Layer1
 10
677.034
 20
339.834
  0
VERTEX
  8
Layer1
 10
676.983
 20
339.858
  0
VERTEX
  8
Layer1
 10
676.93
 20
339.881
  0
VERTEX
  8
Layer1
 10
676.88
 20
339.902
  0
VERTEX
  8
Layer1
 10
676.827
 20
339.922
  0
VERTEX
  8
Layer1
 10
676.773
 20
339.94
  0
VERTEX
  8
Layer1
 10
676.719
 20
339.958
  0
VERTEX
  8
Layer1
 10
676.666
 20
339.974
  0
VERTEX
  8
Layer1
 10
676.612
 20
339.988
  0
VERTEX
  8
Layer1
 10
676.558
 20
340.001
  0
VERTEX
  8
Layer1
 10
676.502
 20
340.013
  0
VERTEX
  8
Layer1
 10
676.447
 20
340.024
  0
VERTEX
  8
Layer1
 10
676.391
 20
340.033
  0
VERTEX
  8
Layer1
 10
676.337
 20
340.04
  0
VERTEX
  8
Layer1
 10
676.281
 20
340.047
  0
VERTEX
  8
Layer1
 10
676.225
 20
340.052
  0
VERTEX
  8
Layer1
 10
676.169
 20
340.055
  0
VERTEX
  8
Layer1
 10
676.112
 20
340.057
  0
VERTEX
  8
Layer1
 10
676.055
 20
340.058
  0
VERTEX
  8
Layer1
 10
676.001
 20
340.057
  0
VERTEX
  8
Layer1
 10
675.944
 20
340.055
  0
VERTEX
  8
Layer1
 10
675.888
 20
340.052
  0
VERTEX
  8
Layer1
 10
675.832
 20
340.047
  0
VERTEX
  8
Layer1
 10
675.776
 20
340.04
  0
VERTEX
  8
Layer1
 10
675.722
 20
340.033
  0
VERTEX
  8
Layer1
 10
675.666
 20
340.024
  0
VERTEX
  8
Layer1
 10
675.611
 20
340.013
  0
VERTEX
  8
Layer1
 10
675.555
 20
340.001
  0
VERTEX
  8
Layer1
 10
675.502
 20
339.988
  0
VERTEX
  8
Layer1
 10
675.447
 20
339.974
  0
VERTEX
  8
Layer1
 10
675.394
 20
339.958
  0
VERTEX
  8
Layer1
 10
675.341
 20
339.94
  0
VERTEX
  8
Layer1
 10
675.288
 20
339.922
  0
VERTEX
  8
Layer1
 10
675.235
 20
339.902
  0
VERTEX
  8
Layer1
 10
675.182
 20
339.881
  0
VERTEX
  8
Layer1
 10
675.131
 20
339.858
  0
VERTEX
  8
Layer1
 10
675.081
 20
339.834
  0
VERTEX
  8
Layer1
 10
675.031
 20
339.809
  0
VERTEX
  8
Layer1
 10
674.981
 20
339.783
  0
VERTEX
  8
Layer1
 10
674.932
 20
339.756
  0
VERTEX
  8
Layer1
 10
674.884
 20
339.727
  0
VERTEX
  8
Layer1
 10
674.836
 20
339.697
  0
VERTEX
  8
Layer1
 10
674.79
 20
339.666
  0
SEQEND
  0
POLYLINE
  8
Layer1
  6
CONTINUOUS
 62
7
 66
1
 10
0
 20
0
 30
0
  0
VERTEX
  8
Layer1
 10
669.721
 20
339.666
  0
VERTEX
  8
Layer1
 10
669.673
 20
339.697
  0
VERTEX
  8
Layer1
 10
669.627
 20
339.727
  0
VERTEX
  8
Layer1
 10
669.579
 20
339.756
  0
VERTEX
  8
Layer1
 10
669.529
 20
339.783
  0
VERTEX
  8
Layer1
 10
669.48
 20
339.809
  0
VERTEX
  8
Layer1
 10
669.429
 20
339.834
  0
VERTEX
  8
Layer1
 10
669.379
 20
339.858
  0
VERTEX
  8
Layer1
 10
669.327
 20
339.881
  0
VERTEX
  8
Layer1
 10
669.275
 20
339.902
  0
VERTEX
  8
Layer1
 10
669.223
 20
339.922
  0
VERTEX
  8
Layer1
 10
669.169
 20
339.94
  0
VERTEX
  8
Layer1
 10
669.117
 20
339.958
  0
VERTEX
  8
Layer1
 10
669.062
 20
339.974
  0
VERTEX
  8
Layer1
 10
669.009
 20
339.988
  0
VERTEX
  8
Layer1
 10
668.954
 20
340.001
  0
VERTEX
  8
Layer1
 10
668.899
 20
340.013
  0
VERTEX
  8
Layer1
 10
668.843
 20
340.024
  0
VERTEX
  8
Layer1
 10
668.788
 20
340.033
  0
VERTEX
  8
Layer1
 10
668.733
 20
340.04
  0
VERTEX
  8
Layer1
 10
668.678
 20
340.047
  0
VERTEX
  8
Layer1
 10
668.621
 20
340.052
  0
VERTEX
  8
Layer1
 10
668.564
 20
340.055
  0
VERTEX
  8
Layer1
 10
668.509
 20
340.057
  0
VERTEX
  8
Layer1
 10
668.454
 20
340.058
  0
VERTEX
  8
Layer1
 10
668.398
 20
340.057
  0
VERTEX
  8
Layer1
 10
668.341
 20
340.055
  0
VERTEX
  8
Layer1
 10
668.284
 20
340.052
  0
VERTEX
  8
Layer1
 10
668.23
 20
340.047
  0
VERTEX
  8
Layer1
 10
668.173
 20
340.04
  0
VERTEX
  8
Layer1
 10
668.118
 20
340.033
  0
VERTEX
  8
Layer1
 10
668.062
 20
340.024
  0
VERTEX
  8
Layer1
 10
668.006
 20
340.013
  0
VERTEX
  8
Layer1
 10
667.952
 20
340.001
  0
VERTEX
  8
Layer1
 10
667.898
 20
339.988
  0
VERTEX
  8
Layer1
 10
667.843
 20
339.974
  0
VERTEX
  8
Layer1
 10
667.79
 20
339.958
  0
VERTEX
  8
Layer1
 10
667.736
 20
339.94
  0
VERTEX
  8
Layer1
 10
667.684
 20
339.922
  0
VERTEX
  8
Layer1
 10
667.63
 20
339.902
  0
VERTEX
  8
Layer1
 10
667.579
 20
339.881
  0
VERTEX
  8
Layer1
 10
667.528
 20
339.858
  0
VERTEX
  8
Layer1
 10
667.476
 20
339.834
  0
VERTEX
  8
Layer1
 10
667.427
 20
339.809
  0
VERTEX
  8
Layer1
 10
667.377
 20
339.783
  0
VERTEX
  8
Layer1
 10
667.327
 20
339.756
  0
VERTEX
  8
Layer1
 10
667.279
 20
339.727
  0
VERTEX
  8
Layer1
 10
667.233
 20
339.697
  0
VERTEX
  8
Layer1
 10
667.185
 20
339.666
  0
SEQEND
  0
POLYLINE
  8
Layer1
  6
CONTINUOUS
 62
7
 66
1
 10
0
 20
0
 30
0
 70
1
  0
VERTEX
  8
Layer1
 10
677.52
 20
343.422
  0
VERTEX
  8
Layer1
 10
677.515
 20
343.493
  0
VERTEX
  8
Layer1
 10
677.501
 20
343.563
  0
VERTEX
  8
Layer1
 10
677.477
 20
343.631
  0
VERTEX
  8
Layer1
 10
677.446
 20
343.695
  0
VERTEX
  8
Layer1
 10
677.406
 20
343.754
  0
VERTEX
  8
Layer1
 10
677.359
 20
343.808
  0
VERTEX
  8
Layer1
 10
677.304
 20
343.855
  0
VERTEX
  8
Layer1
 10
677.246
 20
343.895
  0
VERTEX
  8
Layer1
 10
677.183
 20
343.926
  0
VERTEX
  8
Layer1
 10
677.113
 20
343.949
  0
VERTEX
  8
Layer1
 10
677.044
 20
343.963
  0
VERTEX
  8
Layer1
 10
676.973
 20
343.968
  0
VERTEX
  8
Layer1
 10
676.901
 20
343.963
  0
VERTEX
  8
Layer1
 10
676.832
 20
343.949
  0
VERTEX
  8
Layer1
 10
676.765
 20
343.926
  0
VERTEX
  8
Layer1
 10
676.699
 20
343.895
  0
VERTEX
  8
Layer1
 10
676.641
 20
343.855
  0
VERTEX
  8
Layer1
 10
676.588
 20
343.808
  0
VERTEX
  8
Layer1
 10
676.541
 20
343.754
  0
VERTEX
  8
Layer1
 10
676.501
 20
343.695
  0
VERTEX
  8
Layer1
 10
676.468
 20
343.631
  0
VERTEX
  8
Layer1
 10
676.446
 20
343.563
  0
VERTEX
  8
Layer1
 10
676.433
 20
343.493
  0
VERTEX
  8
Layer1
 10
676.428
 20
343.422
  0
VERTEX
  8
Layer1
 10
676.433
 20
343.35
  0
VERTEX
  8
Layer1
 10
676.446
 20
343.28
  0
VERTEX
  8
Layer1
 10
676.468
 20
343.213
  0
VERTEX
  8
Layer1
 10
676.501
 20
343.149
  0
VERTEX
  8
Layer1
 10
676.541
 20
343.089
  0
VERTEX
  8
Layer1
 10
676.588
 20
343.036
  0
VERTEX
  8
Layer1
 10
676.641
 20
342.989
  0
VERTEX
  8
Layer1
 10
676.699
 20
342.949
  0
VERTEX
  8
Layer1
 10
676.765
 20
342.917
  0
VERTEX
  8
Layer1
 10
676.832
 20
342.894
  0
VERTEX
  8
Layer1
 10
676.901
 20
342.88
  0
VERTEX
  8
Layer1
 10
676.973
 20
342.876
  0
VERTEX
  8
Layer1
 10
677.044
 20
342.88
  0
VERTEX
  8
Layer1
 10
677.113
 20
342.894
  0
VERTEX
  8
Layer1
 10
677.183
 20
342.917
  0
VERTEX
  8
Layer1
 10
677.246
 20
342.949
  0
VERTEX
  8
Layer1
 10
677.304
 20
342.989
  0
VERTEX
  8
Layer1
 10
677.359
 20
343.036
  0
VERTEX
  8
Layer1
 10
677.406
 20
343.089
  0
VERTEX
  8
Layer1
 10
677.446
 20
343.149
  0
VERTEX
  8
Layer1
 10
677.477
 20
343.213
  0
VERTEX
  8
Layer1
 10
677.501
 20
343.28
  0
VERTEX
  8
Layer1
 10
677.515
 20
343.35
  0
SEQEND
  0
LINE
  8
Layer1
  6
CONTINUOUS
 62
7
 10
669.343
 20
327.536
 11
669.343
 21
336.536
  0
LINE
  8
Layer1
  6
CONTINUOUS
 62
7
 10
675.343
 20
330.665
 11
675.343
 21
336.536
  0
LINE
  8
Layer1
  6
CONTINUOUS
 62
7
 10
667.236
 20
336.536
 11
677.375
 21
336.536
  0
TEXT
  8
Layer1
 62
7
 10
819.516
 20
326.036
 72
1
 11
819.516
 21
326.036
 40
4
 41
1
 50
90
  1
 139 
  0
LINE
  8
Layer1
  6
CONTINUOUS
 62
7
 10
751.266
 20
256.536
 11
820.516
 21
256.536
  0
LINE
  8
Layer1
  6
CONTINUOUS
 62
7
 10
751.418
 20
395.536
 11
820.516
 21
395.536
  0
POLYLINE
  8
Layer1
  6
CONTINUOUS
 62
7
 66
1
 10
0
 20
0
 30
0
  0
VERTEX
  8
Layer1
 10
819.516
 20
256.536
  0
VERTEX
  8
Layer1
 10
819.516
 20
395.536
  0
SEQEND
  0
POLYLINE
  8
Layer1
  6
CONTINUOUS
 62
7
 66
1
 10
0
 20
0
 30
0
  0
VERTEX
  8
Layer1
 10
820.293
 20
259.434
  0
VERTEX
  8
Layer1
 10
819.516
 20
256.536
  0
VERTEX
  8
Layer1
 10
818.741
 20
259.434
  0
SEQEND
  0
POLYLINE
  8
Layer1
  6
CONTINUOUS
 62
7
 66
1
 10
0
 20
0
 30
0
  0
VERTEX
  8
Layer1
 10
818.741
 20
392.638
  0
VERTEX
  8
Layer1
 10
819.516
 20
395.536
  0
VERTEX
  8
Layer1
 10
820.293
 20
392.638
  0
SEQEND
  0
TEXT
  8
Layer1
 62
7
 10
802.742
 20
313.636
 72
1
 11
802.742
 21
313.636
 40
4
 41
1
 50
90
  1
114
  0
LINE
  8
Layer1
  6
CONTINUOUS
 62
7
 10
752.343
 20
370.536
 11
803.742
 21
370.536
  0
LINE
  8
Layer1
  6
CONTINUOUS
 62
7
 10
736.044
 20
256.536
 11
803.742
 21
256.536
  0
POLYLINE
  8
Layer1
  6
CONTINUOUS
 62
7
 66
1
 10
0
 20
0
 30
0
  0
VERTEX
  8
Layer1
 10
802.742
 20
370.536
  0
VERTEX
  8
Layer1
 10
802.742
 20
256.536
  0
SEQEND
  0
POLYLINE
  8
Layer1
  6
CONTINUOUS
 62
7
 66
1
 10
0
 20
0
 30
0
  0
VERTEX
  8
Layer1
 10
801.965
 20
367.838
  0
VERTEX
  8
Layer1
 10
802.742
 20
370.736
  0
VERTEX
  8
Layer1
 10
803.517
 20
367.838
  0
SEQEND
  0
POLYLINE
  8
Layer1
  6
CONTINUOUS
 62
7
 66
1
 10
0
 20
0
 30
0
  0
VERTEX
  8
Layer1
 10
803.517
 20
259.434
  0
VERTEX
  8
Layer1
 10
802.742
 20
256.536
  0
VERTEX
  8
Layer1
 10
801.965
 20
259.434
  0
SEQEND
  0
LINE
  8
Layer1
  6
CONTINUOUS
 62
7
 10
643.266
 20
273.536
 11
685.291
 21
273.536
  0
LINE
  8
Layer1
  6
CONTINUOUS
 62
7
 10
752.328
 20
380.536
 11
752.34
 21
394.536
  0
LINE
  8
Layer1
  6
CONTINUOUS
 62
7
 10
752.312
 20
276.536
 11
752.312
 21
291.569
  0
LINE
  8
Layer1
  6
CONTINUOUS
 62
7
 10
736.843
 20
395.536
 11
747.843
 21
395.536
  0
LINE
  8
Layer1
  6
CONTINUOUS
 62
7
 10
687.822
 20
336.536
 11
678.822
 21
327.536
  0
LINE
  8
Layer1
  6
CONTINUOUS
 62
7
 10
691.822
 20
336.536
 11
682.822
 21
327.536
  0
LINE
  8
Layer1
  6
CONTINUOUS
 62
7
 10
683.822
 20
336.536
 11
674.822
 21
327.536
  0
LINE
  8
Layer1
  6
CONTINUOUS
 62
7
 10
685.805
 20
327.536
 11
662.938
 21
327.536
  0
LINE
  8
Layer1
  6
CONTINUOUS
 62
7
 10
667.822
 20
336.536
 11
661.937
 21
330.651
  0
LINE
  8
Layer1
  6
CONTINUOUS
 62
7
 10
663.822
 20
336.536
 11
661.274
 21
333.988
  0
LINE
  8
Layer1
  6
CONTINUOUS
 62
7
 10
687.305
 20
322.536
 11
687.305
 21
326.036
  0
LINE
  8
Layer1
  6
CENTER2
 62
7
 10
672.343
 20
347.656
 11
672.343
 21
325.236
  0
LINE
  8
Layer1
  6
CONTINUOUS
 62
7
 10
679.822
 20
336.536
 11
675.305
 21
332.02
  0
ARC
  8
Layer1
  6
CONTINUOUS
 62
7
 10
685.805
 20
326.036
 40
1.5
 50
2.03555e-013
 51
90
  0
LINE
  8
Layer1
  6
CONTINUOUS
 62
7
 10
688.305
 20
321.536
 11
693.175
 21
321.536
  0
LINE
  8
Layer1
  6
DASHED1
 62
7
 10
656.305
 20
321.536
 11
654.621
 21
321.536
  0
ARC
  8
Layer1
  6
CONTINUOUS
 62
7
 10
688.305
 20
322.536
 40
1
 50
180
 51
270
  0
LINE
  8
Layer1
  6
CONTINUOUS
 62
7
 10
674.886
 20
335.536
 11
674.886
 21
327.536
  0
LINE
  8
Layer1
  6
CONTINUOUS
 62
7
 10
669.886
 20
335.536
 11
669.886
 21
327.536
  0
LINE
  8
Layer1
  6
CONTINUOUS
 62
7
 10
675.386
 20
335.536
 11
675.386
 21
327.536
  0
LINE
  8
Layer1
  6
CONTINUOUS
 62
7
 10
669.305
 20
328.22
 11
668.621
 21
327.536
  0
LINE
  8
Layer1
  6
CONTINUOUS
 62
7
 10
675.386
 20
335.536
 11
669.386
 21
335.536
  0
LINE
  8
Layer1
  6
CONTINUOUS
 62
7
 10
669.386
 20
335.536
 11
668.386
 21
336.536
  0
LINE
  8
Layer1
  6
CONTINUOUS
 62
7
 10
675.386
 20
335.536
 11
676.386
 21
336.536
  0
LINE
  8
Layer1
  6
CONTINUOUS
 62
7
 10
702.343
 20
333.258
 11
690.621
 21
321.536
  0
LINE
  8
Layer1
  6
CONTINUOUS
 62
7
 10
701.619
 20
336.536
 11
687.305
 21
322.22
  0
LINE
  8
Layer1
  6
CONTINUOUS
 62
7
 10
695.822
 20
336.536
 11
686.822
 21
327.536
  0
LINE
  8
Layer1
  6
CENTER1
 62
7
 10
733.271
 20
511.765
 11
751.7
 21
511.765
  0
CIRCLE
  8
Layer1
  6
CONTINUOUS
 62
7
 10
742.343
 20
576.765
 40
4.5
  0
CIRCLE
  8
Layer1
  6
CONTINUOUS
 62
7
 10
742.343
 20
511.765
 40
4.5
  0
CIRCLE
  8
Layer1
  6
CONTINUOUS
 62
7
 10
713.343
 20
511.765
 40
4.5
  0
CIRCLE
  8
Layer1
  6
CONTINUOUS
 62
7
 10
713.343
 20
576.765
 40
4.5
  0
CIRCLE
  8
Layer1
  6
DASHED1
 62
7
 10
742.343
 20
576.765
 40
7
  0
CIRCLE
  8
Layer1
  6
DASHED1
 62
7
 10
742.343
 20
511.765
 40
7
  0
CIRCLE
  8
Layer1
  6
DASHED1
 62
7
 10
713.343
 20
511.765
 40
7
  0
CIRCLE
  8
Layer1
  6
DASHED1
 62
7
 10
713.343
 20
576.765
 40
7
  0
LINE
  8
Layer1
  6
CENTER1
 62
7
 10
742.343
 20
522.204
 11
742.343
 21
500.325
  0
LINE
  8
Layer1
  6
CENTER1
 62
7
 10
742.343
 20
588.085
 11
742.343
 21
567.314
  0
LINE
  8
Layer1
  6
CENTER1
 62
7
 10
704.164
 20
576.765
 11
722.725
 21
576.765
  0
LINE
  8
Layer1
  6
CENTER1
 62
7
 10
713.343
 20
519.456
 11
713.343
 21
500.069
  0
LINE
  8
Layer1
  6
CENTER1
 62
7
 10
713.343
 20
585.84
 11
713.343
 21
563.961
  0
LINE
  8
Layer1
  6
CENTER1
 62
7
 10
704.926
 20
511.765
 11
723.543
 21
511.765
  0
POLYLINE
  8
Layer1
  6
CONTINUOUS
 62
7
 66
1
 10
0
 20
0
 30
0
  0
VERTEX
  8
Layer1
 10
687.234
 20
552.725
  0
VERTEX
  8
Layer1
 10
687.218
 20
552.776
  0
VERTEX
  8
Layer1
 10
687.198
 20
552.839
  0
VERTEX
  8
Layer1
 10
687.177
 20
552.9
  0
VERTEX
  8
Layer1
 10
687.152
 20
552.961
  0
VERTEX
  8
Layer1
 10
687.127
 20
553.021
  0
VERTEX
  8
Layer1
 10
687.099
 20
553.081
  0
VERTEX
  8
Layer1
 10
687.069
 20
553.139
  0
VERTEX
  8
Layer1
 10
687.037
 20
553.196
  0
VERTEX
  8
Layer1
 10
687.004
 20
553.252
  0
VERTEX
  8
Layer1
 10
686.967
 20
553.307
  0
VERTEX
  8
Layer1
 10
686.95
 20
553.332
  0
SEQEND
  0
LINE
  8
Layer1
  6
DASHED1
 62
7
 10
657.305
 20
552.196
 11
657.305
 21
536.196
  0
LINE
  8
Layer1
  6
DASHED1
 62
7
 10
685.011
 20
534.196
 11
659.327
 21
534.196
  0
LINE
  8
Layer1
  6
DASHED1
 62
7
 10
684.808
 20
554.196
 11
659.305
 21
554.196
  0
LINE
  8
Layer1
  6
DASHED1
 62
7
 10
687.305
 20
551.983
 11
687.305
 21
536.276
  0
POLYLINE
  8
Layer1
  6
CONTINUOUS
 62
7
 66
1
 10
0
 20
0
 30
0
  0
VERTEX
  8
Layer1
 10
686.022
 20
534.329
  0
VERTEX
  8
Layer1
 10
686.071
 20
534.348
  0
VERTEX
  8
Layer1
 10
686.13
 20
534.374
  0
VERTEX
  8
Layer1
 10
686.189
 20
534.402
  0
VERTEX
  8
Layer1
 10
686.247
 20
534.432
  0
VERTEX
  8
Layer1
 10
686.305
 20
534.464
  0
VERTEX
  8
Layer1
 10
686.361
 20
534.498
  0
VERTEX
  8
Layer1
 10
686.417
 20
534.533
  0
VERTEX
  8
Layer1
 10
686.471
 20
534.57
  0
VERTEX
  8
Layer1
 10
686.523
 20
534.609
  0
VERTEX
  8
Layer1
 10
686.573
 20
534.65
  0
VERTEX
  8
Layer1
 10
686.623
 20
534.692
  0
VERTEX
  8
Layer1
 10
686.673
 20
534.736
  0
VERTEX
  8
Layer1
 10
686.719
 20
534.782
  0
VERTEX
  8
Layer1
 10
686.765
 20
534.829
  0
VERTEX
  8
Layer1
 10
686.809
 20
534.877
  0
VERTEX
  8
Layer1
 10
686.851
 20
534.927
  0
VERTEX
  8
Layer1
 10
686.891
 20
534.978
  0
VERTEX
  8
Layer1
 10
686.93
 20
535.031
  0
VERTEX
  8
Layer1
 10
686.967
 20
535.085
  0
VERTEX
  8
Layer1
 10
687.004
 20
535.14
  0
VERTEX
  8
Layer1
 10
687.037
 20
535.196
  0
VERTEX
  8
Layer1
 10
687.069
 20
535.253
  0
VERTEX
  8
Layer1
 10
687.099
 20
535.311
  0
VERTEX
  8
Layer1
 10
687.109
 20
535.333
  0
SEQEND
  0
LINE
  8
Layer1
  6
CONTINUOUS
 62
7
 10
657.305
 20
536.196
 11
657.305
 21
536.141
  0
POLYLINE
  8
Layer1
  6
CONTINUOUS
 62
7
 66
1
 10
0
 20
0
 30
0
  0
VERTEX
  8
Layer1
 10
659.305
 20
554.196
  0
VERTEX
  8
Layer1
 10
659.24
 20
554.195
  0
VERTEX
  8
Layer1
 10
659.192
 20
554.192
  0
SEQEND
  0
LINE
  8
Layer1
  6
CONTINUOUS
 62
7
 10
659.305
 20
554.196
 11
660.405
 21
554.196
  0
LINE
  8
Layer1
  6
CONTINUOUS
 62
7
 10
659.327
 20
534.196
 11
660.405
 21
534.196
  0
LINE
  8
Layer1
  6
CONTINUOUS
 62
7
 10
657.305
 20
536.196
 11
657.305
 21
537.153
  0
LINE
  8
Layer1
  6
CONTINUOUS
 62
7
 10
687.305
 20
537.422
 11
687.305
 21
536.276
  0
POLYLINE
  8
Layer1
  6
CONTINUOUS
 62
7
 66
1
 10
0
 20
0
 30
0
  0
VERTEX
  8
Layer1
 10
686.089
 20
554.036
  0
VERTEX
  8
Layer1
 10
686.071
 20
554.044
  0
VERTEX
  8
Layer1
 10
686.01
 20
554.068
  0
VERTEX
  8
Layer1
 10
685.947
 20
554.09
  0
VERTEX
  8
Layer1
 10
685.886
 20
554.11
  0
VERTEX
  8
Layer1
 10
685.822
 20
554.128
  0
VERTEX
  8
Layer1
 10
685.76
 20
554.144
  0
VERTEX
  8
Layer1
 10
685.696
 20
554.157
  0
VERTEX
  8
Layer1
 10
685.63
 20
554.169
  0
VERTEX
  8
Layer1
 10
685.567
 20
554.179
  0
VERTEX
  8
Layer1
 10
685.502
 20
554.186
  0
VERTEX
  8
Layer1
 10
685.436
 20
554.192
  0
VERTEX
  8
Layer1
 10
685.415
 20
554.193
  0
SEQEND
  0
POLYLINE
  8
Layer1
  6
CONTINUOUS
 62
7
 66
1
 10
0
 20
0
 30
0
  0
VERTEX
  8
Layer1
 10
658.449
 20
554.004
  0
VERTEX
  8
Layer1
 10
658.42
 20
553.99
  0
VERTEX
  8
Layer1
 10
658.362
 20
553.96
  0
VERTEX
  8
Layer1
 10
658.305
 20
553.928
  0
VERTEX
  8
Layer1
 10
658.249
 20
553.894
  0
VERTEX
  8
Layer1
 10
658.194
 20
553.859
  0
VERTEX
  8
Layer1
 10
658.14
 20
553.822
  0
VERTEX
  8
Layer1
 10
658.088
 20
553.783
  0
VERTEX
  8
Layer1
 10
658.037
 20
553.742
  0
VERTEX
  8
Layer1
 10
657.986
 20
553.7
  0
VERTEX
  8
Layer1
 10
657.938
 20
553.656
  0
VERTEX
  8
Layer1
 10
657.89
 20
553.61
  0
VERTEX
  8
Layer1
 10
657.846
 20
553.563
  0
VERTEX
  8
Layer1
 10
657.802
 20
553.515
  0
VERTEX
  8
Layer1
 10
657.76
 20
553.465
  0
VERTEX
  8
Layer1
 10
657.718
 20
553.413
  0
VERTEX
  8
Layer1
 10
657.679
 20
553.361
  0
VERTEX
  8
Layer1
 10
657.643
 20
553.307
  0
VERTEX
  8
Layer1
 10
657.607
 20
553.252
  0
VERTEX
  8
Layer1
 10
657.572
 20
553.196
  0
VERTEX
  8
Layer1
 10
657.542
 20
553.139
  0
VERTEX
  8
Layer1
 10
657.537
 20
553.129
  0
SEQEND
  0
POLYLINE
  8
Layer1
  6
CONTINUOUS
 62
7
 66
1
 10
0
 20
0
 30
0
  0
VERTEX
  8
Layer1
 10
657.31
 20
552.32
  0
VERTEX
  8
Layer1
 10
657.307
 20
552.261
  0
VERTEX
  8
Layer1
 10
657.305
 20
552.196
  0
SEQEND
  0
POLYLINE
  8
Layer1
  6
CONTINUOUS
 62
7
 66
1
 10
0
 20
0
 30
0
  0
VERTEX
  8
Layer1
 10
657.471
 20
535.4
  0
VERTEX
  8
Layer1
 10
657.484
 20
535.371
  0
VERTEX
  8
Layer1
 10
657.512
 20
535.311
  0
VERTEX
  8
Layer1
 10
657.542
 20
535.253
  0
VERTEX
  8
Layer1
 10
657.572
 20
535.196
  0
VERTEX
  8
Layer1
 10
657.607
 20
535.14
  0
VERTEX
  8
Layer1
 10
657.643
 20
535.085
  0
VERTEX
  8
Layer1
 10
657.679
 20
535.031
  0
VERTEX
  8
Layer1
 10
657.718
 20
534.978
  0
VERTEX
  8
Layer1
 10
657.76
 20
534.927
  0
VERTEX
  8
Layer1
 10
657.802
 20
534.877
  0
VERTEX
  8
Layer1
 10
657.846
 20
534.829
  0
VERTEX
  8
Layer1
 10
657.89
 20
534.782
  0
VERTEX
  8
Layer1
 10
657.938
 20
534.736
  0
VERTEX
  8
Layer1
 10
657.986
 20
534.692
  0
VERTEX
  8
Layer1
 10
658.037
 20
534.65
  0
VERTEX
  8
Layer1
 10
658.088
 20
534.609
  0
VERTEX
  8
Layer1
 10
658.14
 20
534.57
  0
VERTEX
  8
Layer1
 10
658.194
 20
534.533
  0
VERTEX
  8
Layer1
 10
658.249
 20
534.498
  0
VERTEX
  8
Layer1
 10
658.305
 20
534.464
  0
VERTEX
  8
Layer1
 10
658.362
 20
534.432
  0
VERTEX
  8
Layer1
 10
658.42
 20
534.402
  0
VERTEX
  8
Layer1
 10
658.48
 20
534.374
  0
VERTEX
  8
Layer1
 10
658.54
 20
534.348
  0
VERTEX
  8
Layer1
 10
658.585
 20
534.33
  0
SEQEND
  0
LINE
  8
Layer1
  6
CENTER1
 62
7
 10
732.633
 20
576.765
 11
750.774
 21
576.765
  0
LINE
  8
Layer1
  6
CENTER1
 62
7
 10
608.376
 20
559.265
 11
646.963
 21
559.265
  0
LINE
  8
Layer1
  6
CENTER1
 62
7
 10
609.249
 20
529.265
 11
650.715
 21
529.265
  0
LINE
  8
Layer1
  6
CENTER1
 62
7
 10
463.007
 20
317.306
 11
463.007
 21
338.823
  0
LINE
  8
Layer1
  6
DASHED1
 62
7
 10
457.007
 20
332.036
 11
457.007
 21
336.536
  0
LINE
  8
Layer1
  6
CONTINUOUS
 62
7
 10
488.507
 20
256.536
 11
380.507
 21
256.536
  0
LINE
  8
Layer1
  6
CONTINUOUS
 62
7
 10
489.507
 20
272.536
 11
489.507
 21
257.536
  0
LINE
  8
Layer1
  6
CONTINUOUS
 62
7
 10
379.507
 20
257.536
 11
379.507
 21
272.536
  0
LINE
  8
Layer1
  6
CONTINUOUS
 62
7
 10
412.007
 20
281.536
 11
412.007
 21
320.536
  0
LINE
  8
Layer1
  6
CONTINUOUS
 62
7
 10
457.007
 20
281.536
 11
457.007
 21
320.536
  0
LINE
  8
Layer1
  6
CONTINUOUS
 62
7
 10
412.007
 20
281.536
 11
457.007
 21
281.536
  0
LINE
  8
Layer1
  6
CONTINUOUS
 62
7
 10
456.007
 20
321.536
 11
413.007
 21
321.536
  0
LINE
  8
Layer1
  6
CONTINUOUS
 62
7
 10
413.007
 20
321.536
 11
412.007
 21
320.536
  0
LINE
  8
Layer1
  6
CONTINUOUS
 62
7
 10
456.007
 20
321.536
 11
457.007
 21
320.536
  0
LINE
  8
Layer1
  6
CONTINUOUS
 62
7
 10
457.007
 20
282.536
 11
456.007
 21
281.536
  0
LINE
  8
Layer1
  6
CONTINUOUS
 62
7
 10
413.007
 20
281.536
 11
412.007
 21
282.536
  0
LINE
  8
Layer1
  6
CONTINUOUS
 62
7
 10
471.007
 20
320.536
 11
471.007
 21
276.536
  0
LINE
  8
Layer1
  6
CONTINUOUS
 62
7
 10
398.007
 20
320.536
 11
398.007
 21
276.536
  0
ARC
  8
Layer1
  6
CONTINUOUS
 62
7
 10
395.007
 20
276.536
 40
3
 50
270
 51
2.03555e-013
  0
ARC
  8
Layer1
  6
CONTINUOUS
 62
7
 10
474.007
 20
276.536
 40
3
 50
180
 51
270
  0
LINE
  8
Layer1
  6
CONTINUOUS
 62
7
 10
399.007
 20
321.536
 11
470.007
 21
321.536
  0
LINE
  8
Layer1
  6
CONTINUOUS
 62
7
 10
399.007
 20
321.536
 11
398.007
 21
320.536
  0
LINE
  8
Layer1
  6
CONTINUOUS
 62
7
 10
470.007
 20
321.536
 11
471.007
 21
320.536
  0
LINE
  8
Layer1
  6
CONTINUOUS
 62
7
 10
470.007
 20
336.536
 11
399.007
 21
336.536
  0
LINE
  8
Layer1
  6
CONTINUOUS
 62
7
 10
471.007
 20
322.536
 11
471.007
 21
335.536
  0
LINE
  8
Layer1
  6
CONTINUOUS
 62
7
 10
398.007
 20
322.536
 11
398.007
 21
335.536
  0
LINE
  8
Layer1
  6
CONTINUOUS
 62
7
 10
398.007
 20
335.536
 11
399.007
 21
336.536
  0
LINE
  8
Layer1
  6
CONTINUOUS
 62
7
 10
470.007
 20
336.536
 11
471.007
 21
335.536
  0
LINE
  8
Layer1
  6
CONTINUOUS
 62
7
 10
471.007
 20
322.536
 11
470.007
 21
321.536
  0
LINE
  8
Layer1
  6
CONTINUOUS
 62
7
 10
399.007
 20
321.536
 11
398.007
 21
322.536
  0
LINE
  8
Layer1
  6
CONTINUOUS
 62
7
 10
476.007
 20
395.536
 11
393.007
 21
395.536
  0
LINE
  8
Layer1
  6
CONTINUOUS
 62
7
 10
393.007
 20
379.536
 11
409.007
 21
379.536
  0
LINE
  8
Layer1
  6
CONTINUOUS
 62
7
 10
477.007
 20
380.536
 11
477.007
 21
394.536
  0
LINE
  8
Layer1
  6
CONTINUOUS
 62
7
 10
392.007
 20
380.536
 11
392.007
 21
394.536
  0
LINE
  8
Layer1
  6
CONTINUOUS
 62
7
 10
392.007
 20
394.536
 11
393.007
 21
395.536
  0
LINE
  8
Layer1
  6
CONTINUOUS
 62
7
 10
476.007
 20
395.536
 11
477.007
 21
394.536
  0
LINE
  8
Layer1
  6
CONTINUOUS
 62
7
 10
477.007
 20
380.536
 11
476.007
 21
379.536
  0
LINE
  8
Layer1
  6
CONTINUOUS
 62
7
 10
393.007
 20
379.536
 11
392.007
 21
380.536
  0
LINE
  8
Layer1
  6
CONTINUOUS
 62
7
 10
460.007
 20
379.536
 11
476.007
 21
379.536
  0
ARC
  8
Layer1
  6
CONTINUOUS
 62
7
 10
409.007
 20
376.536
 40
3
 50
0
 51
90
  0
ARC
  8
Layer1
  6
CONTINUOUS
 62
7
 10
460.007
 20
376.536
 40
3
 50
90
 51
180
  0
LINE
  8
Layer1
  6
CENTER1
 62
7
 10
402.007
 20
402.66
 11
402.007
 21
375.323
  0
LINE
  8
Layer1
  6
CENTER1
 62
7
 10
467.007
 20
399.804
 11
467.007
 21
374.915
  0
LINE
  8
Layer1
  6
CENTER1
 62
7
 10
392.901
 20
301.536
 11
489.483
 21
301.536
  0
LINE
  8
Layer1
  6
CENTER1
 62
7
 10
419.507
 20
323.413
 11
419.507
 21
303.898
  0
LINE
  8
Layer1
  6
CENTER1
 62
7
 10
449.507
 20
323.186
 11
449.507
 21
303.898
  0
LINE
  8
Layer1
  6
CENTER1
 62
7
 10
408.359
 20
314.036
 11
427.987
 21
314.036
  0
LINE
  8
Layer1
  6
CENTER1
 62
7
 10
409.153
 20
289.036
 11
425.491
 21
289.036
  0
LINE
  8
Layer1
  6
DASHED1
 62
7
 10
444.507
 20
305.536
 11
455.007
 21
305.536
  0
ARC
  8
Layer1
  6
DASHED1
 62
7
 10
434.507
 20
323.536
 40
8
 50
0
 51
180
  0
LINE
  8
Layer1
  6
DASHED1
 62
7
 10
442.507
 20
307.536
 11
442.507
 21
323.536
  0
LINE
  8
Layer1
  6
DASHED1
 62
7
 10
426.507
 20
307.536
 11
426.507
 21
323.536
  0
LINE
  8
Layer1
  6
DASHED1
 62
7
 10
414.007
 20
305.536
 11
412.007
 21
307.536
  0
LINE
  8
Layer1
  6
DASHED1
 62
7
 10
455.007
 20
305.536
 11
457.007
 21
307.536
  0
LINE
  8
Layer1
  6
DASHED1
 62
7
 10
424.507
 20
305.536
 11
414.007
 21
305.536
  0
LINE
  8
Layer1
  6
DASHED1
 62
7
 10
426.507
 20
307.536
 11
424.507
 21
305.536
  0
LINE
  8
Layer1
  6
DASHED1
 62
7
 10
442.507
 20
307.536
 11
444.507
 21
305.536
  0
LINE
  8
Layer1
  6
CONTINUOUS
 62
7
 10
643.266
 20
256.536
 11
751.266
 21
256.536
  0
LINE
  8
Layer1
  6
CONTINUOUS
 62
7
 10
616.343
 20
321.536
 11
636.343
 21
321.536
  0
LINE
  8
Layer1
  6
CONTINUOUS
 62
7
 10
751.341
 20
395.536
 11
704.343
 21
395.536
  0
LINE
  8
Layer1
  6
CONTINUOUS
 62
7
 10
704.343
 20
379.536
 11
751.327
 21
379.536
  0
LINE
  8
Layer1
  6
CONTINUOUS
 62
7
 10
616.343
 20
281.536
 11
636.343
 21
281.536
  0
LINE
  8
Layer1
  6
CONTINUOUS
 62
7
 10
751.266
 20
256.536
 11
752.343
 21
257.613
  0
LINE
  8
Layer1
  6
CONTINUOUS
 62
7
 10
642.343
 20
272.536
 11
642.343
 21
257.536
  0
LINE
  8
Layer1
  6
CONTINUOUS
 62
7
 10
615.343
 20
320.536
 11
615.343
 21
282.536
  0
LINE
  8
Layer1
  6
CONTINUOUS
 62
7
 10
637.343
 20
320.536
 11
637.343
 21
282.536
  0
LINE
  8
Layer1
  6
CONTINUOUS
 62
7
 10
701.343
 20
336.536
 11
643.266
 21
336.536
  0
LINE
  8
Layer1
  6
CONTINUOUS
 62
7
 10
637.343
 20
282.536
 11
636.343
 21
281.536
  0
LINE
  8
Layer1
  6
CONTINUOUS
 62
7
 10
616.343
 20
281.536
 11
615.343
 21
282.536
  0
LINE
  8
Layer1
  6
CONTINUOUS
 62
7
 10
637.343
 20
282.536
 11
638.343
 21
281.536
  0
LINE
  8
Layer1
  6
CONTINUOUS
 62
7
 10
749.346
 20
281.536
 11
638.343
 21
281.536
  0
LINE
  8
Layer1
  6
CONTINUOUS
 62
7
 10
642.266
 20
321.536
 11
722.343
 21
321.536
  0
LINE
  8
Layer1
  6
CONTINUOUS
 62
7
 10
638.343
 20
321.536
 11
643.343
 21
321.536
  0
LINE
  8
Layer1
  6
CONTINUOUS
 62
7
 10
638.343
 20
321.536
 11
637.343
 21
320.536
  0
LINE
  8
Layer1
  6
CONTINUOUS
 62
7
 10
637.343
 20
320.536
 11
636.343
 21
321.536
  0
LINE
  8
Layer1
  6
CONTINUOUS
 62
7
 10
616.343
 20
321.536
 11
615.343
 21
320.536
  0
LINE
  8
Layer1
  6
CONTINUOUS
 62
7
 10
643.343
 20
336.536
 11
642.343
 21
335.536
  0
LINE
  8
Layer1
  6
CONTINUOUS
 62
7
 10
642.343
 20
257.536
 11
643.343
 21
256.536
  0
LINE
  8
Layer1
  6
CONTINUOUS
 62
7
 10
642.343
 20
322.536
 11
642.343
 21
335.536
  0
LINE
  8
Layer1
  6
CONTINUOUS
 62
7
 10
642.343
 20
272.536
 11
643.343
 21
273.536
  0
LINE
  8
Layer1
  6
CONTINUOUS
 62
7
 10
703.343
 20
340.536
 11
703.343
 21
394.536
  0
LINE
  8
Layer1
  6
CONTINUOUS
 62
7
 10
738.343
 20
305.536
 11
749.343
 21
305.536
  0
LINE
  8
Layer1
  6
CONTINUOUS
 62
7
 10
738.343
 20
305.536
 11
703.343
 21
340.536
  0
ARC
  8
Layer1
  6
CONTINUOUS
 62
7
 10
749.343
 20
308.536
 40
3
 50
270
 51
2.03555e-013
  0
LINE
  8
Layer1
  6
PHANTOM1
 62
7
 10
703.343
 20
370.536
 11
752.343
 21
370.536
  0
LINE
  8
Layer1
  6
PHANTOM1
 62
7
 10
703.343
 20
354.536
 11
752.343
 21
354.536
  0
LINE
  8
Layer1
  6
CONTINUOUS
 62
7
 10
702.343
 20
322.536
 11
702.343
 21
335.536
  0
LINE
  8
Layer1
  6
CONTINUOUS
 62
7
 10
702.343
 20
335.536
 11
701.343
 21
336.536
  0
LINE
  8
Layer1
  6
CONTINUOUS
 62
7
 10
643.266
 20
321.536
 11
701.343
 21
321.536
  0
LINE
  8
Layer1
  6
CONTINUOUS
 62
7
 10
702.343
 20
322.536
 11
701.343
 21
321.536
  0
LINE
  8
Layer1
  6
CONTINUOUS
 62
7
 10
643.343
 20
321.536
 11
642.343
 21
322.536
  0
LINE
  8
Layer1
  6
CONTINUOUS
 62
7
 10
642.343
 20
320.536
 11
642.343
 21
272.536
  0
LINE
  8
Layer1
  6
CONTINUOUS
 62
7
 10
712.343
 20
331.536
 11
752.269
 21
331.536
  0
LINE
  8
Layer1
  6
CONTINUOUS
 62
7
 10
738.343
 20
305.536
 11
749.269
 21
294.611
  0
LINE
  8
Layer1
  6
CONTINUOUS
 62
7
 10
749.269
 20
282.536
 11
749.269
 21
294.611
  0
LINE
  8
Layer1
  6
CENTER1
 62
7
 10
713.343
 20
400.823
 11
713.343
 21
374.661
  0
LINE
  8
Layer1
  6
CENTER1
 62
7
 10
742.343
 20
399.941
 11
742.343
 21
374.22
  0
LINE
  8
Layer1
  6
CONTINUOUS
 62
7
 10
704.343
 20
395.536
 11
703.343
 21
394.536
  0
LINE
  8
Layer1
  6
CONTINUOUS
 62
7
 10
751.341
 20
395.536
 11
752.34
 21
394.536
  0
LINE
  8
Layer1
  6
CONTINUOUS
 62
7
 10
752.328
 20
380.536
 11
751.327
 21
379.536
  0
LINE
  8
Layer1
  6
CONTINUOUS
 62
7
 10
704.343
 20
379.536
 11
703.343
 21
380.536
  0
LINE
  8
Layer1
  6
CONTINUOUS
 62
7
 10
749.269
 20
282.536
 11
748.269
 21
281.536
  0
LINE
  8
Layer1
  6
CONTINUOUS
 62
7
 10
753.343
 20
257.536
 11
766.343
 21
257.536
  0
LINE
  8
Layer1
  6
CONTINUOUS
 62
7
 10
753.343
 20
257.536
 11
752.343
 21
258.536
  0
LINE
  8
Layer1
  6
CONTINUOUS
 62
7
 10
752.346
 20
329.536
 11
753.346
 21
330.536
  0
LINE
  8
Layer1
  6
CENTER1
 62
7
 10
654.343
 20
338.331
 11
654.343
 21
318.341
  0
LINE
  8
Layer1
  6
CENTER1
 62
7
 10
690.343
 20
318.341
 11
690.343
 21
342.276
  0
LINE
  8
Layer1
  6
DASHED1
 62
7
 10
650.266
 20
335.536
 11
658.266
 21
335.536
  0
LINE
  8
Layer1
  6
DASHED1
 62
7
 10
659.266
 20
334.536
 11
659.266
 21
329.536
  0
LINE
  8
Layer1
  6
DASHED1
 62
7
 10
649.266
 20
334.536
 11
649.266
 21
329.536
  0
LINE
  8
Layer1
  6
DASHED1
 62
7
 10
659.766
 20
329.536
 11
648.766
 21
329.536
  0
LINE
  8
Layer1
  6
DASHED1
 62
7
 10
650.266
 20
335.536
 11
649.266
 21
334.536
  0
LINE
  8
Layer1
  6
DASHED1
 62
7
 10
659.766
 20
329.536
 11
659.766
 21
336.536
  0
LINE
  8
Layer1
  6
DASHED1
 62
7
 10
648.766
 20
329.536
 11
648.766
 21
336.536
  0
LINE
  8
Layer1
  6
DASHED1
 62
7
 10
659.266
 20
334.536
 11
649.266
 21
334.536
  0
LINE
  8
Layer1
  6
DASHED1
 62
7
 10
659.266
 20
334.536
 11
659.266
 21
329.536
  0
LINE
  8
Layer1
  6
DASHED1
 62
7
 10
658.266
 20
335.536
 11
659.266
 21
334.536
  0
LINE
  8
Layer1
  6
DASHED1
 62
7
 10
659.266
 20
329.536
 11
659.266
 21
334.536
  0
LINE
  8
Layer1
  6
DASHED1
 62
7
 10
658.766
 20
329.786
 11
658.766
 21
334.286
  0
LINE
  8
Layer1
  6
DASHED1
 62
7
 10
657.766
 20
330.286
 11
657.766
 21
333.786
  0
LINE
  8
Layer1
  6
DASHED1
 62
7
 10
656.766
 20
330.786
 11
656.766
 21
333.286
  0
LINE
  8
Layer1
  6
DASHED1
 62
7
 10
651.266
 20
329.536
 11
651.266
 21
321.536
  0
LINE
  8
Layer1
  6
DASHED1
 62
7
 10
657.266
 20
329.536
 11
657.266
 21
321.536
  0
LINE
  8
Layer1
  6
CENTER1
 62
7
 10
611.186
 20
289.036
 11
651.925
 21
289.036
  0
LINE
  8
Layer1
  6
CONTINUOUS
 62
7
 10
685.63
 20
276.805
 11
733.269
 21
276.805
  0
LINE
  8
Layer1
  6
CONTINUOUS
 62
7
 10
689.447
 20
260.805
 11
733.269
 21
260.805
  0
LINE
  8
Layer1
  6
CONTINUOUS
 62
7
 10
733.269
 20
260.805
 11
733.269
 21
281.536
  0
LINE
  8
Layer1
  6
PHANTOM1
 62
7
 10
733.269
 20
260.805
 11
733.269
 21
264.805
  0
LINE
  8
Layer1
  6
CONTINUOUS
 62
7
 10
643.343
 20
321.536
 11
642.343
 21
320.536
  0
LINE
  8
Layer1
  6
CONTINUOUS
 62
7
 10
733.269
 20
281.536
 11
733.269
 21
260.536
  0
LINE
  8
Layer1
  6
CONTINUOUS
 62
7
 10
733.269
 20
260.536
 11
736.269
 21
260.536
  0
LINE
  8
Layer1
  6
CENTER1
 62
7
 10
743.269
 20
285.833
 11
743.269
 21
252.186
  0
LINE
  8
Layer1
  6
CONTINUOUS
 62
7
 10
736.269
 20
278.536
 11
749.269
 21
278.536
  0
LINE
  8
Layer1
  6
CONTINUOUS
 62
7
 10
749.269
 20
281.536
 11
749.269
 21
278.536
  0
LINE
  8
Layer1
  6
CONTINUOUS
 62
7
 10
736.269
 20
278.536
 11
736.269
 21
260.536
  0
LINE
  8
Layer1
  6
CONTINUOUS
 62
7
 10
747.519
 20
278.536
 11
747.519
 21
273.936
  0
LINE
  8
Layer1
  6
CONTINUOUS
 62
7
 10
739.019
 20
278.536
 11
739.019
 21
273.936
  0
LINE
  8
Layer1
  6
CONTINUOUS
 62
7
 10
747.519
 20
273.936
 11
739.019
 21
273.936
  0
LINE
  8
Layer1
  6
CONTINUOUS
 62
7
 10
747.119
 20
273.536
 11
739.418
 21
273.536
  0
LINE
  8
Layer1
  6
CONTINUOUS
 62
7
 10
747.519
 20
273.936
 11
747.119
 21
273.536
  0
LINE
  8
Layer1
  6
CONTINUOUS
 62
7
 10
739.019
 20
273.936
 11
739.418
 21
273.536
  0
LINE
  8
Layer1
  6
CONTINUOUS
 62
7
 10
738.269
 20
278.536
 11
748.269
 21
278.536
  0
LINE
  8
Layer1
  6
CONTINUOUS
 62
7
 10
740.269
 20
274.33
 11
740.269
 21
277.86
  0
LINE
  8
Layer1
  6
CONTINUOUS
 62
7
 10
741.269
 20
274.966
 11
741.269
 21
277.319
  0
LINE
  8
Layer1
  6
CONTINUOUS
 62
7
 10
742.269
 20
275.601
 11
742.269
 21
276.777
  0
LINE
  8
Layer1
  6
CONTINUOUS
 62
7
 10
739.019
 20
278.536
 11
747.519
 21
278.536
  0
LINE
  8
Layer1
  6
CONTINUOUS
 62
7
 10
696.173
 20
276.805
 11
693.83
 21
276.805
  0
LINE
  8
Layer1
  6
CONTINUOUS
 62
7
 10
691.486
 20
276.805
 11
689.144
 21
276.805
  0
LINE
  8
Layer1
  6
CONTINUOUS
 62
7
 10
686.801
 20
276.805
 11
685.383
 21
276.805
  0
LINE
  8
Layer1
  6
CONTINUOUS
 62
7
 10
733.269
 20
276.805
 11
733.269
 21
260.805
  0
LINE
  8
Layer1
  6
CONTINUOUS
 62
7
 10
695.391
 20
260.805
 11
697.735
 21
260.805
  0
LINE
  8
Layer1
  6
CONTINUOUS
 62
7
 10
718.821
 20
260.805
 11
721.164
 21
260.805
  0
LINE
  8
Layer1
  6
CONTINUOUS
 62
7
 10
733.269
 20
276.805
 11
731.317
 21
276.805
  0
LINE
  8
Layer1
  6
CONTINUOUS
 62
7
 10
717.258
 20
272.81
 11
719.601
 21
272.81
  0
LINE
  8
Layer1
  6
CONTINUOUS
 62
7
 10
718.821
 20
264.821
 11
721.164
 21
264.821
  0
LINE
  8
Layer1
  6
CONTINUOUS
 62
7
 10
719.601
 20
276.805
 11
719.601
 21
272.81
  0
LINE
  8
Layer1
  6
CONTINUOUS
 62
7
 10
717.258
 20
276.805
 11
717.258
 21
272.81
  0
LINE
  8
Layer1
  6
CONTINUOUS
 62
7
 10
718.821
 20
264.821
 11
718.821
 21
260.805
  0
LINE
  8
Layer1
  6
CONTINUOUS
 62
7
 10
721.164
 20
264.821
 11
721.164
 21
260.805
  0
LINE
  8
Layer1
  6
CONTINUOUS
 62
7
 10
717.258
 20
272.81
 11
718.821
 21
264.821
  0
LINE
  8
Layer1
  6
CONTINUOUS
 62
7
 10
719.601
 20
272.81
 11
721.164
 21
264.821
  0
LINE
  8
Layer1
  6
CONTINUOUS
 62
7
 10
718.04
 20
268.816
 11
718.821
 21
260.805
  0
LINE
  8
Layer1
  6
CONTINUOUS
 62
7
 10
719.796
 20
276.805
 11
720.382
 21
268.816
  0
LINE
  8
Layer1
  6
CONTINUOUS
 62
7
 10
723.506
 20
260.805
 11
725.85
 21
260.805
  0
LINE
  8
Layer1
  6
CONTINUOUS
 62
7
 10
724.287
 20
276.805
 11
721.945
 21
276.805
  0
LINE
  8
Layer1
  6
CONTINUOUS
 62
7
 10
721.945
 20
272.81
 11
724.287
 21
272.81
  0
LINE
  8
Layer1
  6
CONTINUOUS
 62
7
 10
723.506
 20
264.821
 11
725.85
 21
264.821
  0
LINE
  8
Layer1
  6
CONTINUOUS
 62
7
 10
724.287
 20
276.805
 11
724.287
 21
272.81
  0
LINE
  8
Layer1
  6
CONTINUOUS
 62
7
 10
721.945
 20
276.805
 11
721.945
 21
272.81
  0
LINE
  8
Layer1
  6
CONTINUOUS
 62
7
 10
723.506
 20
264.821
 11
723.506
 21
260.805
  0
LINE
  8
Layer1
  6
CONTINUOUS
 62
7
 10
725.85
 20
264.821
 11
725.85
 21
260.805
  0
LINE
  8
Layer1
  6
CONTINUOUS
 62
7
 10
721.945
 20
272.81
 11
723.506
 21
264.821
  0
LINE
  8
Layer1
  6
CONTINUOUS
 62
7
 10
724.287
 20
272.81
 11
725.85
 21
264.821
  0
LINE
  8
Layer1
  6
CONTINUOUS
 62
7
 10
722.726
 20
268.816
 11
723.506
 21
260.805
  0
LINE
  8
Layer1
  6
CONTINUOUS
 62
7
 10
724.483
 20
276.805
 11
725.069
 21
268.816
  0
LINE
  8
Layer1
  6
CONTINUOUS
 62
7
 10
728.193
 20
260.805
 11
730.535
 21
260.805
  0
LINE
  8
Layer1
  6
CONTINUOUS
 62
7
 10
728.974
 20
276.805
 11
726.63
 21
276.805
  0
LINE
  8
Layer1
  6
CONTINUOUS
 62
7
 10
726.63
 20
272.81
 11
728.974
 21
272.81
  0
LINE
  8
Layer1
  6
CONTINUOUS
 62
7
 10
728.193
 20
264.821
 11
730.535
 21
264.821
  0
LINE
  8
Layer1
  6
CONTINUOUS
 62
7
 10
728.974
 20
276.805
 11
728.974
 21
272.81
  0
LINE
  8
Layer1
  6
CONTINUOUS
 62
7
 10
726.63
 20
276.805
 11
726.63
 21
272.81
  0
LINE
  8
Layer1
  6
CONTINUOUS
 62
7
 10
728.193
 20
264.821
 11
728.193
 21
260.805
  0
LINE
  8
Layer1
  6
CONTINUOUS
 62
7
 10
730.535
 20
264.821
 11
730.535
 21
260.805
  0
LINE
  8
Layer1
  6
CONTINUOUS
 62
7
 10
726.63
 20
272.81
 11
728.193
 21
264.821
  0
LINE
  8
Layer1
  6
CONTINUOUS
 62
7
 10
728.974
 20
272.81
 11
730.535
 21
264.821
  0
LINE
  8
Layer1
  6
CONTINUOUS
 62
7
 10
727.411
 20
268.816
 11
728.193
 21
260.805
  0
LINE
  8
Layer1
  6
CONTINUOUS
 62
7
 10
729.168
 20
276.805
 11
729.755
 21
268.816
  0
LINE
  8
Layer1
  6
CONTINUOUS
 62
7
 10
732.879
 20
260.805
 11
733.269
 21
260.805
  0
LINE
  8
Layer1
  6
CONTINUOUS
 62
7
 10
731.317
 20
272.81
 11
733.269
 21
272.805
  0
LINE
  8
Layer1
  6
CONTINUOUS
 62
7
 10
732.879
 20
264.821
 11
733.269
 21
264.805
  0
LINE
  8
Layer1
  6
CONTINUOUS
 62
7
 10
731.317
 20
276.805
 11
731.317
 21
272.81
  0
LINE
  8
Layer1
  6
CONTINUOUS
 62
7
 10
732.879
 20
264.821
 11
732.879
 21
260.805
  0
LINE
  8
Layer1
  6
CONTINUOUS
 62
7
 10
731.317
 20
272.81
 11
732.879
 21
264.821
  0
LINE
  8
Layer1
  6
CONTINUOUS
 62
7
 10
732.098
 20
268.816
 11
732.879
 21
260.805
  0
LINE
  8
Layer1
  6
CONTINUOUS
 62
7
 10
719.601
 20
276.805
 11
717.258
 21
276.805
  0
LINE
  8
Layer1
  6
CONTINUOUS
 62
7
 10
714.916
 20
276.805
 11
712.572
 21
276.805
  0
LINE
  8
Layer1
  6
CONTINUOUS
 62
7
 10
710.229
 20
276.805
 11
707.887
 21
276.805
  0
LINE
  8
Layer1
  6
CONTINUOUS
 62
7
 10
696.173
 20
276.805
 11
693.83
 21
276.805
  0
LINE
  8
Layer1
  6
CONTINUOUS
 62
7
 10
693.83
 20
272.81
 11
696.173
 21
272.81
  0
LINE
  8
Layer1
  6
CONTINUOUS
 62
7
 10
695.391
 20
264.821
 11
697.735
 21
264.821
  0
LINE
  8
Layer1
  6
CONTINUOUS
 62
7
 10
696.173
 20
276.805
 11
696.173
 21
272.81
  0
LINE
  8
Layer1
  6
CONTINUOUS
 62
7
 10
693.83
 20
276.805
 11
693.83
 21
272.81
  0
LINE
  8
Layer1
  6
CONTINUOUS
 62
7
 10
695.391
 20
264.821
 11
695.391
 21
260.805
  0
LINE
  8
Layer1
  6
CONTINUOUS
 62
7
 10
697.735
 20
264.821
 11
697.735
 21
260.805
  0
LINE
  8
Layer1
  6
CONTINUOUS
 62
7
 10
693.83
 20
272.81
 11
695.391
 21
264.821
  0
LINE
  8
Layer1
  6
CONTINUOUS
 62
7
 10
696.173
 20
272.81
 11
697.735
 21
264.821
  0
LINE
  8
Layer1
  6
CONTINUOUS
 62
7
 10
694.611
 20
268.816
 11
695.391
 21
260.805
  0
LINE
  8
Layer1
  6
CONTINUOUS
 62
7
 10
696.368
 20
276.805
 11
696.954
 21
268.816
  0
LINE
  8
Layer1
  6
CONTINUOUS
 62
7
 10
700.078
 20
260.805
 11
702.42
 21
260.805
  0
LINE
  8
Layer1
  6
CONTINUOUS
 62
7
 10
700.859
 20
276.805
 11
698.515
 21
276.805
  0
LINE
  8
Layer1
  6
CONTINUOUS
 62
7
 10
698.515
 20
272.81
 11
700.859
 21
272.81
  0
LINE
  8
Layer1
  6
CONTINUOUS
 62
7
 10
700.078
 20
264.821
 11
702.42
 21
264.821
  0
LINE
  8
Layer1
  6
CONTINUOUS
 62
7
 10
700.859
 20
276.805
 11
700.859
 21
272.81
  0
LINE
  8
Layer1
  6
CONTINUOUS
 62
7
 10
698.515
 20
276.805
 11
698.515
 21
272.81
  0
LINE
  8
Layer1
  6
CONTINUOUS
 62
7
 10
700.078
 20
264.821
 11
700.078
 21
260.805
  0
LINE
  8
Layer1
  6
CONTINUOUS
 62
7
 10
702.42
 20
264.821
 11
702.42
 21
260.805
  0
LINE
  8
Layer1
  6
CONTINUOUS
 62
7
 10
698.515
 20
272.81
 11
700.078
 21
264.821
  0
LINE
  8
Layer1
  6
CONTINUOUS
 62
7
 10
700.859
 20
272.81
 11
702.42
 21
264.821
  0
LINE
  8
Layer1
  6
CONTINUOUS
 62
7
 10
699.296
 20
268.816
 11
700.078
 21
260.805
  0
LINE
  8
Layer1
  6
CONTINUOUS
 62
7
 10
701.053
 20
276.805
 11
701.64
 21
268.816
  0
LINE
  8
Layer1
  6
CONTINUOUS
 62
7
 10
704.763
 20
260.805
 11
707.106
 21
260.805
  0
LINE
  8
Layer1
  6
CONTINUOUS
 62
7
 10
705.543
 20
276.805
 11
703.2
 21
276.805
  0
LINE
  8
Layer1
  6
CONTINUOUS
 62
7
 10
703.2
 20
272.81
 11
705.543
 21
272.81
  0
LINE
  8
Layer1
  6
CONTINUOUS
 62
7
 10
704.763
 20
264.821
 11
707.106
 21
264.821
  0
LINE
  8
Layer1
  6
CONTINUOUS
 62
7
 10
705.543
 20
276.805
 11
705.543
 21
272.81
  0
LINE
  8
Layer1
  6
CONTINUOUS
 62
7
 10
703.2
 20
276.805
 11
703.2
 21
272.81
  0
LINE
  8
Layer1
  6
CONTINUOUS
 62
7
 10
704.763
 20
264.821
 11
704.763
 21
260.805
  0
LINE
  8
Layer1
  6
CONTINUOUS
 62
7
 10
707.106
 20
264.821
 11
707.106
 21
260.805
  0
LINE
  8
Layer1
  6
CONTINUOUS
 62
7
 10
703.2
 20
272.81
 11
704.763
 21
264.821
  0
LINE
  8
Layer1
  6
CONTINUOUS
 62
7
 10
705.543
 20
272.81
 11
707.106
 21
264.821
  0
LINE
  8
Layer1
  6
CONTINUOUS
 62
7
 10
703.982
 20
268.816
 11
704.763
 21
260.805
  0
LINE
  8
Layer1
  6
CONTINUOUS
 62
7
 10
705.74
 20
276.805
 11
706.324
 21
268.816
  0
LINE
  8
Layer1
  6
CONTINUOUS
 62
7
 10
709.448
 20
260.805
 11
711.792
 21
260.805
  0
LINE
  8
Layer1
  6
CONTINUOUS
 62
7
 10
710.229
 20
276.805
 11
707.887
 21
276.805
  0
LINE
  8
Layer1
  6
CONTINUOUS
 62
7
 10
707.887
 20
272.81
 11
710.229
 21
272.81
  0
LINE
  8
Layer1
  6
CONTINUOUS
 62
7
 10
709.448
 20
264.821
 11
711.792
 21
264.821
  0
LINE
  8
Layer1
  6
CONTINUOUS
 62
7
 10
710.229
 20
276.805
 11
710.229
 21
272.81
  0
LINE
  8
Layer1
  6
CONTINUOUS
 62
7
 10
707.887
 20
276.805
 11
707.887
 21
272.81
  0
LINE
  8
Layer1
  6
CONTINUOUS
 62
7
 10
709.448
 20
264.821
 11
709.448
 21
260.805
  0
LINE
  8
Layer1
  6
CONTINUOUS
 62
7
 10
711.792
 20
264.821
 11
711.792
 21
260.805
  0
LINE
  8
Layer1
  6
CONTINUOUS
 62
7
 10
707.887
 20
272.81
 11
709.448
 21
264.821
  0
LINE
  8
Layer1
  6
CONTINUOUS
 62
7
 10
710.229
 20
272.81
 11
711.792
 21
264.821
  0
LINE
  8
Layer1
  6
CONTINUOUS
 62
7
 10
708.668
 20
268.816
 11
709.448
 21
260.805
  0
LINE
  8
Layer1
  6
CONTINUOUS
 62
7
 10
710.426
 20
276.805
 11
711.011
 21
268.816
  0
LINE
  8
Layer1
  6
CONTINUOUS
 62
7
 10
714.135
 20
260.805
 11
716.477
 21
260.805
  0
LINE
  8
Layer1
  6
CONTINUOUS
 62
7
 10
714.916
 20
276.805
 11
712.572
 21
276.805
  0
LINE
  8
Layer1
  6
CONTINUOUS
 62
7
 10
712.572
 20
272.81
 11
714.916
 21
272.81
  0
LINE
  8
Layer1
  6
CONTINUOUS
 62
7
 10
714.135
 20
264.821
 11
716.477
 21
264.821
  0
LINE
  8
Layer1
  6
CONTINUOUS
 62
7
 10
714.916
 20
276.805
 11
714.916
 21
272.81
  0
LINE
  8
Layer1
  6
CONTINUOUS
 62
7
 10
712.572
 20
276.805
 11
712.572
 21
272.81
  0
LINE
  8
Layer1
  6
CONTINUOUS
 62
7
 10
714.135
 20
264.821
 11
714.135
 21
260.805
  0
LINE
  8
Layer1
  6
CONTINUOUS
 62
7
 10
716.477
 20
264.821
 11
716.477
 21
260.805
  0
LINE
  8
Layer1
  6
CONTINUOUS
 62
7
 10
712.572
 20
272.81
 11
714.135
 21
264.821
  0
LINE
  8
Layer1
  6
CONTINUOUS
 62
7
 10
714.916
 20
272.81
 11
716.477
 21
264.821
  0
LINE
  8
Layer1
  6
CONTINUOUS
 62
7
 10
713.353
 20
268.816
 11
714.135
 21
260.805
  0
LINE
  8
Layer1
  6
CONTINUOUS
 62
7
 10
715.111
 20
276.805
 11
715.697
 21
268.816
  0
LINE
  8
Layer1
  6
CONTINUOUS
 62
7
 10
718.821
 20
260.805
 11
721.164
 21
260.805
  0
LINE
  8
Layer1
  6
CONTINUOUS
 62
7
 10
719.601
 20
276.805
 11
717.258
 21
276.805
  0
LINE
  8
Layer1
  6
CONTINUOUS
 62
7
 10
717.258
 20
272.81
 11
719.601
 21
272.81
  0
LINE
  8
Layer1
  6
CONTINUOUS
 62
7
 10
718.821
 20
264.821
 11
721.164
 21
264.821
  0
LINE
  8
Layer1
  6
CONTINUOUS
 62
7
 10
719.601
 20
276.805
 11
719.601
 21
272.81
  0
LINE
  8
Layer1
  6
CONTINUOUS
 62
7
 10
717.258
 20
276.805
 11
717.258
 21
272.81
  0
LINE
  8
Layer1
  6
CONTINUOUS
 62
7
 10
718.821
 20
264.821
 11
718.821
 21
260.805
  0
LINE
  8
Layer1
  6
CONTINUOUS
 62
7
 10
721.164
 20
264.821
 11
721.164
 21
260.805
  0
LINE
  8
Layer1
  6
CONTINUOUS
 62
7
 10
717.258
 20
272.81
 11
718.821
 21
264.821
  0
LINE
  8
Layer1
  6
CONTINUOUS
 62
7
 10
719.601
 20
272.81
 11
721.164
 21
264.821
  0
LINE
  8
Layer1
  6
CONTINUOUS
 62
7
 10
718.04
 20
268.816
 11
718.821
 21
260.805
  0
LINE
  8
Layer1
  6
CONTINUOUS
 62
7
 10
719.796
 20
276.805
 11
720.382
 21
268.816
  0
LINE
  8
Layer1
  6
CONTINUOUS
 62
7
 10
690.706
 20
260.805
 11
693.049
 21
260.805
  0
LINE
  8
Layer1
  6
CONTINUOUS
 62
7
 10
691.486
 20
276.805
 11
689.144
 21
276.805
  0
LINE
  8
Layer1
  6
CONTINUOUS
 62
7
 10
689.144
 20
272.81
 11
691.486
 21
272.81
  0
LINE
  8
Layer1
  6
CONTINUOUS
 62
7
 10
690.706
 20
264.821
 11
693.049
 21
264.821
  0
LINE
  8
Layer1
  6
CONTINUOUS
 62
7
 10
691.486
 20
276.805
 11
691.486
 21
272.81
  0
LINE
  8
Layer1
  6
CONTINUOUS
 62
7
 10
689.144
 20
276.805
 11
689.144
 21
272.81
  0
LINE
  8
Layer1
  6
CONTINUOUS
 62
7
 10
690.706
 20
264.821
 11
690.706
 21
260.805
  0
LINE
  8
Layer1
  6
CONTINUOUS
 62
7
 10
693.049
 20
264.821
 11
693.049
 21
260.805
  0
LINE
  8
Layer1
  6
CONTINUOUS
 62
7
 10
689.144
 20
272.81
 11
690.706
 21
264.821
  0
LINE
  8
Layer1
  6
CONTINUOUS
 62
7
 10
691.486
 20
272.81
 11
693.049
 21
264.821
  0
LINE
  8
Layer1
  6
CONTINUOUS
 62
7
 10
689.925
 20
268.816
 11
690.706
 21
260.805
  0
LINE
  8
Layer1
  6
CONTINUOUS
 62
7
 10
691.681
 20
276.805
 11
692.267
 21
268.816
  0
LINE
  8
Layer1
  6
CONTINUOUS
 62
7
 10
685.277
 20
272.81
 11
686.801
 21
272.81
  0
LINE
  8
Layer1
  6
CONTINUOUS
 62
7
 10
686.02
 20
264.821
 11
688.362
 21
264.821
  0
LINE
  8
Layer1
  6
CONTINUOUS
 62
7
 10
686.801
 20
276.805
 11
686.801
 21
272.81
  0
LINE
  8
Layer1
  6
CONTINUOUS
 62
7
 10
688.362
 20
264.821
 11
688.362
 21
261.762
  0
LINE
  8
Layer1
  6
CONTINUOUS
 62
7
 10
685.238
 20
268.816
 11
686.02
 21
264.821
  0
LINE
  8
Layer1
  6
CONTINUOUS
 62
7
 10
686.801
 20
272.81
 11
688.362
 21
264.821
  0
LINE
  8
Layer1
  6
CONTINUOUS
 62
7
 10
686.995
 20
276.805
 11
687.582
 21
268.816
  0
LINE
  8
Layer1
  6
DASHED1
 62
7
 10
652.378
 20
316.536
 11
659.476
 21
316.536
  0
LINE
  8
Layer1
  6
DASHED1
 62
7
 10
652.378
 20
311.536
 11
659.476
 21
311.536
  0
LINE
  8
Layer1
  6
DASHED1
 62
7
 10
659.476
 20
316.536
 11
659.476
 21
311.536
  0
LINE
  8
Layer1
  6
DASHED1
 62
7
 10
659.476
 20
311.536
 11
659.476
 21
311.857
  0
LINE
  8
Layer1
  6
DASHED1
 62
7
 10
655.92
 20
311.036
 11
655.92
 21
312.161
  0
LINE
  8
Layer1
  6
CENTER1
 62
7
 10
669.064
 20
314.036
 11
608.567
 21
314.036
  0
LINE
  8
Layer1
  6
DASHED1
 62
7
 10
659.476
 20
316.536
 11
660.92
 21
314.036
  0
LINE
  8
Layer1
  6
DASHED1
 62
7
 10
660.92
 20
314.036
 11
659.476
 21
311.536
  0
LINE
  8
Layer1
  6
DASHED1
 62
7
 10
652.455
 20
317.036
 11
637.343
 21
317.036
  0
LINE
  8
Layer1
  6
DASHED1
 62
7
 10
652.455
 20
311.036
 11
637.343
 21
311.036
  0
LINE
  8
Layer1
  6
DASHED1
 62
7
 10
653.378
 20
312.036
 11
653.378
 21
316.036
  0
LINE
  8
Layer1
  6
CONTINUOUS
 62
7
 10
622.455
 20
316.536
 11
637.343
 21
316.536
  0
LINE
  8
Layer1
  6
CONTINUOUS
 62
7
 10
622.455
 20
311.536
 11
637.343
 21
311.536
  0
LINE
  8
Layer1
  6
DASHED1
 62
7
 10
652.378
 20
317.036
 11
652.378
 21
311.036
  0
LINE
  8
Layer1
  6
DASHED1
 62
7
 10
652.378
 20
317.036
 11
653.378
 21
316.036
  0
LINE
  8
Layer1
  6
DASHED1
 62
7
 10
653.378
 20
312.036
 11
652.378
 21
311.036
  0
LINE
  8
Layer1
  6
DASHED1
 62
7
 10
655.92
 20
317.036
 11
652.378
 21
317.036
  0
LINE
  8
Layer1
  6
DASHED1
 62
7
 10
655.92
 20
311.036
 11
652.378
 21
311.036
  0
LINE
  8
Layer1
  6
DASHED1
 62
7
 10
655.92
 20
317.036
 11
656.787
 21
316.536
  0
LINE
  8
Layer1
  6
DASHED1
 62
7
 10
655.92
 20
311.036
 11
656.787
 21
311.536
  0
LINE
  8
Layer1
  6
DASHED1
 62
7
 10
656.787
 20
316.536
 11
656.787
 21
311.536
  0
LINE
  8
Layer1
  6
CONTINUOUS
 62
7
 10
637.343
 20
317.036
 11
622.455
 21
317.036
  0
LINE
  8
Layer1
  6
DASHED1
 62
7
 10
637.343
 20
316.536
 11
655.955
 21
316.536
  0
LINE
  8
Layer1
  6
DASHED1
 62
7
 10
637.343
 20
311.536
 11
655.955
 21
311.536
  0
LINE
  8
Layer1
  6
CONTINUOUS
 62
7
 10
637.343
 20
311.036
 11
622.455
 21
311.036
  0
POLYLINE
  8
Layer1
  6
CONTINUOUS
 62
7
 66
1
 10
0
 20
0
 30
0
  0
VERTEX
  8
Layer1
 10
615.343
 20
302.483
  0
VERTEX
  8
Layer1
 10
615.635
 20
302.593
  0
VERTEX
  8
Layer1
 10
615.925
 20
302.701
  0
VERTEX
  8
Layer1
 10
616.216
 20
302.806
  0
VERTEX
  8
Layer1
 10
616.508
 20
302.906
  0
VERTEX
  8
Layer1
 10
616.8
 20
302.999
  0
VERTEX
  8
Layer1
 10
617.092
 20
303.084
  0
VERTEX
  8
Layer1
 10
617.386
 20
303.159
  0
VERTEX
  8
Layer1
 10
617.679
 20
303.222
  0
VERTEX
  8
Layer1
 10
617.976
 20
303.271
  0
VERTEX
  8
Layer1
 10
618.272
 20
303.306
  0
VERTEX
  8
Layer1
 10
618.57
 20
303.324
  0
VERTEX
  8
Layer1
 10
618.87
 20
303.323
  0
VERTEX
  8
Layer1
 10
619.17
 20
303.302
  0
VERTEX
  8
Layer1
 10
619.474
 20
303.261
  0
VERTEX
  8
Layer1
 10
619.778
 20
303.201
  0
VERTEX
  8
Layer1
 10
620.082
 20
303.126
  0
VERTEX
  8
Layer1
 10
620.388
 20
303.039
  0
VERTEX
  8
Layer1
 10
620.694
 20
302.943
  0
VERTEX
  8
Layer1
 10
620.999
 20
302.841
  0
VERTEX
  8
Layer1
 10
621.303
 20
302.737
  0
VERTEX
  8
Layer1
 10
621.605
 20
302.634
  0
VERTEX
  8
Layer1
 10
621.906
 20
302.534
  0
VERTEX
  8
Layer1
 10
622.205
 20
302.442
  0
VERTEX
  8
Layer1
 10
622.501
 20
302.36
  0
VERTEX
  8
Layer1
 10
622.793
 20
302.291
  0
VERTEX
  8
Layer1
 10
623.083
 20
302.238
  0
VERTEX
  8
Layer1
 10
623.37
 20
302.205
  0
VERTEX
  8
Layer1
 10
623.65
 20
302.195
  0
VERTEX
  8
Layer1
 10
623.928
 20
302.211
  0
VERTEX
  8
Layer1
 10
624.198
 20
302.257
  0
VERTEX
  8
Layer1
 10
624.465
 20
302.334
  0
VERTEX
  8
Layer1
 10
624.725
 20
302.442
  0
VERTEX
  8
Layer1
 10
624.98
 20
302.578
  0
VERTEX
  8
Layer1
 10
625.232
 20
302.738
  0
VERTEX
  8
Layer1
 10
625.478
 20
302.919
  0
VERTEX
  8
Layer1
 10
625.724
 20
303.116
  0
VERTEX
  8
Layer1
 10
625.966
 20
303.327
  0
VERTEX
  8
Layer1
 10
626.206
 20
303.549
  0
VERTEX
  8
Layer1
 10
626.445
 20
303.777
  0
VERTEX
  8
Layer1
 10
626.684
 20
304.008
  0
VERTEX
  8
Layer1
 10
626.922
 20
304.239
  0
VERTEX
  8
Layer1
 10
627.16
 20
304.467
  0
VERTEX
  8
Layer1
 10
627.4
 20
304.687
  0
VERTEX
  8
Layer1
 10
627.643
 20
304.896
  0
VERTEX
  8
Layer1
 10
627.888
 20
305.091
  0
VERTEX
  8
Layer1
 10
628.135
 20
305.268
  0
VERTEX
  8
Layer1
 10
628.385
 20
305.424
  0
VERTEX
  8
Layer1
 10
628.64
 20
305.556
  0
VERTEX
  8
Layer1
 10
628.899
 20
305.66
  0
VERTEX
  8
Layer1
 10
629.165
 20
305.731
  0
VERTEX
  8
Layer1
 10
629.436
 20
305.768
  0
VERTEX
  8
Layer1
 10
629.713
 20
305.768
  0
VERTEX
  8
Layer1
 10
629.995
 20
305.736
  0
VERTEX
  8
Layer1
 10
630.283
 20
305.676
  0
VERTEX
  8
Layer1
 10
630.573
 20
305.594
  0
VERTEX
  8
Layer1
 10
630.868
 20
305.495
  0
VERTEX
  8
Layer1
 10
631.164
 20
305.386
  0
VERTEX
  8
Layer1
 10
631.461
 20
305.27
  0
VERTEX
  8
Layer1
 10
631.759
 20
305.153
  0
VERTEX
  8
Layer1
 10
632.057
 20
305.042
  0
VERTEX
  8
Layer1
 10
632.352
 20
304.94
  0
VERTEX
  8
Layer1
 10
632.647
 20
304.853
  0
VERTEX
  8
Layer1
 10
632.938
 20
304.787
  0
VERTEX
  8
Layer1
 10
633.225
 20
304.747
  0
VERTEX
  8
Layer1
 10
633.506
 20
304.738
  0
VERTEX
  8
Layer1
 10
633.784
 20
304.76
  0
VERTEX
  8
Layer1
 10
634.057
 20
304.812
  0
VERTEX
  8
Layer1
 10
634.326
 20
304.891
  0
VERTEX
  8
Layer1
 10
634.591
 20
304.995
  0
VERTEX
  8
Layer1
 10
634.852
 20
305.122
  0
VERTEX
  8
Layer1
 10
635.111
 20
305.27
  0
VERTEX
  8
Layer1
 10
635.366
 20
305.438
  0
VERTEX
  8
Layer1
 10
635.619
 20
305.622
  0
VERTEX
  8
Layer1
 10
635.87
 20
305.82
  0
VERTEX
  8
Layer1
 10
636.118
 20
306.031
  0
VERTEX
  8
Layer1
 10
636.365
 20
306.253
  0
VERTEX
  8
Layer1
 10
636.611
 20
306.483
  0
VERTEX
  8
Layer1
 10
636.856
 20
306.72
  0
VERTEX
  8
Layer1
 10
637.1
 20
306.961
  0
VERTEX
  8
Layer1
 10
637.343
 20
307.203
  0
SEQEND
  0
LINE
  8
Layer1
  6
CONTINUOUS
 62
7
 10
767.343
 20
508.765
 11
767.343
 21
579.765
  0
LINE
  8
Layer1
  6
CONTINUOUS
 62
7
 10
752.343
 20
594.265
 11
752.343
 21
494.265
  0
LINE
  8
Layer1
  6
CONTINUOUS
 62
7
 10
703.343
 20
502.765
 11
703.343
 21
585.765
  0
LINE
  8
Layer1
  6
CONTINUOUS
 62
7
 10
642.343
 20
494.265
 11
642.343
 21
594.265
  0
LINE
  8
Layer1
  6
CONTINUOUS
 62
7
 10
637.343
 20
565.765
 11
637.343
 21
522.765
  0
LINE
  8
Layer1
  6
CONTINUOUS
 62
7
 10
615.343
 20
522.765
 11
615.343
 21
565.765
  0
LINE
  8
Layer1
  6
CONTINUOUS
 62
7
 10
747.343
 20
599.265
 11
647.266
 21
599.265
  0
LINE
  8
Layer1
  6
CONTINUOUS
 62
7
 10
751.343
 20
501.765
 11
704.343
 21
501.765
  0
LINE
  8
Layer1
  6
CONTINUOUS
 62
7
 10
751.343
 20
586.765
 11
704.343
 21
586.765
  0
LINE
  8
Layer1
  6
CONTINUOUS
 62
7
 10
643.343
 20
507.765
 11
701.343
 21
507.765
  0
LINE
  8
Layer1
  6
CONTINUOUS
 62
7
 10
747.343
 20
489.265
 11
647.343
 21
489.265
  0
LINE
  8
Layer1
  6
CONTINUOUS
 62
7
 10
643.343
 20
580.765
 11
701.343
 21
580.765
  0
LINE
  8
Layer1
  6
CONTINUOUS
 62
7
 10
702.343
 20
508.765
 11
702.343
 21
579.765
  0
LINE
  8
Layer1
  6
CONTINUOUS
 62
7
 10
702.343
 20
579.765
 11
701.343
 21
580.765
  0
LINE
  8
Layer1
  6
CONTINUOUS
 62
7
 10
702.343
 20
508.765
 11
701.343
 21
507.765
  0
LINE
  8
Layer1
  6
CONTINUOUS
 62
7
 10
643.343
 20
580.765
 11
642.343
 21
579.765
  0
LINE
  8
Layer1
  6
CONTINUOUS
 62
7
 10
642.343
 20
508.765
 11
643.343
 21
507.765
  0
LINE
  8
Layer1
  6
CONTINUOUS
 62
7
 10
636.343
 20
566.765
 11
616.343
 21
566.765
  0
LINE
  8
Layer1
  6
CONTINUOUS
 62
7
 10
616.343
 20
521.765
 11
636.343
 21
521.765
  0
LINE
  8
Layer1
  6
CONTINUOUS
 62
7
 10
638.343
 20
566.765
 11
642.343
 21
566.765
  0
LINE
  8
Layer1
  6
CONTINUOUS
 62
7
 10
638.343
 20
521.765
 11
642.343
 21
521.765
  0
LINE
  8
Layer1
  6
CONTINUOUS
 62
7
 10
616.343
 20
566.765
 11
615.343
 21
565.765
  0
LINE
  8
Layer1
  6
CONTINUOUS
 62
7
 10
636.343
 20
566.765
 11
637.343
 21
565.765
  0
LINE
  8
Layer1
  6
CONTINUOUS
 62
7
 10
637.343
 20
522.765
 11
636.343
 21
521.765
  0
LINE
  8
Layer1
  6
CONTINUOUS
 62
7
 10
615.343
 20
522.765
 11
616.343
 21
521.765
  0
LINE
  8
Layer1
  6
CONTINUOUS
 62
7
 10
637.343
 20
522.765
 11
638.343
 21
521.765
  0
LINE
  8
Layer1
  6
CONTINUOUS
 62
7
 10
637.343
 20
565.765
 11
638.343
 21
566.765
  0
LINE
  8
Layer1
  6
CONTINUOUS
 62
7
 10
647.343
 20
599.265
 11
642.343
 21
594.265
  0
LINE
  8
Layer1
  6
CONTINUOUS
 62
7
 10
642.343
 20
494.265
 11
647.343
 21
489.265
  0
LINE
  8
Layer1
  6
CONTINUOUS
 62
7
 10
747.343
 20
489.265
 11
752.343
 21
494.265
  0
LINE
  8
Layer1
  6
CONTINUOUS
 62
7
 10
752.343
 20
594.265
 11
747.343
 21
599.265
  0
LINE
  8
Layer1
  6
CONTINUOUS
 62
7
 10
753.44
 20
580.765
 11
766.363
 21
580.765
  0
LINE
  8
Layer1
  6
CONTINUOUS
 62
7
 10
753.42
 20
507.765
 11
766.343
 21
507.765
  0
LINE
  8
Layer1
  6
CONTINUOUS
 62
7
 10
766.363
 20
580.765
 11
767.363
 21
579.765
  0
LINE
  8
Layer1
  6
CONTINUOUS
 62
7
 10
767.343
 20
508.765
 11
766.343
 21
507.765
  0
LINE
  8
Layer1
  6
CONTINUOUS
 62
7
 10
753.343
 20
507.765
 11
752.343
 21
508.765
  0
LINE
  8
Layer1
  6
CONTINUOUS
 62
7
 10
752.343
 20
579.765
 11
753.343
 21
580.765
  0
LINE
  8
Layer1
  6
CONTINUOUS
 62
7
 10
704.343
 20
586.765
 11
703.343
 21
585.765
  0
LINE
  8
Layer1
  6
CONTINUOUS
 62
7
 10
703.343
 20
502.765
 11
704.343
 21
501.765
  0
LINE
  8
Layer1
  6
CONTINUOUS
 62
7
 10
751.343
 20
501.765
 11
752.343
 21
502.765
  0
LINE
  8
Layer1
  6
CONTINUOUS
 62
7
 10
751.343
 20
586.765
 11
752.343
 21
585.765
  0
LINE
  8
Layer1
  6
CENTER1
 62
7
 10
646.061
 20
572.765
 11
661.444
 21
572.765
  0
LINE
  8
Layer1
  6
CENTER1
 62
7
 10
644.039
 20
515.765
 11
661.912
 21
515.765
  0
LINE
  8
Layer1
  6
CENTER1
 62
7
 10
690.343
 20
579.048
 11
690.343
 21
567.697
  0
LINE
  8
Layer1
  6
CENTER1
 62
7
 10
654.343
 20
568.066
 11
654.343
 21
579.715
  0
LINE
  8
Layer1
  6
CENTER1
 62
7
 10
654.343
 20
505.452
 11
654.343
 21
525.763
  0
LINE
  8
Layer1
  6
CENTER1
 62
7
 10
682.312
 20
572.765
 11
699.743
 21
572.765
  0
LINE
  8
Layer1
  6
CENTER1
 62
7
 10
682.121
 20
515.765
 11
698.203
 21
515.765
  0
LINE
  8
Layer1
  6
CENTER1
 62
7
 10
690.343
 20
526.276
 11
690.343
 21
507.16
  0
POLYLINE
  8
Layer1
  6
CONTINUOUS
 62
7
 66
1
 10
0
 20
0
 30
0
 70
1
  0
VERTEX
  8
Layer1
 10
695.144
 20
515.765
  0
VERTEX
  8
Layer1
 10
695.102
 20
516.391
  0
VERTEX
  8
Layer1
 10
694.979
 20
517.007
  0
VERTEX
  8
Layer1
 10
694.779
 20
517.602
  0
VERTEX
  8
Layer1
 10
694.501
 20
518.165
  0
VERTEX
  8
Layer1
 10
694.151
 20
518.687
  0
VERTEX
  8
Layer1
 10
693.737
 20
519.159
  0
VERTEX
  8
Layer1
 10
693.265
 20
519.573
  0
VERTEX
  8
Layer1
 10
692.744
 20
519.922
  0
VERTEX
  8
Layer1
 10
692.18
 20
520.199
  0
VERTEX
  8
Layer1
 10
691.585
 20
520.401
  0
VERTEX
  8
Layer1
 10
690.969
 20
520.524
  0
VERTEX
  8
Layer1
 10
690.343
 20
520.565
  0
VERTEX
  8
Layer1
 10
689.717
 20
520.524
  0
VERTEX
  8
Layer1
 10
689.101
 20
520.401
  0
VERTEX
  8
Layer1
 10
688.506
 20
520.199
  0
VERTEX
  8
Layer1
 10
687.944
 20
519.922
  0
VERTEX
  8
Layer1
 10
687.421
 20
519.573
  0
VERTEX
  8
Layer1
 10
686.949
 20
519.159
  0
VERTEX
  8
Layer1
 10
686.535
 20
518.687
  0
VERTEX
  8
Layer1
 10
686.187
 20
518.165
  0
VERTEX
  8
Layer1
 10
685.909
 20
517.602
  0
VERTEX
  8
Layer1
 10
685.707
 20
517.007
  0
VERTEX
  8
Layer1
 10
685.584
 20
516.391
  0
VERTEX
  8
Layer1
 10
685.543
 20
515.765
  0
VERTEX
  8
Layer1
 10
685.584
 20
515.138
  0
VERTEX
  8
Layer1
 10
685.707
 20
514.522
  0
VERTEX
  8
Layer1
 10
685.909
 20
513.928
  0
VERTEX
  8
Layer1
 10
686.187
 20
513.365
  0
VERTEX
  8
Layer1
 10
686.535
 20
512.843
  0
VERTEX
  8
Layer1
 10
686.949
 20
512.371
  0
VERTEX
  8
Layer1
 10
687.421
 20
511.957
  0
VERTEX
  8
Layer1
 10
687.944
 20
511.608
  0
VERTEX
  8
Layer1
 10
688.506
 20
511.33
  0
VERTEX
  8
Layer1
 10
689.101
 20
511.128
  0
VERTEX
  8
Layer1
 10
689.717
 20
511.006
  0
VERTEX
  8
Layer1
 10
690.343
 20
510.965
  0
VERTEX
  8
Layer1
 10
690.969
 20
511.006
  0
VERTEX
  8
Layer1
 10
691.585
 20
511.128
  0
VERTEX
  8
Layer1
 10
692.18
 20
511.33
  0
VERTEX
  8
Layer1
 10
692.744
 20
511.608
  0
VERTEX
  8
Layer1
 10
693.265
 20
511.957
  0
VERTEX
  8
Layer1
 10
693.737
 20
512.371
  0
VERTEX
  8
Layer1
 10
694.151
 20
512.843
  0
VERTEX
  8
Layer1
 10
694.501
 20
513.365
  0
VERTEX
  8
Layer1
 10
694.779
 20
513.928
  0
VERTEX
  8
Layer1
 10
694.979
 20
514.522
  0
VERTEX
  8
Layer1
 10
695.102
 20
515.138
  0
SEQEND
  0
POLYLINE
  8
Layer1
  6
CONTINUOUS
 62
7
 66
1
 10
0
 20
0
 30
0
 70
1
  0
VERTEX
  8
Layer1
 10
690.343
 20
519.197
  0
VERTEX
  8
Layer1
 10
687.371
 20
517.481
  0
VERTEX
  8
Layer1
 10
687.371
 20
514.049
  0
VERTEX
  8
Layer1
 10
690.343
 20
512.333
  0
VERTEX
  8
Layer1
 10
693.315
 20
514.049
  0
VERTEX
  8
Layer1
 10
693.315
 20
517.481
  0
SEQEND
  0
POLYLINE
  8
Layer1
  6
CONTINUOUS
 62
7
 66
1
 10
0
 20
0
 30
0
 70
1
  0
VERTEX
  8
Layer1
 10
693.775
 20
515.765
  0
VERTEX
  8
Layer1
 10
693.746
 20
516.213
  0
VERTEX
  8
Layer1
 10
693.659
 20
516.653
  0
VERTEX
  8
Layer1
 10
693.515
 20
517.078
  0
VERTEX
  8
Layer1
 10
693.315
 20
517.481
  0
VERTEX
  8
Layer1
 10
693.067
 20
517.854
  0
VERTEX
  8
Layer1
 10
692.771
 20
518.192
  0
VERTEX
  8
Layer1
 10
692.433
 20
518.488
  0
VERTEX
  8
Layer1
 10
692.06
 20
518.737
  0
VERTEX
  8
Layer1
 10
691.657
 20
518.936
  0
VERTEX
  8
Layer1
 10
691.232
 20
519.08
  0
VERTEX
  8
Layer1
 10
690.792
 20
519.167
  0
VERTEX
  8
Layer1
 10
690.343
 20
519.197
  0
VERTEX
  8
Layer1
 10
689.896
 20
519.167
  0
VERTEX
  8
Layer1
 10
689.456
 20
519.08
  0
VERTEX
  8
Layer1
 10
689.031
 20
518.936
  0
VERTEX
  8
Layer1
 10
688.628
 20
518.737
  0
VERTEX
  8
Layer1
 10
688.255
 20
518.488
  0
VERTEX
  8
Layer1
 10
687.917
 20
518.192
  0
VERTEX
  8
Layer1
 10
687.62
 20
517.854
  0
VERTEX
  8
Layer1
 10
687.371
 20
517.481
  0
VERTEX
  8
Layer1
 10
687.173
 20
517.078
  0
VERTEX
  8
Layer1
 10
687.029
 20
516.653
  0
VERTEX
  8
Layer1
 10
686.94
 20
516.213
  0
VERTEX
  8
Layer1
 10
686.911
 20
515.765
  0
VERTEX
  8
Layer1
 10
686.94
 20
515.317
  0
VERTEX
  8
Layer1
 10
687.029
 20
514.876
  0
VERTEX
  8
Layer1
 10
687.173
 20
514.451
  0
VERTEX
  8
Layer1
 10
687.371
 20
514.049
  0
VERTEX
  8
Layer1
 10
687.62
 20
513.675
  0
VERTEX
  8
Layer1
 10
687.917
 20
513.338
  0
VERTEX
  8
Layer1
 10
688.255
 20
513.042
  0
VERTEX
  8
Layer1
 10
688.628
 20
512.793
  0
VERTEX
  8
Layer1
 10
689.031
 20
512.594
  0
VERTEX
  8
Layer1
 10
689.456
 20
512.45
  0
VERTEX
  8
Layer1
 10
689.896
 20
512.362
  0
VERTEX
  8
Layer1
 10
690.343
 20
512.333
  0
VERTEX
  8
Layer1
 10
690.792
 20
512.362
  0
VERTEX
  8
Layer1
 10
691.232
 20
512.45
  0
VERTEX
  8
Layer1
 10
691.657
 20
512.594
  0
VERTEX
  8
Layer1
 10
692.06
 20
512.793
  0
VERTEX
  8
Layer1
 10
692.433
 20
513.042
  0
VERTEX
  8
Layer1
 10
692.771
 20
513.338
  0
VERTEX
  8
Layer1
 10
693.067
 20
513.675
  0
VERTEX
  8
Layer1
 10
693.315
 20
514.049
  0
VERTEX
  8
Layer1
 10
693.515
 20
514.451
  0
VERTEX
  8
Layer1
 10
693.659
 20
514.876
  0
VERTEX
  8
Layer1
 10
693.746
 20
515.317
  0
SEQEND
  0
POLYLINE
  8
Layer1
  6
CONTINUOUS
 62
7
 66
1
 10
0
 20
0
 30
0
 70
1
  0
VERTEX
  8
Layer1
 10
659.144
 20
515.765
  0
VERTEX
  8
Layer1
 10
659.102
 20
516.391
  0
VERTEX
  8
Layer1
 10
658.98
 20
517.007
  0
VERTEX
  8
Layer1
 10
658.779
 20
517.602
  0
VERTEX
  8
Layer1
 10
658.501
 20
518.165
  0
VERTEX
  8
Layer1
 10
658.151
 20
518.687
  0
VERTEX
  8
Layer1
 10
657.737
 20
519.159
  0
VERTEX
  8
Layer1
 10
657.265
 20
519.573
  0
VERTEX
  8
Layer1
 10
656.744
 20
519.922
  0
VERTEX
  8
Layer1
 10
656.18
 20
520.199
  0
VERTEX
  8
Layer1
 10
655.586
 20
520.401
  0
VERTEX
  8
Layer1
 10
654.97
 20
520.524
  0
VERTEX
  8
Layer1
 10
654.343
 20
520.565
  0
VERTEX
  8
Layer1
 10
653.717
 20
520.524
  0
VERTEX
  8
Layer1
 10
653.101
 20
520.401
  0
VERTEX
  8
Layer1
 10
652.506
 20
520.199
  0
VERTEX
  8
Layer1
 10
651.944
 20
519.922
  0
VERTEX
  8
Layer1
 10
651.422
 20
519.573
  0
VERTEX
  8
Layer1
 10
650.949
 20
519.159
  0
VERTEX
  8
Layer1
 10
650.535
 20
518.687
  0
VERTEX
  8
Layer1
 10
650.187
 20
518.165
  0
VERTEX
  8
Layer1
 10
649.909
 20
517.602
  0
VERTEX
  8
Layer1
 10
649.707
 20
517.007
  0
VERTEX
  8
Layer1
 10
649.585
 20
516.391
  0
VERTEX
  8
Layer1
 10
649.543
 20
515.765
  0
VERTEX
  8
Layer1
 10
649.585
 20
515.138
  0
VERTEX
  8
Layer1
 10
649.707
 20
514.522
  0
VERTEX
  8
Layer1
 10
649.909
 20
513.928
  0
VERTEX
  8
Layer1
 10
650.187
 20
513.365
  0
VERTEX
  8
Layer1
 10
650.535
 20
512.843
  0
VERTEX
  8
Layer1
 10
650.949
 20
512.371
  0
VERTEX
  8
Layer1
 10
651.422
 20
511.957
  0
VERTEX
  8
Layer1
 10
651.944
 20
511.608
  0
VERTEX
  8
Layer1
 10
652.506
 20
511.33
  0
VERTEX
  8
Layer1
 10
653.101
 20
511.128
  0
VERTEX
  8
Layer1
 10
653.717
 20
511.006
  0
VERTEX
  8
Layer1
 10
654.343
 20
510.965
  0
VERTEX
  8
Layer1
 10
654.97
 20
511.006
  0
VERTEX
  8
Layer1
 10
655.586
 20
511.128
  0
VERTEX
  8
Layer1
 10
656.18
 20
511.33
  0
VERTEX
  8
Layer1
 10
656.744
 20
511.608
  0
VERTEX
  8
Layer1
 10
657.265
 20
511.957
  0
VERTEX
  8
Layer1
 10
657.737
 20
512.371
  0
VERTEX
  8
Layer1
 10
658.151
 20
512.843
  0
VERTEX
  8
Layer1
 10
658.501
 20
513.365
  0
VERTEX
  8
Layer1
 10
658.779
 20
513.928
  0
VERTEX
  8
Layer1
 10
658.98
 20
514.522
  0
VERTEX
  8
Layer1
 10
659.102
 20
515.138
  0
SEQEND
  0
POLYLINE
  8
Layer1
  6
CONTINUOUS
 62
7
 66
1
 10
0
 20
0
 30
0
 70
1
  0
VERTEX
  8
Layer1
 10
654.343
 20
519.197
  0
VERTEX
  8
Layer1
 10
651.371
 20
517.481
  0
VERTEX
  8
Layer1
 10
651.371
 20
514.049
  0
VERTEX
  8
Layer1
 10
654.343
 20
512.333
  0
VERTEX
  8
Layer1
 10
657.316
 20
514.049
  0
VERTEX
  8
Layer1
 10
657.316
 20
517.481
  0
SEQEND
  0
POLYLINE
  8
Layer1
  6
CONTINUOUS
 62
7
 66
1
 10
0
 20
0
 30
0
 70
1
  0
VERTEX
  8
Layer1
 10
657.775
 20
515.765
  0
VERTEX
  8
Layer1
 10
657.746
 20
516.213
  0
VERTEX
  8
Layer1
 10
657.659
 20
516.653
  0
VERTEX
  8
Layer1
 10
657.515
 20
517.078
  0
VERTEX
  8
Layer1
 10
657.316
 20
517.481
  0
VERTEX
  8
Layer1
 10
657.067
 20
517.854
  0
VERTEX
  8
Layer1
 10
656.771
 20
518.192
  0
VERTEX
  8
Layer1
 10
656.433
 20
518.488
  0
VERTEX
  8
Layer1
 10
656.06
 20
518.737
  0
VERTEX
  8
Layer1
 10
655.657
 20
518.936
  0
VERTEX
  8
Layer1
 10
655.232
 20
519.08
  0
VERTEX
  8
Layer1
 10
654.792
 20
519.167
  0
VERTEX
  8
Layer1
 10
654.343
 20
519.197
  0
VERTEX
  8
Layer1
 10
653.896
 20
519.167
  0
VERTEX
  8
Layer1
 10
653.456
 20
519.08
  0
VERTEX
  8
Layer1
 10
653.031
 20
518.936
  0
VERTEX
  8
Layer1
 10
652.628
 20
518.737
  0
VERTEX
  8
Layer1
 10
652.255
 20
518.488
  0
VERTEX
  8
Layer1
 10
651.917
 20
518.192
  0
VERTEX
  8
Layer1
 10
651.62
 20
517.854
  0
VERTEX
  8
Layer1
 10
651.371
 20
517.481
  0
VERTEX
  8
Layer1
 10
651.173
 20
517.078
  0
VERTEX
  8
Layer1
 10
651.029
 20
516.653
  0
VERTEX
  8
Layer1
 10
650.941
 20
516.213
  0
VERTEX
  8
Layer1
 10
650.912
 20
515.765
  0
VERTEX
  8
Layer1
 10
650.941
 20
515.317
  0
VERTEX
  8
Layer1
 10
651.029
 20
514.876
  0
VERTEX
  8
Layer1
 10
651.173
 20
514.451
  0
VERTEX
  8
Layer1
 10
651.371
 20
514.049
  0
VERTEX
  8
Layer1
 10
651.62
 20
513.675
  0
VERTEX
  8
Layer1
 10
651.917
 20
513.338
  0
VERTEX
  8
Layer1
 10
652.255
 20
513.042
  0
VERTEX
  8
Layer1
 10
652.628
 20
512.793
  0
VERTEX
  8
Layer1
 10
653.031
 20
512.594
  0
VERTEX
  8
Layer1
 10
653.456
 20
512.45
  0
VERTEX
  8
Layer1
 10
653.896
 20
512.362
  0
VERTEX
  8
Layer1
 10
654.343
 20
512.333
  0
VERTEX
  8
Layer1
 10
654.792
 20
512.362
  0
VERTEX
  8
Layer1
 10
655.232
 20
512.45
  0
VERTEX
  8
Layer1
 10
655.657
 20
512.594
  0
VERTEX
  8
Layer1
 10
656.06
 20
512.793
  0
VERTEX
  8
Layer1
 10
656.433
 20
513.042
  0
VERTEX
  8
Layer1
 10
656.771
 20
513.338
  0
VERTEX
  8
Layer1
 10
657.067
 20
513.675
  0
VERTEX
  8
Layer1
 10
657.316
 20
514.049
  0
VERTEX
  8
Layer1
 10
657.515
 20
514.451
  0
VERTEX
  8
Layer1
 10
657.659
 20
514.876
  0
VERTEX
  8
Layer1
 10
657.746
 20
515.317
  0
SEQEND
  0
POLYLINE
  8
Layer1
  6
CONTINUOUS
 62
7
 66
1
 10
0
 20
0
 30
0
 70
1
  0
VERTEX
  8
Layer1
 10
695.144
 20
572.765
  0
VERTEX
  8
Layer1
 10
695.102
 20
573.391
  0
VERTEX
  8
Layer1
 10
694.979
 20
574.007
  0
VERTEX
  8
Layer1
 10
694.779
 20
574.602
  0
VERTEX
  8
Layer1
 10
694.501
 20
575.165
  0
VERTEX
  8
Layer1
 10
694.151
 20
575.687
  0
VERTEX
  8
Layer1
 10
693.737
 20
576.159
  0
VERTEX
  8
Layer1
 10
693.265
 20
576.573
  0
VERTEX
  8
Layer1
 10
692.744
 20
576.922
  0
VERTEX
  8
Layer1
 10
692.18
 20
577.199
  0
VERTEX
  8
Layer1
 10
691.585
 20
577.401
  0
VERTEX
  8
Layer1
 10
690.969
 20
577.524
  0
VERTEX
  8
Layer1
 10
690.343
 20
577.565
  0
VERTEX
  8
Layer1
 10
689.717
 20
577.524
  0
VERTEX
  8
Layer1
 10
689.101
 20
577.401
  0
VERTEX
  8
Layer1
 10
688.506
 20
577.199
  0
VERTEX
  8
Layer1
 10
687.944
 20
576.922
  0
VERTEX
  8
Layer1
 10
687.421
 20
576.573
  0
VERTEX
  8
Layer1
 10
686.949
 20
576.159
  0
VERTEX
  8
Layer1
 10
686.535
 20
575.687
  0
VERTEX
  8
Layer1
 10
686.187
 20
575.165
  0
VERTEX
  8
Layer1
 10
685.909
 20
574.602
  0
VERTEX
  8
Layer1
 10
685.707
 20
574.007
  0
VERTEX
  8
Layer1
 10
685.584
 20
573.391
  0
VERTEX
  8
Layer1
 10
685.543
 20
572.765
  0
VERTEX
  8
Layer1
 10
685.584
 20
572.138
  0
VERTEX
  8
Layer1
 10
685.707
 20
571.522
  0
VERTEX
  8
Layer1
 10
685.909
 20
570.928
  0
VERTEX
  8
Layer1
 10
686.187
 20
570.365
  0
VERTEX
  8
Layer1
 10
686.535
 20
569.843
  0
VERTEX
  8
Layer1
 10
686.949
 20
569.371
  0
VERTEX
  8
Layer1
 10
687.421
 20
568.957
  0
VERTEX
  8
Layer1
 10
687.944
 20
568.608
  0
VERTEX
  8
Layer1
 10
688.506
 20
568.33
  0
VERTEX
  8
Layer1
 10
689.101
 20
568.128
  0
VERTEX
  8
Layer1
 10
689.717
 20
568.006
  0
VERTEX
  8
Layer1
 10
690.343
 20
567.965
  0
VERTEX
  8
Layer1
 10
690.969
 20
568.006
  0
VERTEX
  8
Layer1
 10
691.585
 20
568.128
  0
VERTEX
  8
Layer1
 10
692.18
 20
568.33
  0
VERTEX
  8
Layer1
 10
692.744
 20
568.608
  0
VERTEX
  8
Layer1
 10
693.265
 20
568.957
  0
VERTEX
  8
Layer1
 10
693.737
 20
569.371
  0
VERTEX
  8
Layer1
 10
694.151
 20
569.843
  0
VERTEX
  8
Layer1
 10
694.501
 20
570.365
  0
VERTEX
  8
Layer1
 10
694.779
 20
570.928
  0
VERTEX
  8
Layer1
 10
694.979
 20
571.522
  0
VERTEX
  8
Layer1
 10
695.102
 20
572.138
  0
SEQEND
  0
POLYLINE
  8
Layer1
  6
CONTINUOUS
 62
7
 66
1
 10
0
 20
0
 30
0
 70
1
  0
VERTEX
  8
Layer1
 10
690.343
 20
576.197
  0
VERTEX
  8
Layer1
 10
687.371
 20
574.481
  0
VERTEX
  8
Layer1
 10
687.371
 20
571.049
  0
VERTEX
  8
Layer1
 10
690.343
 20
569.333
  0
VERTEX
  8
Layer1
 10
693.315
 20
571.049
  0
VERTEX
  8
Layer1
 10
693.315
 20
574.481
  0
SEQEND
  0
POLYLINE
  8
Layer1
  6
CONTINUOUS
 62
7
 66
1
 10
0
 20
0
 30
0
 70
1
  0
VERTEX
  8
Layer1
 10
693.775
 20
572.765
  0
VERTEX
  8
Layer1
 10
693.746
 20
573.213
  0
VERTEX
  8
Layer1
 10
693.659
 20
573.653
  0
VERTEX
  8
Layer1
 10
693.515
 20
574.078
  0
VERTEX
  8
Layer1
 10
693.315
 20
574.481
  0
VERTEX
  8
Layer1
 10
693.067
 20
574.854
  0
VERTEX
  8
Layer1
 10
692.771
 20
575.192
  0
VERTEX
  8
Layer1
 10
692.433
 20
575.488
  0
VERTEX
  8
Layer1
 10
692.06
 20
575.737
  0
VERTEX
  8
Layer1
 10
691.657
 20
575.936
  0
VERTEX
  8
Layer1
 10
691.232
 20
576.08
  0
VERTEX
  8
Layer1
 10
690.792
 20
576.167
  0
VERTEX
  8
Layer1
 10
690.343
 20
576.197
  0
VERTEX
  8
Layer1
 10
689.896
 20
576.167
  0
VERTEX
  8
Layer1
 10
689.456
 20
576.08
  0
VERTEX
  8
Layer1
 10
689.031
 20
575.936
  0
VERTEX
  8
Layer1
 10
688.628
 20
575.737
  0
VERTEX
  8
Layer1
 10
688.255
 20
575.488
  0
VERTEX
  8
Layer1
 10
687.917
 20
575.192
  0
VERTEX
  8
Layer1
 10
687.62
 20
574.854
  0
VERTEX
  8
Layer1
 10
687.371
 20
574.481
  0
VERTEX
  8
Layer1
 10
687.173
 20
574.078
  0
VERTEX
  8
Layer1
 10
687.029
 20
573.653
  0
VERTEX
  8
Layer1
 10
686.94
 20
573.213
  0
VERTEX
  8
Layer1
 10
686.911
 20
572.765
  0
VERTEX
  8
Layer1
 10
686.94
 20
572.317
  0
VERTEX
  8
Layer1
 10
687.029
 20
571.876
  0
VERTEX
  8
Layer1
 10
687.173
 20
571.451
  0
VERTEX
  8
Layer1
 10
687.371
 20
571.049
  0
VERTEX
  8
Layer1
 10
687.62
 20
570.675
  0
VERTEX
  8
Layer1
 10
687.917
 20
570.338
  0
VERTEX
  8
Layer1
 10
688.255
 20
570.042
  0
VERTEX
  8
Layer1
 10
688.628
 20
569.793
  0
VERTEX
  8
Layer1
 10
689.031
 20
569.594
  0
VERTEX
  8
Layer1
 10
689.456
 20
569.45
  0
VERTEX
  8
Layer1
 10
689.896
 20
569.362
  0
VERTEX
  8
Layer1
 10
690.343
 20
569.333
  0
VERTEX
  8
Layer1
 10
690.792
 20
569.362
  0
VERTEX
  8
Layer1
 10
691.232
 20
569.45
  0
VERTEX
  8
Layer1
 10
691.657
 20
569.594
  0
VERTEX
  8
Layer1
 10
692.06
 20
569.793
  0
VERTEX
  8
Layer1
 10
692.433
 20
570.042
  0
VERTEX
  8
Layer1
 10
692.771
 20
570.338
  0
VERTEX
  8
Layer1
 10
693.067
 20
570.675
  0
VERTEX
  8
Layer1
 10
693.315
 20
571.049
  0
VERTEX
  8
Layer1
 10
693.515
 20
571.451
  0
VERTEX
  8
Layer1
 10
693.659
 20
571.876
  0
VERTEX
  8
Layer1
 10
693.746
 20
572.317
  0
SEQEND
  0
POLYLINE
  8
Layer1
  6
CONTINUOUS
 62
7
 66
1
 10
0
 20
0
 30
0
 70
1
  0
VERTEX
  8
Layer1
 10
659.144
 20
572.765
  0
VERTEX
  8
Layer1
 10
659.102
 20
573.392
  0
VERTEX
  8
Layer1
 10
658.98
 20
574.008
  0
VERTEX
  8
Layer1
 10
658.779
 20
574.602
  0
VERTEX
  8
Layer1
 10
658.501
 20
575.165
  0
VERTEX
  8
Layer1
 10
658.151
 20
575.687
  0
VERTEX
  8
Layer1
 10
657.737
 20
576.159
  0
VERTEX
  8
Layer1
 10
657.265
 20
576.573
  0
VERTEX
  8
Layer1
 10
656.744
 20
576.922
  0
VERTEX
  8
Layer1
 10
656.18
 20
577.2
  0
VERTEX
  8
Layer1
 10
655.586
 20
577.402
  0
VERTEX
  8
Layer1
 10
654.97
 20
577.524
  0
VERTEX
  8
Layer1
 10
654.343
 20
577.565
  0
VERTEX
  8
Layer1
 10
653.717
 20
577.524
  0
VERTEX
  8
Layer1
 10
653.101
 20
577.402
  0
VERTEX
  8
Layer1
 10
652.506
 20
577.2
  0
VERTEX
  8
Layer1
 10
651.944
 20
576.922
  0
VERTEX
  8
Layer1
 10
651.422
 20
576.573
  0
VERTEX
  8
Layer1
 10
650.949
 20
576.159
  0
VERTEX
  8
Layer1
 10
650.535
 20
575.687
  0
VERTEX
  8
Layer1
 10
650.187
 20
575.165
  0
VERTEX
  8
Layer1
 10
649.909
 20
574.602
  0
VERTEX
  8
Layer1
 10
649.707
 20
574.008
  0
VERTEX
  8
Layer1
 10
649.585
 20
573.392
  0
VERTEX
  8
Layer1
 10
649.543
 20
572.765
  0
VERTEX
  8
Layer1
 10
649.585
 20
572.139
  0
VERTEX
  8
Layer1
 10
649.707
 20
571.523
  0
VERTEX
  8
Layer1
 10
649.909
 20
570.928
  0
VERTEX
  8
Layer1
 10
650.187
 20
570.365
  0
VERTEX
  8
Layer1
 10
650.535
 20
569.843
  0
VERTEX
  8
Layer1
 10
650.949
 20
569.371
  0
VERTEX
  8
Layer1
 10
651.422
 20
568.957
  0
VERTEX
  8
Layer1
 10
651.944
 20
568.608
  0
VERTEX
  8
Layer1
 10
652.506
 20
568.331
  0
VERTEX
  8
Layer1
 10
653.101
 20
568.129
  0
VERTEX
  8
Layer1
 10
653.717
 20
568.006
  0
VERTEX
  8
Layer1
 10
654.343
 20
567.965
  0
VERTEX
  8
Layer1
 10
654.97
 20
568.006
  0
VERTEX
  8
Layer1
 10
655.586
 20
568.129
  0
VERTEX
  8
Layer1
 10
656.18
 20
568.331
  0
VERTEX
  8
Layer1
 10
656.744
 20
568.608
  0
VERTEX
  8
Layer1
 10
657.265
 20
568.957
  0
VERTEX
  8
Layer1
 10
657.737
 20
569.371
  0
VERTEX
  8
Layer1
 10
658.151
 20
569.843
  0
VERTEX
  8
Layer1
 10
658.501
 20
570.365
  0
VERTEX
  8
Layer1
 10
658.779
 20
570.928
  0
VERTEX
  8
Layer1
 10
658.98
 20
571.523
  0
VERTEX
  8
Layer1
 10
659.102
 20
572.139
  0
SEQEND
  0
POLYLINE
  8
Layer1
  6
CONTINUOUS
 62
7
 66
1
 10
0
 20
0
 30
0
 70
1
  0
VERTEX
  8
Layer1
 10
657.775
 20
572.765
  0
VERTEX
  8
Layer1
 10
657.746
 20
573.213
  0
VERTEX
  8
Layer1
 10
657.659
 20
573.654
  0
VERTEX
  8
Layer1
 10
657.515
 20
574.079
  0
VERTEX
  8
Layer1
 10
657.316
 20
574.481
  0
VERTEX
  8
Layer1
 10
657.067
 20
574.855
  0
VERTEX
  8
Layer1
 10
656.771
 20
575.192
  0
VERTEX
  8
Layer1
 10
656.433
 20
575.488
  0
VERTEX
  8
Layer1
 10
656.06
 20
575.737
  0
VERTEX
  8
Layer1
 10
655.657
 20
575.936
  0
VERTEX
  8
Layer1
 10
655.232
 20
576.08
  0
VERTEX
  8
Layer1
 10
654.792
 20
576.168
  0
VERTEX
  8
Layer1
 10
654.343
 20
576.197
  0
VERTEX
  8
Layer1
 10
653.896
 20
576.168
  0
VERTEX
  8
Layer1
 10
653.456
 20
576.08
  0
VERTEX
  8
Layer1
 10
653.031
 20
575.936
  0
VERTEX
  8
Layer1
 10
652.628
 20
575.737
  0
VERTEX
  8
Layer1
 10
652.255
 20
575.488
  0
VERTEX
  8
Layer1
 10
651.917
 20
575.192
  0
VERTEX
  8
Layer1
 10
651.62
 20
574.855
  0
VERTEX
  8
Layer1
 10
651.371
 20
574.481
  0
VERTEX
  8
Layer1
 10
651.173
 20
574.079
  0
VERTEX
  8
Layer1
 10
651.029
 20
573.654
  0
VERTEX
  8
Layer1
 10
650.941
 20
573.213
  0
VERTEX
  8
Layer1
 10
650.912
 20
572.765
  0
VERTEX
  8
Layer1
 10
650.941
 20
572.317
  0
VERTEX
  8
Layer1
 10
651.029
 20
571.877
  0
VERTEX
  8
Layer1
 10
651.173
 20
571.452
  0
VERTEX
  8
Layer1
 10
651.371
 20
571.049
  0
VERTEX
  8
Layer1
 10
651.62
 20
570.676
  0
VERTEX
  8
Layer1
 10
651.917
 20
570.338
  0
VERTEX
  8
Layer1
 10
652.255
 20
570.042
  0
VERTEX
  8
Layer1
 10
652.628
 20
569.793
  0
VERTEX
  8
Layer1
 10
653.031
 20
569.595
  0
VERTEX
  8
Layer1
 10
653.456
 20
569.45
  0
VERTEX
  8
Layer1
 10
653.896
 20
569.363
  0
VERTEX
  8
Layer1
 10
654.343
 20
569.333
  0
VERTEX
  8
Layer1
 10
654.792
 20
569.363
  0
VERTEX
  8
Layer1
 10
655.232
 20
569.45
  0
VERTEX
  8
Layer1
 10
655.657
 20
569.595
  0
VERTEX
  8
Layer1
 10
656.06
 20
569.793
  0
VERTEX
  8
Layer1
 10
656.433
 20
570.042
  0
VERTEX
  8
Layer1
 10
656.771
 20
570.338
  0
VERTEX
  8
Layer1
 10
657.067
 20
570.676
  0
VERTEX
  8
Layer1
 10
657.316
 20
571.049
  0
VERTEX
  8
Layer1
 10
657.515
 20
571.452
  0
VERTEX
  8
Layer1
 10
657.659
 20
571.877
  0
VERTEX
  8
Layer1
 10
657.746
 20
572.317
  0
SEQEND
  0
POLYLINE
  8
Layer1
  6
CONTINUOUS
 62
7
 66
1
 10
0
 20
0
 30
0
 70
1
  0
VERTEX
  8
Layer1
 10
654.343
 20
576.197
  0
VERTEX
  8
Layer1
 10
651.371
 20
574.481
  0
VERTEX
  8
Layer1
 10
651.371
 20
571.049
  0
VERTEX
  8
Layer1
 10
654.343
 20
569.333
  0
VERTEX
  8
Layer1
 10
657.316
 20
571.049
  0
VERTEX
  8
Layer1
 10
657.316
 20
574.481
  0
SEQEND
  0
CIRCLE
  8
Layer1
  6
CONTINUOUS
 62
7
 10
659.843
 20
589.265
 40
4.5
  0
CIRCLE
  8
Layer1
  6
CONTINUOUS
 62
7
 10
659.843
 20
589.265
 40
7
  0
LINE
  8
Layer1
  6
CENTER1
 62
7
 10
659.843
 20
600.585
 11
659.843
 21
579.814
  0
LINE
  8
Layer1
  6
CENTER1
 62
7
 10
650.057
 20
589.265
 11
668.197
 21
589.265
  0
POLYLINE
  8
Layer1
  6
CONTINUOUS
 62
7
 66
1
 10
0
 20
0
 30
0
  0
VERTEX
  8
Layer1
 10
733.65
 20
586.765
  0
VERTEX
  8
Layer1
 10
733.818
 20
587.015
  0
VERTEX
  8
Layer1
 10
734.078
 20
587.543
  0
VERTEX
  8
Layer1
 10
734.267
 20
588.1
  0
VERTEX
  8
Layer1
 10
734.381
 20
588.677
  0
VERTEX
  8
Layer1
 10
734.42
 20
589.265
  0
VERTEX
  8
Layer1
 10
734.381
 20
589.852
  0
VERTEX
  8
Layer1
 10
734.267
 20
590.429
  0
VERTEX
  8
Layer1
 10
734.078
 20
590.987
  0
VERTEX
  8
Layer1
 10
733.818
 20
591.515
  0
VERTEX
  8
Layer1
 10
733.491
 20
592.004
  0
VERTEX
  8
Layer1
 10
733.102
 20
592.447
  0
VERTEX
  8
Layer1
 10
732.659
 20
592.835
  0
VERTEX
  8
Layer1
 10
732.17
 20
593.162
  0
VERTEX
  8
Layer1
 10
731.642
 20
593.422
  0
VERTEX
  8
Layer1
 10
731.085
 20
593.611
  0
VERTEX
  8
Layer1
 10
730.507
 20
593.726
  0
VERTEX
  8
Layer1
 10
729.92
 20
593.765
  0
VERTEX
  8
Layer1
 10
729.333
 20
593.726
  0
VERTEX
  8
Layer1
 10
728.755
 20
593.611
  0
VERTEX
  8
Layer1
 10
728.198
 20
593.422
  0
VERTEX
  8
Layer1
 10
727.67
 20
593.162
  0
VERTEX
  8
Layer1
 10
727.181
 20
592.835
  0
VERTEX
  8
Layer1
 10
726.738
 20
592.447
  0
VERTEX
  8
Layer1
 10
726.351
 20
592.004
  0
VERTEX
  8
Layer1
 10
726.024
 20
591.515
  0
VERTEX
  8
Layer1
 10
725.763
 20
590.987
  0
VERTEX
  8
Layer1
 10
725.573
 20
590.429
  0
VERTEX
  8
Layer1
 10
725.458
 20
589.852
  0
VERTEX
  8
Layer1
 10
725.42
 20
589.265
  0
VERTEX
  8
Layer1
 10
725.458
 20
588.677
  0
VERTEX
  8
Layer1
 10
725.573
 20
588.1
  0
VERTEX
  8
Layer1
 10
725.763
 20
587.543
  0
VERTEX
  8
Layer1
 10
726.024
 20
587.015
  0
VERTEX
  8
Layer1
 10
726.19
 20
586.765
  0
SEQEND
  0
LINE
  8
Layer1
  6
CENTER1
 62
7
 10
720.21
 20
589.265
 11
738.351
 21
589.265
  0
CIRCLE
  8
Layer1
  6
CONTINUOUS
 62
7
 10
659.843
 20
499.265
 40
4.5
  0
CIRCLE
  8
Layer1
  6
CONTINUOUS
 62
7
 10
659.843
 20
499.265
 40
7
  0
LINE
  8
Layer1
  6
CENTER1
 62
7
 10
659.843
 20
510.585
 11
659.843
 21
489.814
  0
LINE
  8
Layer1
  6
CENTER1
 62
7
 10
650.134
 20
499.265
 11
668.274
 21
499.265
  0
POLYLINE
  8
Layer1
  6
CONTINUOUS
 62
7
 66
1
 10
0
 20
0
 30
0
  0
VERTEX
  8
Layer1
 10
726.113
 20
501.765
  0
VERTEX
  8
Layer1
 10
725.947
 20
501.515
  0
VERTEX
  8
Layer1
 10
725.686
 20
500.987
  0
VERTEX
  8
Layer1
 10
725.496
 20
500.429
  0
VERTEX
  8
Layer1
 10
725.381
 20
499.852
  0
VERTEX
  8
Layer1
 10
725.343
 20
499.265
  0
VERTEX
  8
Layer1
 10
725.381
 20
498.677
  0
VERTEX
  8
Layer1
 10
725.496
 20
498.1
  0
VERTEX
  8
Layer1
 10
725.686
 20
497.543
  0
VERTEX
  8
Layer1
 10
725.947
 20
497.015
  0
VERTEX
  8
Layer1
 10
726.274
 20
496.525
  0
VERTEX
  8
Layer1
 10
726.661
 20
496.083
  0
VERTEX
  8
Layer1
 10
727.104
 20
495.695
  0
VERTEX
  8
Layer1
 10
727.593
 20
495.368
  0
VERTEX
  8
Layer1
 10
728.121
 20
495.107
  0
VERTEX
  8
Layer1
 10
728.678
 20
494.918
  0
VERTEX
  8
Layer1
 10
729.256
 20
494.803
  0
VERTEX
  8
Layer1
 10
729.843
 20
494.765
  0
VERTEX
  8
Layer1
 10
730.43
 20
494.803
  0
VERTEX
  8
Layer1
 10
731.008
 20
494.918
  0
VERTEX
  8
Layer1
 10
731.565
 20
495.107
  0
VERTEX
  8
Layer1
 10
732.093
 20
495.368
  0
VERTEX
  8
Layer1
 10
732.582
 20
495.695
  0
VERTEX
  8
Layer1
 10
733.025
 20
496.083
  0
VERTEX
  8
Layer1
 10
733.414
 20
496.525
  0
VERTEX
  8
Layer1
 10
733.741
 20
497.015
  0
VERTEX
  8
Layer1
 10
734.001
 20
497.543
  0
VERTEX
  8
Layer1
 10
734.19
 20
498.1
  0
VERTEX
  8
Layer1
 10
734.304
 20
498.677
  0
VERTEX
  8
Layer1
 10
734.343
 20
499.265
  0
VERTEX
  8
Layer1
 10
734.304
 20
499.852
  0
VERTEX
  8
Layer1
 10
734.19
 20
500.429
  0
VERTEX
  8
Layer1
 10
734.001
 20
500.987
  0
VERTEX
  8
Layer1
 10
733.741
 20
501.515
  0
VERTEX
  8
Layer1
 10
733.573
 20
501.765
  0
SEQEND
  0
POLYLINE
  8
Layer1
  6
CONTINUOUS
 62
7
 66
1
 10
0
 20
0
 30
0
  0
VERTEX
  8
Layer1
 10
723.315
 20
501.765
  0
VERTEX
  8
Layer1
 10
723.082
 20
501.076
  0
VERTEX
  8
Layer1
 10
722.904
 20
500.178
  0
VERTEX
  8
Layer1
 10
722.843
 20
499.265
  0
VERTEX
  8
Layer1
 10
722.904
 20
498.351
  0
VERTEX
  8
Layer1
 10
723.082
 20
497.453
  0
VERTEX
  8
Layer1
 10
723.377
 20
496.586
  0
VERTEX
  8
Layer1
 10
723.782
 20
495.765
  0
VERTEX
  8
Layer1
 10
724.29
 20
495.003
  0
VERTEX
  8
Layer1
 10
724.894
 20
494.315
  0
VERTEX
  8
Layer1
 10
725.582
 20
493.711
  0
VERTEX
  8
Layer1
 10
726.343
 20
493.203
  0
VERTEX
  8
Layer1
 10
727.165
 20
492.798
  0
VERTEX
  8
Layer1
 10
728.032
 20
492.503
  0
VERTEX
  8
Layer1
 10
728.929
 20
492.325
  0
VERTEX
  8
Layer1
 10
729.843
 20
492.265
  0
VERTEX
  8
Layer1
 10
730.757
 20
492.325
  0
VERTEX
  8
Layer1
 10
731.656
 20
492.503
  0
VERTEX
  8
Layer1
 10
732.523
 20
492.798
  0
VERTEX
  8
Layer1
 10
733.343
 20
493.203
  0
VERTEX
  8
Layer1
 10
734.104
 20
493.711
  0
VERTEX
  8
Layer1
 10
734.793
 20
494.315
  0
VERTEX
  8
Layer1
 10
735.397
 20
495.003
  0
VERTEX
  8
Layer1
 10
735.906
 20
495.765
  0
VERTEX
  8
Layer1
 10
736.311
 20
496.586
  0
VERTEX
  8
Layer1
 10
736.604
 20
497.453
  0
VERTEX
  8
Layer1
 10
736.784
 20
498.351
  0
VERTEX
  8
Layer1
 10
736.843
 20
499.265
  0
VERTEX
  8
Layer1
 10
736.784
 20
500.178
  0
VERTEX
  8
Layer1
 10
736.604
 20
501.076
  0
VERTEX
  8
Layer1
 10
736.371
 20
501.765
  0
SEQEND
  0
LINE
  8
Layer1
  6
CENTER1
 62
7
 10
720.133
 20
499.265
 11
738.274
 21
499.265
  0
POLYLINE
  8
Layer1
  6
CONTINUOUS
 62
7
 66
1
 10
0
 20
0
 30
0
  0
VERTEX
  8
Layer1
 10
736.448
 20
586.765
  0
VERTEX
  8
Layer1
 10
736.681
 20
587.453
  0
VERTEX
  8
Layer1
 10
736.861
 20
588.351
  0
VERTEX
  8
Layer1
 10
736.92
 20
589.265
  0
VERTEX
  8
Layer1
 10
736.861
 20
590.178
  0
VERTEX
  8
Layer1
 10
736.681
 20
591.076
  0
VERTEX
  8
Layer1
 10
736.388
 20
591.944
  0
VERTEX
  8
Layer1
 10
735.983
 20
592.765
  0
VERTEX
  8
Layer1
 10
735.474
 20
593.526
  0
VERTEX
  8
Layer1
 10
734.87
 20
594.214
  0
VERTEX
  8
Layer1
 10
734.181
 20
594.818
  0
VERTEX
  8
Layer1
 10
733.42
 20
595.327
  0
VERTEX
  8
Layer1
 10
732.6
 20
595.732
  0
VERTEX
  8
Layer1
 10
731.733
 20
596.026
  0
VERTEX
  8
Layer1
 10
730.834
 20
596.205
  0
VERTEX
  8
Layer1
 10
729.92
 20
596.265
  0
VERTEX
  8
Layer1
 10
729.006
 20
596.205
  0
VERTEX
  8
Layer1
 10
728.109
 20
596.026
  0
VERTEX
  8
Layer1
 10
727.242
 20
595.732
  0
VERTEX
  8
Layer1
 10
726.42
 20
595.327
  0
VERTEX
  8
Layer1
 10
725.659
 20
594.818
  0
VERTEX
  8
Layer1
 10
724.971
 20
594.214
  0
VERTEX
  8
Layer1
 10
724.367
 20
593.526
  0
VERTEX
  8
Layer1
 10
723.859
 20
592.765
  0
VERTEX
  8
Layer1
 10
723.454
 20
591.944
  0
VERTEX
  8
Layer1
 10
723.159
 20
591.076
  0
VERTEX
  8
Layer1
 10
722.981
 20
590.178
  0
VERTEX
  8
Layer1
 10
722.92
 20
589.265
  0
VERTEX
  8
Layer1
 10
722.981
 20
588.351
  0
VERTEX
  8
Layer1
 10
723.159
 20
587.453
  0
VERTEX
  8
Layer1
 10
723.392
 20
586.765
  0
SEQEND
  0
LINE
  8
Layer1
  6
CENTER1
 62
7
 10
729.843
 20
597.901
 11
729.843
 21
584.08
  0
LINE
  8
Layer1
  6
CENTER1
 62
7
 10
729.843
 20
502.968
 11
729.843
 21
491.017
  0
LINE
  8
Layer1
  6
CENTER1
 62
7
 10
741.834
 20
514.765
 11
773.992
 21
514.765
  0
LINE
  8
Layer1
  6
CENTER1
 62
7
 10
744.063
 20
573.765
 11
771.445
 21
573.765
  0
LINE
  8
Layer1
  6
CONTINUOUS
 62
7
 10
615.343
 20
280.536
 11
615.343
 21
240.81
  0
TEXT
  8
Layer1
 62
7
 10
352.851
 20
350.536
 72
1
 11
352.851
 21
350.536
 40
4
 41
1
 50
90
  1
 90 
  0
LINE
  8
Layer1
  6
CONTINUOUS
 62
7
 10
412.007
 20
305.536
 11
351.851
 21
305.536
  0
LINE
  8
Layer1
  6
CONTINUOUS
 62
7
 10
391.007
 20
395.536
 11
351.851
 21
395.536
  0
POLYLINE
  8
Layer1
  6
CONTINUOUS
 62
7
 66
1
 10
0
 20
0
 30
0
  0
VERTEX
  8
Layer1
 10
352.851
 20
305.536
  0
VERTEX
  8
Layer1
 10
352.851
 20
395.536
  0
SEQEND
  0
POLYLINE
  8
Layer1
  6
CONTINUOUS
 62
7
 66
1
 10
0
 20
0
 30
0
  0
VERTEX
  8
Layer1
 10
353.629
 20
308.434
  0
VERTEX
  8
Layer1
 10
352.851
 20
305.536
  0
VERTEX
  8
Layer1
 10
352.076
 20
308.434
  0
SEQEND
  0
POLYLINE
  8
Layer1
  6
CONTINUOUS
 62
7
 66
1
 10
0
 20
0
 30
0
  0
VERTEX
  8
Layer1
 10
352.076
 20
392.638
  0
VERTEX
  8
Layer1
 10
352.851
 20
395.536
  0
VERTEX
  8
Layer1
 10
353.629
 20
392.638
  0
SEQEND
  0
TEXT
  8
Layer1
 62
7
 10
378.322
 20
387.536
 72
1
 11
378.322
 21
387.536
 40
4
 41
1
 50
90
  1
 16 
  0
LINE
  8
Layer1
  6
CONTINUOUS
 62
7
 10
400.007
 20
395.536
 11
377.322
 21
395.536
  0
LINE
  8
Layer1
  6
CONTINUOUS
 62
7
 10
399.007
 20
379.536
 11
377.322
 21
379.536
  0
POLYLINE
  8
Layer1
  6
CONTINUOUS
 62
7
 66
1
 10
0
 20
0
 30
0
  0
VERTEX
  8
Layer1
 10
378.322
 20
395.536
  0
VERTEX
  8
Layer1
 10
378.322
 20
379.536
  0
SEQEND
  0
POLYLINE
  8
Layer1
  6
CONTINUOUS
 62
7
 66
1
 10
0
 20
0
 30
0
  0
VERTEX
  8
Layer1
 10
377.546
 20
392.638
  0
VERTEX
  8
Layer1
 10
378.322
 20
395.536
  0
VERTEX
  8
Layer1
 10
379.099
 20
392.638
  0
SEQEND
  0
POLYLINE
  8
Layer1
  6
CONTINUOUS
 62
7
 66
1
 10
0
 20
0
 30
0
  0
VERTEX
  8
Layer1
 10
379.099
 20
382.434
  0
VERTEX
  8
Layer1
 10
378.322
 20
379.536
  0
VERTEX
  8
Layer1
 10
377.546
 20
382.434
  0
SEQEND
  0
POLYLINE
  8
Layer1
  6
CONTINUOUS
 62
7
 66
1
 10
0
 20
0
 30
0
 70
1
  0
VERTEX
  8
Layer1
 10
424.507
 20
314.036
  0
VERTEX
  8
Layer1
 10
424.464
 20
314.689
  0
VERTEX
  8
Layer1
 10
424.337
 20
315.33
  0
VERTEX
  8
Layer1
 10
424.126
 20
315.95
  0
VERTEX
  8
Layer1
 10
423.837
 20
316.536
  0
VERTEX
  8
Layer1
 10
423.474
 20
317.08
  0
VERTEX
  8
Layer1
 10
423.042
 20
317.572
  0
VERTEX
  8
Layer1
 10
422.551
 20
318.003
  0
VERTEX
  8
Layer1
 10
422.007
 20
318.366
  0
VERTEX
  8
Layer1
 10
421.42
 20
318.656
  0
VERTEX
  8
Layer1
 10
420.801
 20
318.866
  0
VERTEX
  8
Layer1
 10
420.16
 20
318.993
  0
VERTEX
  8
Layer1
 10
419.507
 20
319.036
  0
VERTEX
  8
Layer1
 10
418.854
 20
318.993
  0
VERTEX
  8
Layer1
 10
418.213
 20
318.866
  0
VERTEX
  8
Layer1
 10
417.594
 20
318.656
  0
VERTEX
  8
Layer1
 10
417.007
 20
318.366
  0
VERTEX
  8
Layer1
 10
416.463
 20
318.003
  0
VERTEX
  8
Layer1
 10
415.971
 20
317.572
  0
VERTEX
  8
Layer1
 10
415.54
 20
317.08
  0
VERTEX
  8
Layer1
 10
415.177
 20
316.536
  0
VERTEX
  8
Layer1
 10
414.888
 20
315.95
  0
VERTEX
  8
Layer1
 10
414.677
 20
315.33
  0
VERTEX
  8
Layer1
 10
414.55
 20
314.689
  0
VERTEX
  8
Layer1
 10
414.507
 20
314.036
  0
VERTEX
  8
Layer1
 10
414.55
 20
313.384
  0
VERTEX
  8
Layer1
 10
414.677
 20
312.742
  0
VERTEX
  8
Layer1
 10
414.888
 20
312.123
  0
VERTEX
  8
Layer1
 10
415.177
 20
311.536
  0
VERTEX
  8
Layer1
 10
415.54
 20
310.992
  0
VERTEX
  8
Layer1
 10
415.971
 20
310.501
  0
VERTEX
  8
Layer1
 10
416.463
 20
310.07
  0
VERTEX
  8
Layer1
 10
417.007
 20
309.706
  0
VERTEX
  8
Layer1
 10
417.594
 20
309.417
  0
VERTEX
  8
Layer1
 10
418.213
 20
309.207
  0
VERTEX
  8
Layer1
 10
418.854
 20
309.079
  0
VERTEX
  8
Layer1
 10
419.507
 20
309.036
  0
VERTEX
  8
Layer1
 10
420.16
 20
309.079
  0
VERTEX
  8
Layer1
 10
420.801
 20
309.207
  0
VERTEX
  8
Layer1
 10
421.42
 20
309.417
  0
VERTEX
  8
Layer1
 10
422.007
 20
309.706
  0
VERTEX
  8
Layer1
 10
422.551
 20
310.07
  0
VERTEX
  8
Layer1
 10
423.042
 20
310.501
  0
VERTEX
  8
Layer1
 10
423.474
 20
310.992
  0
VERTEX
  8
Layer1
 10
423.837
 20
311.536
  0
VERTEX
  8
Layer1
 10
424.126
 20
312.123
  0
VERTEX
  8
Layer1
 10
424.337
 20
312.742
  0
VERTEX
  8
Layer1
 10
424.464
 20
313.384
  0
SEQEND
  0
POLYLINE
  8
Layer1
  6
CONTINUOUS
 62
7
 66
1
 10
0
 20
0
 30
0
 70
1
  0
VERTEX
  8
Layer1
 10
419.507
 20
317.611
  0
VERTEX
  8
Layer1
 10
416.411
 20
315.824
  0
VERTEX
  8
Layer1
 10
416.411
 20
312.249
  0
VERTEX
  8
Layer1
 10
419.507
 20
310.461
  0
VERTEX
  8
Layer1
 10
422.603
 20
312.249
  0
VERTEX
  8
Layer1
 10
422.603
 20
315.824
  0
SEQEND
  0
POLYLINE
  8
Layer1
  6
CONTINUOUS
 62
7
 66
1
 10
0
 20
0
 30
0
 70
1
  0
VERTEX
  8
Layer1
 10
423.082
 20
314.036
  0
VERTEX
  8
Layer1
 10
423.051
 20
314.503
  0
VERTEX
  8
Layer1
 10
422.96
 20
314.962
  0
VERTEX
  8
Layer1
 10
422.81
 20
315.404
  0
VERTEX
  8
Layer1
 10
422.603
 20
315.824
  0
VERTEX
  8
Layer1
 10
422.343
 20
316.213
  0
VERTEX
  8
Layer1
 10
422.035
 20
316.564
  0
VERTEX
  8
Layer1
 10
421.683
 20
316.873
  0
VERTEX
  8
Layer1
 10
421.293
 20
317.132
  0
VERTEX
  8
Layer1
 10
420.875
 20
317.339
  0
VERTEX
  8
Layer1
 10
420.432
 20
317.489
  0
VERTEX
  8
Layer1
 10
419.974
 20
317.581
  0
VERTEX
  8
Layer1
 10
419.507
 20
317.611
  0
VERTEX
  8
Layer1
 10
419.04
 20
317.581
  0
VERTEX
  8
Layer1
 10
418.582
 20
317.489
  0
VERTEX
  8
Layer1
 10
418.139
 20
317.339
  0
VERTEX
  8
Layer1
 10
417.719
 20
317.132
  0
VERTEX
  8
Layer1
 10
417.331
 20
316.873
  0
VERTEX
  8
Layer1
 10
416.979
 20
316.564
  0
VERTEX
  8
Layer1
 10
416.671
 20
316.213
  0
VERTEX
  8
Layer1
 10
416.411
 20
315.824
  0
VERTEX
  8
Layer1
 10
416.204
 20
315.404
  0
VERTEX
  8
Layer1
 10
416.053
 20
314.962
  0
VERTEX
  8
Layer1
 10
415.963
 20
314.503
  0
VERTEX
  8
Layer1
 10
415.932
 20
314.036
  0
VERTEX
  8
Layer1
 10
415.963
 20
313.57
  0
VERTEX
  8
Layer1
 10
416.053
 20
313.111
  0
VERTEX
  8
Layer1
 10
416.204
 20
312.668
  0
VERTEX
  8
Layer1
 10
416.411
 20
312.249
  0
VERTEX
  8
Layer1
 10
416.671
 20
311.86
  0
VERTEX
  8
Layer1
 10
416.979
 20
311.508
  0
VERTEX
  8
Layer1
 10
417.331
 20
311.2
  0
VERTEX
  8
Layer1
 10
417.719
 20
310.94
  0
VERTEX
  8
Layer1
 10
418.139
 20
310.733
  0
VERTEX
  8
Layer1
 10
418.582
 20
310.583
  0
VERTEX
  8
Layer1
 10
419.04
 20
310.492
  0
VERTEX
  8
Layer1
 10
419.507
 20
310.461
  0
VERTEX
  8
Layer1
 10
419.974
 20
310.492
  0
VERTEX
  8
Layer1
 10
420.432
 20
310.583
  0
VERTEX
  8
Layer1
 10
420.875
 20
310.733
  0
VERTEX
  8
Layer1
 10
421.293
 20
310.94
  0
VERTEX
  8
Layer1
 10
421.683
 20
311.2
  0
VERTEX
  8
Layer1
 10
422.035
 20
311.508
  0
VERTEX
  8
Layer1
 10
422.343
 20
311.86
  0
VERTEX
  8
Layer1
 10
422.603
 20
312.249
  0
VERTEX
  8
Layer1
 10
422.81
 20
312.668
  0
VERTEX
  8
Layer1
 10
422.96
 20
313.111
  0
VERTEX
  8
Layer1
 10
423.051
 20
313.57
  0
SEQEND
  0
POLYLINE
  8
Layer1
  6
CONTINUOUS
 62
7
 66
1
 10
0
 20
0
 30
0
 70
1
  0
VERTEX
  8
Layer1
 10
424.507
 20
289.036
  0
VERTEX
  8
Layer1
 10
424.464
 20
289.689
  0
VERTEX
  8
Layer1
 10
424.337
 20
290.33
  0
VERTEX
  8
Layer1
 10
424.126
 20
290.95
  0
VERTEX
  8
Layer1
 10
423.837
 20
291.536
  0
VERTEX
  8
Layer1
 10
423.474
 20
292.08
  0
VERTEX
  8
Layer1
 10
423.042
 20
292.572
  0
VERTEX
  8
Layer1
 10
422.551
 20
293.003
  0
VERTEX
  8
Layer1
 10
422.007
 20
293.366
  0
VERTEX
  8
Layer1
 10
421.42
 20
293.656
  0
VERTEX
  8
Layer1
 10
420.801
 20
293.866
  0
VERTEX
  8
Layer1
 10
420.16
 20
293.993
  0
VERTEX
  8
Layer1
 10
419.507
 20
294.036
  0
VERTEX
  8
Layer1
 10
418.854
 20
293.993
  0
VERTEX
  8
Layer1
 10
418.213
 20
293.866
  0
VERTEX
  8
Layer1
 10
417.594
 20
293.656
  0
VERTEX
  8
Layer1
 10
417.007
 20
293.366
  0
VERTEX
  8
Layer1
 10
416.463
 20
293.003
  0
VERTEX
  8
Layer1
 10
415.971
 20
292.572
  0
VERTEX
  8
Layer1
 10
415.54
 20
292.08
  0
VERTEX
  8
Layer1
 10
415.177
 20
291.536
  0
VERTEX
  8
Layer1
 10
414.888
 20
290.95
  0
VERTEX
  8
Layer1
 10
414.677
 20
290.33
  0
VERTEX
  8
Layer1
 10
414.55
 20
289.689
  0
VERTEX
  8
Layer1
 10
414.507
 20
289.036
  0
VERTEX
  8
Layer1
 10
414.55
 20
288.384
  0
VERTEX
  8
Layer1
 10
414.677
 20
287.742
  0
VERTEX
  8
Layer1
 10
414.888
 20
287.123
  0
VERTEX
  8
Layer1
 10
415.177
 20
286.536
  0
VERTEX
  8
Layer1
 10
415.54
 20
285.992
  0
VERTEX
  8
Layer1
 10
415.971
 20
285.501
  0
VERTEX
  8
Layer1
 10
416.463
 20
285.07
  0
VERTEX
  8
Layer1
 10
417.007
 20
284.706
  0
VERTEX
  8
Layer1
 10
417.594
 20
284.417
  0
VERTEX
  8
Layer1
 10
418.213
 20
284.207
  0
VERTEX
  8
Layer1
 10
418.854
 20
284.079
  0
VERTEX
  8
Layer1
 10
419.507
 20
284.036
  0
VERTEX
  8
Layer1
 10
420.16
 20
284.079
  0
VERTEX
  8
Layer1
 10
420.801
 20
284.207
  0
VERTEX
  8
Layer1
 10
421.42
 20
284.417
  0
VERTEX
  8
Layer1
 10
422.007
 20
284.706
  0
VERTEX
  8
Layer1
 10
422.551
 20
285.07
  0
VERTEX
  8
Layer1
 10
423.042
 20
285.501
  0
VERTEX
  8
Layer1
 10
423.474
 20
285.992
  0
VERTEX
  8
Layer1
 10
423.837
 20
286.536
  0
VERTEX
  8
Layer1
 10
424.126
 20
287.123
  0
VERTEX
  8
Layer1
 10
424.337
 20
287.742
  0
VERTEX
  8
Layer1
 10
424.464
 20
288.384
  0
SEQEND
  0
POLYLINE
  8
Layer1
  6
CONTINUOUS
 62
7
 66
1
 10
0
 20
0
 30
0
 70
1
  0
VERTEX
  8
Layer1
 10
419.507
 20
292.611
  0
VERTEX
  8
Layer1
 10
416.411
 20
290.824
  0
VERTEX
  8
Layer1
 10
416.411
 20
287.249
  0
VERTEX
  8
Layer1
 10
419.507
 20
285.461
  0
VERTEX
  8
Layer1
 10
422.603
 20
287.249
  0
VERTEX
  8
Layer1
 10
422.603
 20
290.824
  0
SEQEND
  0
POLYLINE
  8
Layer1
  6
CONTINUOUS
 62
7
 66
1
 10
0
 20
0
 30
0
 70
1
  0
VERTEX
  8
Layer1
 10
423.082
 20
289.036
  0
VERTEX
  8
Layer1
 10
423.051
 20
289.503
  0
VERTEX
  8
Layer1
 10
422.96
 20
289.962
  0
VERTEX
  8
Layer1
 10
422.81
 20
290.404
  0
VERTEX
  8
Layer1
 10
422.603
 20
290.824
  0
VERTEX
  8
Layer1
 10
422.343
 20
291.213
  0
VERTEX
  8
Layer1
 10
422.035
 20
291.564
  0
VERTEX
  8
Layer1
 10
421.683
 20
291.873
  0
VERTEX
  8
Layer1
 10
421.293
 20
292.132
  0
VERTEX
  8
Layer1
 10
420.875
 20
292.339
  0
VERTEX
  8
Layer1
 10
420.432
 20
292.489
  0
VERTEX
  8
Layer1
 10
419.974
 20
292.581
  0
VERTEX
  8
Layer1
 10
419.507
 20
292.611
  0
VERTEX
  8
Layer1
 10
419.04
 20
292.581
  0
VERTEX
  8
Layer1
 10
418.582
 20
292.489
  0
VERTEX
  8
Layer1
 10
418.139
 20
292.339
  0
VERTEX
  8
Layer1
 10
417.719
 20
292.132
  0
VERTEX
  8
Layer1
 10
417.331
 20
291.873
  0
VERTEX
  8
Layer1
 10
416.979
 20
291.564
  0
VERTEX
  8
Layer1
 10
416.671
 20
291.213
  0
VERTEX
  8
Layer1
 10
416.411
 20
290.824
  0
VERTEX
  8
Layer1
 10
416.204
 20
290.404
  0
VERTEX
  8
Layer1
 10
416.053
 20
289.962
  0
VERTEX
  8
Layer1
 10
415.963
 20
289.503
  0
VERTEX
  8
Layer1
 10
415.932
 20
289.036
  0
VERTEX
  8
Layer1
 10
415.963
 20
288.57
  0
VERTEX
  8
Layer1
 10
416.053
 20
288.111
  0
VERTEX
  8
Layer1
 10
416.204
 20
287.668
  0
VERTEX
  8
Layer1
 10
416.411
 20
287.249
  0
VERTEX
  8
Layer1
 10
416.671
 20
286.86
  0
VERTEX
  8
Layer1
 10
416.979
 20
286.508
  0
VERTEX
  8
Layer1
 10
417.331
 20
286.2
  0
VERTEX
  8
Layer1
 10
417.719
 20
285.94
  0
VERTEX
  8
Layer1
 10
418.139
 20
285.733
  0
VERTEX
  8
Layer1
 10
418.582
 20
285.583
  0
VERTEX
  8
Layer1
 10
419.04
 20
285.492
  0
VERTEX
  8
Layer1
 10
419.507
 20
285.461
  0
VERTEX
  8
Layer1
 10
419.974
 20
285.492
  0
VERTEX
  8
Layer1
 10
420.432
 20
285.583
  0
VERTEX
  8
Layer1
 10
420.875
 20
285.733
  0
VERTEX
  8
Layer1
 10
421.293
 20
285.94
  0
VERTEX
  8
Layer1
 10
421.683
 20
286.2
  0
VERTEX
  8
Layer1
 10
422.035
 20
286.508
  0
VERTEX
  8
Layer1
 10
422.343
 20
286.86
  0
VERTEX
  8
Layer1
 10
422.603
 20
287.249
  0
VERTEX
  8
Layer1
 10
422.81
 20
287.668
  0
VERTEX
  8
Layer1
 10
422.96
 20
288.111
  0
VERTEX
  8
Layer1
 10
423.051
 20
288.57
  0
SEQEND
  0
POLYLINE
  8
Layer1
  6
CONTINUOUS
 62
7
 66
1
 10
0
 20
0
 30
0
 70
1
  0
VERTEX
  8
Layer1
 10
454.507
 20
314.036
  0
VERTEX
  8
Layer1
 10
454.464
 20
314.689
  0
VERTEX
  8
Layer1
 10
454.337
 20
315.33
  0
VERTEX
  8
Layer1
 10
454.126
 20
315.95
  0
VERTEX
  8
Layer1
 10
453.837
 20
316.536
  0
VERTEX
  8
Layer1
 10
453.474
 20
317.08
  0
VERTEX
  8
Layer1
 10
453.042
 20
317.572
  0
VERTEX
  8
Layer1
 10
452.551
 20
318.003
  0
VERTEX
  8
Layer1
 10
452.007
 20
318.366
  0
VERTEX
  8
Layer1
 10
451.42
 20
318.656
  0
VERTEX
  8
Layer1
 10
450.801
 20
318.866
  0
VERTEX
  8
Layer1
 10
450.16
 20
318.993
  0
VERTEX
  8
Layer1
 10
449.507
 20
319.036
  0
VERTEX
  8
Layer1
 10
448.854
 20
318.993
  0
VERTEX
  8
Layer1
 10
448.213
 20
318.866
  0
VERTEX
  8
Layer1
 10
447.594
 20
318.656
  0
VERTEX
  8
Layer1
 10
447.007
 20
318.366
  0
VERTEX
  8
Layer1
 10
446.463
 20
318.003
  0
VERTEX
  8
Layer1
 10
445.971
 20
317.572
  0
VERTEX
  8
Layer1
 10
445.54
 20
317.08
  0
VERTEX
  8
Layer1
 10
445.177
 20
316.536
  0
VERTEX
  8
Layer1
 10
444.888
 20
315.95
  0
VERTEX
  8
Layer1
 10
444.677
 20
315.33
  0
VERTEX
  8
Layer1
 10
444.55
 20
314.689
  0
VERTEX
  8
Layer1
 10
444.507
 20
314.036
  0
VERTEX
  8
Layer1
 10
444.55
 20
313.384
  0
VERTEX
  8
Layer1
 10
444.677
 20
312.742
  0
VERTEX
  8
Layer1
 10
444.888
 20
312.123
  0
VERTEX
  8
Layer1
 10
445.177
 20
311.536
  0
VERTEX
  8
Layer1
 10
445.54
 20
310.992
  0
VERTEX
  8
Layer1
 10
445.971
 20
310.501
  0
VERTEX
  8
Layer1
 10
446.463
 20
310.07
  0
VERTEX
  8
Layer1
 10
447.007
 20
309.706
  0
VERTEX
  8
Layer1
 10
447.594
 20
309.417
  0
VERTEX
  8
Layer1
 10
448.213
 20
309.207
  0
VERTEX
  8
Layer1
 10
448.854
 20
309.079
  0
VERTEX
  8
Layer1
 10
449.507
 20
309.036
  0
VERTEX
  8
Layer1
 10
450.16
 20
309.079
  0
VERTEX
  8
Layer1
 10
450.801
 20
309.207
  0
VERTEX
  8
Layer1
 10
451.42
 20
309.417
  0
VERTEX
  8
Layer1
 10
452.007
 20
309.706
  0
VERTEX
  8
Layer1
 10
452.551
 20
310.07
  0
VERTEX
  8
Layer1
 10
453.042
 20
310.501
  0
VERTEX
  8
Layer1
 10
453.474
 20
310.992
  0
VERTEX
  8
Layer1
 10
453.837
 20
311.536
  0
VERTEX
  8
Layer1
 10
454.126
 20
312.123
  0
VERTEX
  8
Layer1
 10
454.337
 20
312.742
  0
VERTEX
  8
Layer1
 10
454.464
 20
313.384
  0
SEQEND
  0
POLYLINE
  8
Layer1
  6
CONTINUOUS
 62
7
 66
1
 10
0
 20
0
 30
0
 70
1
  0
VERTEX
  8
Layer1
 10
449.507
 20
317.611
  0
VERTEX
  8
Layer1
 10
446.411
 20
315.824
  0
VERTEX
  8
Layer1
 10
446.411
 20
312.249
  0
VERTEX
  8
Layer1
 10
449.507
 20
310.461
  0
VERTEX
  8
Layer1
 10
452.603
 20
312.249
  0
VERTEX
  8
Layer1
 10
452.603
 20
315.824
  0
SEQEND
  0
POLYLINE
  8
Layer1
  6
CONTINUOUS
 62
7
 66
1
 10
0
 20
0
 30
0
 70
1
  0
VERTEX
  8
Layer1
 10
453.082
 20
314.036
  0
VERTEX
  8
Layer1
 10
453.051
 20
314.503
  0
VERTEX
  8
Layer1
 10
452.96
 20
314.962
  0
VERTEX
  8
Layer1
 10
452.81
 20
315.404
  0
VERTEX
  8
Layer1
 10
452.603
 20
315.824
  0
VERTEX
  8
Layer1
 10
452.343
 20
316.213
  0
VERTEX
  8
Layer1
 10
452.035
 20
316.564
  0
VERTEX
  8
Layer1
 10
451.683
 20
316.873
  0
VERTEX
  8
Layer1
 10
451.293
 20
317.132
  0
VERTEX
  8
Layer1
 10
450.875
 20
317.339
  0
VERTEX
  8
Layer1
 10
450.432
 20
317.489
  0
VERTEX
  8
Layer1
 10
449.974
 20
317.581
  0
VERTEX
  8
Layer1
 10
449.507
 20
317.611
  0
VERTEX
  8
Layer1
 10
449.04
 20
317.581
  0
VERTEX
  8
Layer1
 10
448.582
 20
317.489
  0
VERTEX
  8
Layer1
 10
448.139
 20
317.339
  0
VERTEX
  8
Layer1
 10
447.719
 20
317.132
  0
VERTEX
  8
Layer1
 10
447.331
 20
316.873
  0
VERTEX
  8
Layer1
 10
446.979
 20
316.564
  0
VERTEX
  8
Layer1
 10
446.671
 20
316.213
  0
VERTEX
  8
Layer1
 10
446.411
 20
315.824
  0
VERTEX
  8
Layer1
 10
446.204
 20
315.404
  0
VERTEX
  8
Layer1
 10
446.054
 20
314.962
  0
VERTEX
  8
Layer1
 10
445.963
 20
314.503
  0
VERTEX
  8
Layer1
 10
445.932
 20
314.036
  0
VERTEX
  8
Layer1
 10
445.963
 20
313.57
  0
VERTEX
  8
Layer1
 10
446.054
 20
313.111
  0
VERTEX
  8
Layer1
 10
446.204
 20
312.668
  0
VERTEX
  8
Layer1
 10
446.411
 20
312.249
  0
VERTEX
  8
Layer1
 10
446.671
 20
311.86
  0
VERTEX
  8
Layer1
 10
446.979
 20
311.508
  0
VERTEX
  8
Layer1
 10
447.331
 20
311.2
  0
VERTEX
  8
Layer1
 10
447.719
 20
310.94
  0
VERTEX
  8
Layer1
 10
448.139
 20
310.733
  0
VERTEX
  8
Layer1
 10
448.582
 20
310.583
  0
VERTEX
  8
Layer1
 10
449.04
 20
310.492
  0
VERTEX
  8
Layer1
 10
449.507
 20
310.461
  0
VERTEX
  8
Layer1
 10
449.974
 20
310.492
  0
VERTEX
  8
Layer1
 10
450.432
 20
310.583
  0
VERTEX
  8
Layer1
 10
450.875
 20
310.733
  0
VERTEX
  8
Layer1
 10
451.293
 20
310.94
  0
VERTEX
  8
Layer1
 10
451.683
 20
311.2
  0
VERTEX
  8
Layer1
 10
452.035
 20
311.508
  0
VERTEX
  8
Layer1
 10
452.343
 20
311.86
  0
VERTEX
  8
Layer1
 10
452.603
 20
312.249
  0
VERTEX
  8
Layer1
 10
452.81
 20
312.668
  0
VERTEX
  8
Layer1
 10
452.96
 20
313.111
  0
VERTEX
  8
Layer1
 10
453.051
 20
313.57
  0
SEQEND
  0
POLYLINE
  8
Layer1
  6
CONTINUOUS
 62
7
 66
1
 10
0
 20
0
 30
0
 70
1
  0
VERTEX
  8
Layer1
 10
454.507
 20
289.036
  0
VERTEX
  8
Layer1
 10
454.464
 20
289.689
  0
VERTEX
  8
Layer1
 10
454.337
 20
290.33
  0
VERTEX
  8
Layer1
 10
454.126
 20
290.95
  0
VERTEX
  8
Layer1
 10
453.837
 20
291.536
  0
VERTEX
  8
Layer1
 10
453.474
 20
292.08
  0
VERTEX
  8
Layer1
 10
453.042
 20
292.572
  0
VERTEX
  8
Layer1
 10
452.551
 20
293.003
  0
VERTEX
  8
Layer1
 10
452.007
 20
293.366
  0
VERTEX
  8
Layer1
 10
451.42
 20
293.656
  0
VERTEX
  8
Layer1
 10
450.801
 20
293.866
  0
VERTEX
  8
Layer1
 10
450.16
 20
293.993
  0
VERTEX
  8
Layer1
 10
449.507
 20
294.036
  0
VERTEX
  8
Layer1
 10
448.854
 20
293.993
  0
VERTEX
  8
Layer1
 10
448.213
 20
293.866
  0
VERTEX
  8
Layer1
 10
447.594
 20
293.656
  0
VERTEX
  8
Layer1
 10
447.007
 20
293.366
  0
VERTEX
  8
Layer1
 10
446.463
 20
293.003
  0
VERTEX
  8
Layer1
 10
445.971
 20
292.572
  0
VERTEX
  8
Layer1
 10
445.54
 20
292.08
  0
VERTEX
  8
Layer1
 10
445.177
 20
291.536
  0
VERTEX
  8
Layer1
 10
444.888
 20
290.95
  0
VERTEX
  8
Layer1
 10
444.677
 20
290.33
  0
VERTEX
  8
Layer1
 10
444.55
 20
289.689
  0
VERTEX
  8
Layer1
 10
444.507
 20
289.036
  0
VERTEX
  8
Layer1
 10
444.55
 20
288.384
  0
VERTEX
  8
Layer1
 10
444.677
 20
287.742
  0
VERTEX
  8
Layer1
 10
444.888
 20
287.123
  0
VERTEX
  8
Layer1
 10
445.177
 20
286.536
  0
VERTEX
  8
Layer1
 10
445.54
 20
285.992
  0
VERTEX
  8
Layer1
 10
445.971
 20
285.501
  0
VERTEX
  8
Layer1
 10
446.463
 20
285.07
  0
VERTEX
  8
Layer1
 10
447.007
 20
284.706
  0
VERTEX
  8
Layer1
 10
447.594
 20
284.417
  0
VERTEX
  8
Layer1
 10
448.213
 20
284.207
  0
VERTEX
  8
Layer1
 10
448.854
 20
284.079
  0
VERTEX
  8
Layer1
 10
449.507
 20
284.036
  0
VERTEX
  8
Layer1
 10
450.16
 20
284.079
  0
VERTEX
  8
Layer1
 10
450.801
 20
284.207
  0
VERTEX
  8
Layer1
 10
451.42
 20
284.417
  0
VERTEX
  8
Layer1
 10
452.007
 20
284.706
  0
VERTEX
  8
Layer1
 10
452.551
 20
285.07
  0
VERTEX
  8
Layer1
 10
453.042
 20
285.501
  0
VERTEX
  8
Layer1
 10
453.474
 20
285.992
  0
VERTEX
  8
Layer1
 10
453.837
 20
286.536
  0
VERTEX
  8
Layer1
 10
454.126
 20
287.123
  0
VERTEX
  8
Layer1
 10
454.337
 20
287.742
  0
VERTEX
  8
Layer1
 10
454.464
 20
288.384
  0
SEQEND
  0
POLYLINE
  8
Layer1
  6
CONTINUOUS
 62
7
 66
1
 10
0
 20
0
 30
0
 70
1
  0
VERTEX
  8
Layer1
 10
449.507
 20
292.611
  0
VERTEX
  8
Layer1
 10
446.411
 20
290.824
  0
VERTEX
  8
Layer1
 10
446.411
 20
287.249
  0
VERTEX
  8
Layer1
 10
449.507
 20
285.461
  0
VERTEX
  8
Layer1
 10
452.603
 20
287.249
  0
VERTEX
  8
Layer1
 10
452.603
 20
290.824
  0
SEQEND
  0
POLYLINE
  8
Layer1
  6
CONTINUOUS
 62
7
 66
1
 10
0
 20
0
 30
0
 70
1
  0
VERTEX
  8
Layer1
 10
453.082
 20
289.036
  0
VERTEX
  8
Layer1
 10
453.051
 20
289.503
  0
VERTEX
  8
Layer1
 10
452.96
 20
289.962
  0
VERTEX
  8
Layer1
 10
452.81
 20
290.404
  0
VERTEX
  8
Layer1
 10
452.603
 20
290.824
  0
VERTEX
  8
Layer1
 10
452.343
 20
291.213
  0
VERTEX
  8
Layer1
 10
452.035
 20
291.564
  0
VERTEX
  8
Layer1
 10
451.683
 20
291.873
  0
VERTEX
  8
Layer1
 10
451.293
 20
292.132
  0
VERTEX
  8
Layer1
 10
450.875
 20
292.339
  0
VERTEX
  8
Layer1
 10
450.432
 20
292.489
  0
VERTEX
  8
Layer1
 10
449.974
 20
292.581
  0
VERTEX
  8
Layer1
 10
449.507
 20
292.611
  0
VERTEX
  8
Layer1
 10
449.04
 20
292.581
  0
VERTEX
  8
Layer1
 10
448.582
 20
292.489
  0
VERTEX
  8
Layer1
 10
448.139
 20
292.339
  0
VERTEX
  8
Layer1
 10
447.719
 20
292.132
  0
VERTEX
  8
Layer1
 10
447.331
 20
291.873
  0
VERTEX
  8
Layer1
 10
446.979
 20
291.564
  0
VERTEX
  8
Layer1
 10
446.671
 20
291.213
  0
VERTEX
  8
Layer1
 10
446.411
 20
290.824
  0
VERTEX
  8
Layer1
 10
446.204
 20
290.404
  0
VERTEX
  8
Layer1
 10
446.054
 20
289.962
  0
VERTEX
  8
Layer1
 10
445.963
 20
289.503
  0
VERTEX
  8
Layer1
 10
445.932
 20
289.036
  0
VERTEX
  8
Layer1
 10
445.963
 20
288.57
  0
VERTEX
  8
Layer1
 10
446.054
 20
288.111
  0
VERTEX
  8
Layer1
 10
446.204
 20
287.668
  0
VERTEX
  8
Layer1
 10
446.411
 20
287.249
  0
VERTEX
  8
Layer1
 10
446.671
 20
286.86
  0
VERTEX
  8
Layer1
 10
446.979
 20
286.508
  0
VERTEX
  8
Layer1
 10
447.331
 20
286.2
  0
VERTEX
  8
Layer1
 10
447.719
 20
285.94
  0
VERTEX
  8
Layer1
 10
448.139
 20
285.733
  0
VERTEX
  8
Layer1
 10
448.582
 20
285.583
  0
VERTEX
  8
Layer1
 10
449.04
 20
285.492
  0
VERTEX
  8
Layer1
 10
449.507
 20
285.461
  0
VERTEX
  8
Layer1
 10
449.974
 20
285.492
  0
VERTEX
  8
Layer1
 10
450.432
 20
285.583
  0
VERTEX
  8
Layer1
 10
450.875
 20
285.733
  0
VERTEX
  8
Layer1
 10
451.293
 20
285.94
  0
VERTEX
  8
Layer1
 10
451.683
 20
286.2
  0
VERTEX
  8
Layer1
 10
452.035
 20
286.508
  0
VERTEX
  8
Layer1
 10
452.343
 20
286.86
  0
VERTEX
  8
Layer1
 10
452.603
 20
287.249
  0
VERTEX
  8
Layer1
 10
452.81
 20
287.668
  0
VERTEX
  8
Layer1
 10
452.96
 20
288.111
  0
VERTEX
  8
Layer1
 10
453.051
 20
288.57
  0
SEQEND
  0
TEXT
  8
Layer1
 62
7
 10
350.464
 20
265.036
 72
1
 11
350.464
 21
265.036
 40
6
 41
1
 50
90
  1
 17 
  0
LINE
  8
Layer1
  6
CONTINUOUS
 62
7
 10
379.507
 20
273.536
 11
348.464
 21
273.536
  0
LINE
  8
Layer1
  6
CONTINUOUS
 62
7
 10
379.507
 20
256.536
 11
348.464
 21
256.536
  0
POLYLINE
  8
Layer1
  6
CONTINUOUS
 62
7
 66
1
 10
0
 20
0
 30
0
  0
VERTEX
  8
Layer1
 10
352.464
 20
273.536
  0
VERTEX
  8
Layer1
 10
352.464
 20
256.536
  0
SEQEND
  0
POLYLINE
  8
Layer1
  6
CONTINUOUS
 62
7
 66
1
 10
0
 20
0
 30
0
 70
1
  0
VERTEX
  8
Layer1
 10
351.428
 20
269.672
  0
VERTEX
  8
Layer1
 10
352.464
 20
273.536
  0
VERTEX
  8
Layer1
 10
353.499
 20
269.672
  0
SEQEND
  0
POLYLINE
  8
Layer1
  6
CONTINUOUS
 62
7
 66
1
 10
0
 20
0
 30
0
 70
1
  0
VERTEX
  8
Layer1
 10
353.499
 20
260.4
  0
VERTEX
  8
Layer1
 10
352.464
 20
256.536
  0
VERTEX
  8
Layer1
 10
351.428
 20
260.4
  0
SEQEND
  0
LINE
  8
Layer1
  6
CENTER1
 62
7
 10
440.694
 20
314.036
 11
459.642
 21
314.036
  0
LINE
  8
Layer1
  6
CENTER1
 62
7
 10
419.507
 20
295.956
 11
419.507
 21
280.185
  0
LINE
  8
Layer1
  6
CENTER1
 62
7
 10
449.507
 20
295.956
 11
449.507
 21
278.143
  0
LINE
  8
Layer1
  6
CENTER1
 62
7
 10
442.85
 20
289.036
 11
458.961
 21
289.036
  0
LINE
  8
Layer1
  6
CONTINUOUS
 62
7
 10
457.007
 20
340.536
 11
437.624
 21
340.536
  0
LINE
  8
Layer1
  6
CONTINUOUS
 62
7
 10
379.507
 20
272.536
 11
380.507
 21
273.536
  0
LINE
  8
Layer1
  6
CONTINUOUS
 62
7
 10
379.507
 20
257.536
 11
380.507
 21
256.536
  0
LINE
  8
Layer1
  6
CONTINUOUS
 62
7
 10
488.507
 20
256.536
 11
489.507
 21
257.536
  0
LINE
  8
Layer1
  6
CONTINUOUS
 62
7
 10
489.507
 20
272.536
 11
488.507
 21
273.536
  0
TEXT
  8
Layer1
 62
7
 10
434.507
 20
246.786
 72
1
 11
434.507
 21
246.786
 40
6
 41
1
  1
 30 
  0
LINE
  8
Layer1
  6
CONTINUOUS
 62
7
 10
419.507
 20
280.185
 11
419.507
 21
240.786
  0
LINE
  8
Layer1
  6
CONTINUOUS
 62
7
 10
449.507
 20
278.143
 11
449.507
 21
240.786
  0
POLYLINE
  8
Layer1
  6
CONTINUOUS
 62
7
 66
1
 10
0
 20
0
 30
0
  0
VERTEX
  8
Layer1
 10
419.507
 20
244.786
  0
VERTEX
  8
Layer1
 10
449.507
 20
244.786
  0
SEQEND
  0
POLYLINE
  8
Layer1
  6
CONTINUOUS
 62
7
 66
1
 10
0
 20
0
 30
0
 70
1
  0
VERTEX
  8
Layer1
 10
423.371
 20
243.751
  0
VERTEX
  8
Layer1
 10
419.507
 20
244.786
  0
VERTEX
  8
Layer1
 10
423.371
 20
245.821
  0
SEQEND
  0
POLYLINE
  8
Layer1
  6
CONTINUOUS
 62
7
 66
1
 10
0
 20
0
 30
0
 70
1
  0
VERTEX
  8
Layer1
 10
445.643
 20
245.821
  0
VERTEX
  8
Layer1
 10
449.507
 20
244.786
  0
VERTEX
  8
Layer1
 10
445.643
 20
243.751
  0
SEQEND
  0
TEXT
  8
Layer1
 62
7
 10
434.507
 20
233.625
 72
1
 11
434.507
 21
233.625
 40
6
 41
1
  1
 45 
  0
LINE
  8
Layer1
  6
CONTINUOUS
 62
7
 10
457.007
 20
281.536
 11
457.007
 21
227.625
  0
LINE
  8
Layer1
  6
CONTINUOUS
 62
7
 10
412.007
 20
281.536
 11
412.007
 21
227.625
  0
POLYLINE
  8
Layer1
  6
CONTINUOUS
 62
7
 66
1
 10
0
 20
0
 30
0
  0
VERTEX
  8
Layer1
 10
457.007
 20
231.625
  0
VERTEX
  8
Layer1
 10
412.007
 20
231.625
  0
SEQEND
  0
POLYLINE
  8
Layer1
  6
CONTINUOUS
 62
7
 66
1
 10
0
 20
0
 30
0
 70
1
  0
VERTEX
  8
Layer1
 10
453.143
 20
232.66
  0
VERTEX
  8
Layer1
 10
457.007
 20
231.625
  0
VERTEX
  8
Layer1
 10
453.143
 20
230.59
  0
SEQEND
  0
POLYLINE
  8
Layer1
  6
CONTINUOUS
 62
7
 66
1
 10
0
 20
0
 30
0
 70
1
  0
VERTEX
  8
Layer1
 10
415.87
 20
230.59
  0
VERTEX
  8
Layer1
 10
412.007
 20
231.625
  0
VERTEX
  8
Layer1
 10
415.87
 20
232.66
  0
SEQEND
  0
TEXT
  8
Layer1
 62
7
 10
500.87
 20
272.558
 72
1
 11
500.87
 21
272.558
 40
6
 41
1
 50
90
  1
 45 
  0
LINE
  8
Layer1
  6
CONTINUOUS
 62
7
 10
489.483
 20
301.536
 11
506.87
 21
301.536
  0
LINE
  8
Layer1
  6
CONTINUOUS
 62
7
 10
484.716
 20
256.536
 11
506.87
 21
256.536
  0
POLYLINE
  8
Layer1
  6
CONTINUOUS
 62
7
 66
1
 10
0
 20
0
 30
0
  0
VERTEX
  8
Layer1
 10
502.87
 20
301.536
  0
VERTEX
  8
Layer1
 10
502.87
 20
256.536
  0
SEQEND
  0
POLYLINE
  8
Layer1
  6
CONTINUOUS
 62
7
 66
1
 10
0
 20
0
 30
0
 70
1
  0
VERTEX
  8
Layer1
 10
501.834
 20
297.672
  0
VERTEX
  8
Layer1
 10
502.87
 20
301.536
  0
VERTEX
  8
Layer1
 10
503.905
 20
297.672
  0
SEQEND
  0
POLYLINE
  8
Layer1
  6
CONTINUOUS
 62
7
 66
1
 10
0
 20
0
 30
0
 70
1
  0
VERTEX
  8
Layer1
 10
503.905
 20
260.4
  0
VERTEX
  8
Layer1
 10
502.87
 20
256.536
  0
VERTEX
  8
Layer1
 10
501.834
 20
260.4
  0
SEQEND
  0
TEXT
  8
Layer1
 62
7
 10
517.662
 20
301.536
 72
1
 11
517.662
 21
301.536
 40
6
 41
1
 50
90
  1
 25 
  0
LINE
  8
Layer1
  6
CONTINUOUS
 62
7
 10
458.961
 20
289.036
 11
523.662
 21
289.036
  0
LINE
  8
Layer1
  6
CONTINUOUS
 62
7
 10
459.642
 20
314.036
 11
523.662
 21
314.036
  0
POLYLINE
  8
Layer1
  6
CONTINUOUS
 62
7
 66
1
 10
0
 20
0
 30
0
  0
VERTEX
  8
Layer1
 10
519.662
 20
289.036
  0
VERTEX
  8
Layer1
 10
519.662
 20
314.036
  0
SEQEND
  0
POLYLINE
  8
Layer1
  6
CONTINUOUS
 62
7
 66
1
 10
0
 20
0
 30
0
 70
1
  0
VERTEX
  8
Layer1
 10
520.697
 20
292.9
  0
VERTEX
  8
Layer1
 10
519.662
 20
289.036
  0
VERTEX
  8
Layer1
 10
518.626
 20
292.9
  0
SEQEND
  0
POLYLINE
  8
Layer1
  6
CONTINUOUS
 62
7
 66
1
 10
0
 20
0
 30
0
 70
1
  0
VERTEX
  8
Layer1
 10
518.626
 20
310.172
  0
VERTEX
  8
Layer1
 10
519.662
 20
314.036
  0
VERTEX
  8
Layer1
 10
520.697
 20
310.172
  0
SEQEND
  0
TEXT
  8
Layer1
 62
7
 10
528.1
 20
301.536
 72
1
 11
528.1
 21
301.536
 40
6
 41
1
 50
90
  1
 40 
  0
LINE
  8
Layer1
  6
CONTINUOUS
 62
7
 10
456.007
 20
281.536
 11
534.1
 21
281.536
  0
LINE
  8
Layer1
  6
CONTINUOUS
 62
7
 10
470.007
 20
321.536
 11
534.1
 21
321.536
  0
POLYLINE
  8
Layer1
  6
CONTINUOUS
 62
7
 66
1
 10
0
 20
0
 30
0
  0
VERTEX
  8
Layer1
 10
530.1
 20
281.536
  0
VERTEX
  8
Layer1
 10
530.1
 20
321.536
  0
SEQEND
  0
POLYLINE
  8
Layer1
  6
CONTINUOUS
 62
7
 66
1
 10
0
 20
0
 30
0
 70
1
  0
VERTEX
  8
Layer1
 10
531.135
 20
285.4
  0
VERTEX
  8
Layer1
 10
530.1
 20
281.536
  0
VERTEX
  8
Layer1
 10
529.064
 20
285.4
  0
SEQEND
  0
POLYLINE
  8
Layer1
  6
CONTINUOUS
 62
7
 66
1
 10
0
 20
0
 30
0
 70
1
  0
VERTEX
  8
Layer1
 10
529.064
 20
317.672
  0
VERTEX
  8
Layer1
 10
530.1
 20
321.536
  0
VERTEX
  8
Layer1
 10
531.135
 20
317.672
  0
SEQEND
  0
TEXT
  8
Layer1
 62
7
 10
541.715
 20
296.536
 72
1
 11
541.715
 21
296.536
 40
6
 41
1
 50
90
  1
 80 
  0
LINE
  8
Layer1
  6
CONTINUOUS
 62
7
 10
470.007
 20
336.536
 11
547.715
 21
336.536
  0
LINE
  8
Layer1
  6
CONTINUOUS
 62
7
 10
488.507
 20
256.536
 11
547.715
 21
256.536
  0
POLYLINE
  8
Layer1
  6
CONTINUOUS
 62
7
 66
1
 10
0
 20
0
 30
0
  0
VERTEX
  8
Layer1
 10
543.715
 20
336.536
  0
VERTEX
  8
Layer1
 10
543.715
 20
256.536
  0
SEQEND
  0
POLYLINE
  8
Layer1
  6
CONTINUOUS
 62
7
 66
1
 10
0
 20
0
 30
0
 70
1
  0
VERTEX
  8
Layer1
 10
542.679
 20
332.672
  0
VERTEX
  8
Layer1
 10
543.715
 20
336.536
  0
VERTEX
  8
Layer1
 10
544.75
 20
332.672
  0
SEQEND
  0
POLYLINE
  8
Layer1
  6
CONTINUOUS
 62
7
 66
1
 10
0
 20
0
 30
0
 70
1
  0
VERTEX
  8
Layer1
 10
544.75
 20
260.4
  0
VERTEX
  8
Layer1
 10
543.715
 20
256.536
  0
VERTEX
  8
Layer1
 10
542.679
 20
260.4
  0
SEQEND
  0
LINE
  8
Layer1
  6
PHANTOM1
 62
7
 10
591.343
 20
321.536
 11
611.343
 21
321.536
  0
LINE
  8
Layer1
  6
PHANTOM1
 62
7
 10
591.343
 20
281.536
 11
611.343
 21
281.536
  0
LINE
  8
Layer1
  6
PHANTOM1
 62
7
 10
590.343
 20
320.536
 11
590.343
 21
282.536
  0
LINE
  8
Layer1
  6
PHANTOM1
 62
7
 10
612.343
 20
320.536
 11
612.343
 21
282.536
  0
LINE
  8
Layer1
  6
PHANTOM1
 62
7
 10
612.343
 20
282.536
 11
611.343
 21
281.536
  0
LINE
  8
Layer1
  6
PHANTOM1
 62
7
 10
591.343
 20
281.536
 11
590.343
 21
282.536
  0
LINE
  8
Layer1
  6
PHANTOM1
 62
7
 10
612.343
 20
320.536
 11
611.343
 21
321.536
  0
LINE
  8
Layer1
  6
PHANTOM1
 62
7
 10
591.343
 20
321.536
 11
590.343
 21
320.536
  0
TEXT
  8
Layer1
 62
7
 10
639.843
 20
347.991
 72
1
 11
639.843
 21
347.991
 40
6
 41
1
  1
 5 
  0
TEXT
  8
Layer1
 62
7
 10
626.343
 20
347.991
 72
1
 11
626.343
 21
347.991
 40
6
 41
1
  1
 22 
  0
LINE
  8
Layer1
  6
CONTINUOUS
 62
7
 10
637.343
 20
320.536
 11
637.343
 21
349.991
  0
LINE
  8
Layer1
  6
CONTINUOUS
 62
7
 10
615.343
 20
320.536
 11
615.343
 21
349.991
  0
POLYLINE
  8
Layer1
  6
CONTINUOUS
 62
7
 66
1
 10
0
 20
0
 30
0
  0
VERTEX
  8
Layer1
 10
637.343
 20
345.991
  0
VERTEX
  8
Layer1
 10
615.343
 20
345.991
  0
SEQEND
  0
POLYLINE
  8
Layer1
  6
CONTINUOUS
 62
7
 66
1
 10
0
 20
0
 30
0
 70
1
  0
VERTEX
  8
Layer1
 10
633.48
 20
347.027
  0
VERTEX
  8
Layer1
 10
637.343
 20
345.991
  0
VERTEX
  8
Layer1
 10
633.48
 20
344.956
  0
SEQEND
  0
POLYLINE
  8
Layer1
  6
CONTINUOUS
 62
7
 66
1
 10
0
 20
0
 30
0
 70
1
  0
VERTEX
  8
Layer1
 10
619.207
 20
344.956
  0
VERTEX
  8
Layer1
 10
615.343
 20
345.991
  0
VERTEX
  8
Layer1
 10
619.207
 20
347.027
  0
SEQEND
  0
LINE
  8
Layer1
  6
CONTINUOUS
 62
7
 10
642.343
 20
320.536
 11
642.343
 21
349.991
  0
POLYLINE
  8
Layer1
  6
CONTINUOUS
 62
7
 66
1
 10
0
 20
0
 30
0
  0
VERTEX
  8
Layer1
 10
621.266
 20
345.991
  0
VERTEX
  8
Layer1
 10
637.266
 20
345.991
  0
SEQEND
  0
POLYLINE
  8
Layer1
  6
CONTINUOUS
 62
7
 66
1
 10
0
 20
0
 30
0
 70
1
  0
VERTEX
  8
Layer1
 10
633.403
 20
347.027
  0
VERTEX
  8
Layer1
 10
637.266
 20
345.991
  0
VERTEX
  8
Layer1
 10
633.403
 20
344.956
  0
SEQEND
  0
POLYLINE
  8
Layer1
  6
CONTINUOUS
 62
7
 66
1
 10
0
 20
0
 30
0
  0
VERTEX
  8
Layer1
 10
650.343
 20
345.991
  0
VERTEX
  8
Layer1
 10
642.343
 20
345.991
  0
SEQEND
  0
POLYLINE
  8
Layer1
  6
CONTINUOUS
 62
7
 66
1
 10
0
 20
0
 30
0
 70
1
  0
VERTEX
  8
Layer1
 10
646.207
 20
344.956
  0
VERTEX
  8
Layer1
 10
642.343
 20
345.991
  0
VERTEX
  8
Layer1
 10
646.207
 20
347.027
  0
SEQEND
  0
LINE
  8
Layer1
  6
CONTINUOUS
 62
7
 10
637.343
 20
345.991
 11
642.343
 21
345.991
  0
TEXT
  8
Layer1
 62
7
 10
599.31
 20
226.81
 72
1
 11
599.31
 21
226.81
 40
6
 41
1
  1
25ストローク 
  0
LINE
  8
Layer1
  6
CONTINUOUS
 62
7
 10
590.343
 20
282.536
 11
590.343
 21
237.81
  0
POLYLINE
  8
Layer1
  6
CONTINUOUS
 62
7
 66
1
 10
0
 20
0
 30
0
  0
VERTEX
  8
Layer1
 10
590.343
 20
241.81
  0
VERTEX
  8
Layer1
 10
615.343
 20
241.81
  0
SEQEND
  0
POLYLINE
  8
Layer1
  6
CONTINUOUS
 62
7
 66
1
 10
0
 20
0
 30
0
 70
1
  0
VERTEX
  8
Layer1
 10
594.207
 20
240.775
  0
VERTEX
  8
Layer1
 10
590.343
 20
241.81
  0
VERTEX
  8
Layer1
 10
594.207
 20
242.845
  0
SEQEND
  0
POLYLINE
  8
Layer1
  6
CONTINUOUS
 62
7
 66
1
 10
0
 20
0
 30
0
 70
1
  0
VERTEX
  8
Layer1
 10
611.48
 20
242.845
  0
VERTEX
  8
Layer1
 10
615.343
 20
241.81
  0
VERTEX
  8
Layer1
 10
611.48
 20
240.775
  0
SEQEND
  0
LINE
  8
Layer1
  6
CENTER1
 62
7
 10
659.843
 20
276.162
 11
659.843
 21
249.612
  0
LINE
  8
Layer1
  6
CONTINUOUS
 62
7
 10
702.343
 20
329.258
 11
694.621
 21
321.536
  0
LINE
  8
Layer1
  6
CONTINUOUS
 62
7
 10
702.343
 20
325.258
 11
698.621
 21
321.536
  0
TEXT
  8
Layer1
 62
7
 10
788.439
 20
250.144
 72
1
 11
788.439
 21
250.144
 40
6
 41
1
 50
90
  1
1
  0
TEXT
  8
Layer1
 62
7
 10
802.742
 20
338.397
 72
1
 11
802.742
 21
338.397
 40
3
 41
1
 50
90
  1
(シャットハイト） 
  0
TEXT
  8
Layer1
 62
7
 10
819.516
 20
350.497
 72
1
 11
819.516
 21
350.497
 40
3
 41
1
 50
90
  1
(オープンハイト）
  0
TEXT
  8
Layer1
 62
7
 10
697.381
 20
628.671
 72
1
 11
697.381
 21
628.671
 40
6
 41
1
  1
 110
  0
LINE
  8
Layer1
  6
CONTINUOUS
 62
7
 10
642.343
 20
594.265
 11
642.343
 21
630.671
  0
LINE
  8
Layer1
  6
CONTINUOUS
 62
7
 10
752.42
 20
594.265
 11
752.42
 21
630.671
  0
POLYLINE
  8
Layer1
  6
CONTINUOUS
 62
7
 66
1
 10
0
 20
0
 30
0
  0
VERTEX
  8
Layer1
 10
642.343
 20
626.671
  0
VERTEX
  8
Layer1
 10
752.42
 20
626.671
  0
SEQEND
  0
POLYLINE
  8
Layer1
  6
CONTINUOUS
 62
7
 66
1
 10
0
 20
0
 30
0
 70
1
  0
VERTEX
  8
Layer1
 10
646.207
 20
625.635
  0
VERTEX
  8
Layer1
 10
642.343
 20
626.671
  0
VERTEX
  8
Layer1
 10
646.207
 20
627.706
  0
SEQEND
  0
POLYLINE
  8
Layer1
  6
CONTINUOUS
 62
7
 66
1
 10
0
 20
0
 30
0
 70
1
  0
VERTEX
  8
Layer1
 10
748.556
 20
627.706
  0
VERTEX
  8
Layer1
 10
752.42
 20
626.671
  0
VERTEX
  8
Layer1
 10
748.556
 20
625.635
  0
SEQEND
  0
TEXT
  8
Layer1
 62
7
 10
651.016
 20
614.335
 72
1
 11
651.016
 21
614.335
 40
6
 41
1
  1
 17.5 
  0
TEXT
  8
Layer1
 62
7
 10
694.843
 20
614.335
 72
1
 11
694.843
 21
614.335
 40
6
 41
1
  1
 70 
  0
LINE
  8
Layer1
  6
CONTINUOUS
 62
7
 10
729.843
 20
597.901
 11
729.843
 21
616.335
  0
POLYLINE
  8
Layer1
  6
CONTINUOUS
 62
7
 66
1
 10
0
 20
0
 30
0
  0
VERTEX
  8
Layer1
 10
659.843
 20
612.335
  0
VERTEX
  8
Layer1
 10
729.843
 20
612.335
  0
SEQEND
  0
POLYLINE
  8
Layer1
  6
CONTINUOUS
 62
7
 66
1
 10
0
 20
0
 30
0
 70
1
  0
VERTEX
  8
Layer1
 10
663.707
 20
611.299
  0
VERTEX
  8
Layer1
 10
659.843
 20
612.335
  0
VERTEX
  8
Layer1
 10
663.707
 20
613.37
  0
SEQEND
  0
POLYLINE
  8
Layer1
  6
CONTINUOUS
 62
7
 66
1
 10
0
 20
0
 30
0
 70
1
  0
VERTEX
  8
Layer1
 10
725.979
 20
613.37
  0
VERTEX
  8
Layer1
 10
729.843
 20
612.335
  0
VERTEX
  8
Layer1
 10
725.979
 20
611.299
  0
SEQEND
  0
LINE
  8
Layer1
  6
CONTINUOUS
 62
7
 10
659.843
 20
600.585
 11
659.843
 21
616.335
  0
LINE
  8
Layer1
  6
CONTINUOUS
 62
7
 10
659.843
 20
612.335
 11
642.343
 21
612.335
  0
POLYLINE
  8
Layer1
  6
CONTINUOUS
 62
7
 66
1
 10
0
 20
0
 30
0
 70
1
  0
VERTEX
  8
Layer1
 10
655.98
 20
613.37
  0
VERTEX
  8
Layer1
 10
659.843
 20
612.335
  0
VERTEX
  8
Layer1
 10
655.98
 20
611.299
  0
SEQEND
  0
POLYLINE
  8
Layer1
  6
CONTINUOUS
 62
7
 66
1
 10
0
 20
0
 30
0
 70
1
  0
VERTEX
  8
Layer1
 10
646.207
 20
611.299
  0
VERTEX
  8
Layer1
 10
642.343
 20
612.335
  0
VERTEX
  8
Layer1
 10
646.207
 20
613.37
  0
SEQEND
  0
TEXT
  8
Layer1
 62
7
 10
727.843
 20
448.873
 72
1
 11
727.843
 21
448.873
 40
6
 41
1
  1
 49 
  0
LINE
  8
Layer1
  6
CONTINUOUS
 62
7
 10
703.343
 20
502.765
 11
703.343
 21
442.873
  0
LINE
  8
Layer1
  6
CONTINUOUS
 62
7
 10
752.343
 20
494.265
 11
752.343
 21
442.873
  0
POLYLINE
  8
Layer1
  6
CONTINUOUS
 62
7
 66
1
 10
0
 20
0
 30
0
  0
VERTEX
  8
Layer1
 10
703.343
 20
446.873
  0
VERTEX
  8
Layer1
 10
752.343
 20
446.873
  0
SEQEND
  0
POLYLINE
  8
Layer1
  6
CONTINUOUS
 62
7
 66
1
 10
0
 20
0
 30
0
 70
1
  0
VERTEX
  8
Layer1
 10
707.207
 20
445.838
  0
VERTEX
  8
Layer1
 10
703.343
 20
446.873
  0
VERTEX
  8
Layer1
 10
707.207
 20
447.909
  0
SEQEND
  0
POLYLINE
  8
Layer1
  6
CONTINUOUS
 62
7
 66
1
 10
0
 20
0
 30
0
 70
1
  0
VERTEX
  8
Layer1
 10
748.479
 20
447.909
  0
VERTEX
  8
Layer1
 10
752.343
 20
446.873
  0
VERTEX
  8
Layer1
 10
748.479
 20
445.838
  0
SEQEND
  0
TEXT
  8
Layer1
 62
7
 10
727.843
 20
460.521
 72
1
 11
727.843
 21
460.521
 40
6
 41
1
  1
 29 
  0
LINE
  8
Layer1
  6
CONTINUOUS
 62
7
 10
713.343
 20
500.069
 11
713.343
 21
454.521
  0
LINE
  8
Layer1
  6
CONTINUOUS
 62
7
 10
742.343
 20
500.325
 11
742.343
 21
454.521
  0
POLYLINE
  8
Layer1
  6
CONTINUOUS
 62
7
 66
1
 10
0
 20
0
 30
0
  0
VERTEX
  8
Layer1
 10
713.343
 20
458.521
  0
VERTEX
  8
Layer1
 10
742.343
 20
458.521
  0
SEQEND
  0
POLYLINE
  8
Layer1
  6
CONTINUOUS
 62
7
 66
1
 10
0
 20
0
 30
0
 70
1
  0
VERTEX
  8
Layer1
 10
717.207
 20
457.486
  0
VERTEX
  8
Layer1
 10
713.343
 20
458.521
  0
VERTEX
  8
Layer1
 10
717.207
 20
459.557
  0
SEQEND
  0
POLYLINE
  8
Layer1
  6
CONTINUOUS
 62
7
 66
1
 10
0
 20
0
 30
0
 70
1
  0
VERTEX
  8
Layer1
 10
738.479
 20
459.557
  0
VERTEX
  8
Layer1
 10
742.343
 20
458.521
  0
VERTEX
  8
Layer1
 10
738.479
 20
457.486
  0
SEQEND
  0
TEXT
  8
Layer1
 62
7
 10
786.587
 20
544.265
 72
1
 11
786.587
 21
544.265
 40
6
 41
1
 50
90
  1
 59 
  0
LINE
  8
Layer1
  6
CONTINUOUS
 62
7
 10
775.343
 20
573.765
 11
792.587
 21
573.765
  0
LINE
  8
Layer1
  6
CONTINUOUS
 62
7
 10
775.343
 20
514.765
 11
792.587
 21
514.765
  0
POLYLINE
  8
Layer1
  6
CONTINUOUS
 62
7
 66
1
 10
0
 20
0
 30
0
  0
VERTEX
  8
Layer1
 10
788.587
 20
573.765
  0
VERTEX
  8
Layer1
 10
788.587
 20
514.765
  0
SEQEND
  0
POLYLINE
  8
Layer1
  6
CONTINUOUS
 62
7
 66
1
 10
0
 20
0
 30
0
 70
1
  0
VERTEX
  8
Layer1
 10
787.552
 20
569.901
  0
VERTEX
  8
Layer1
 10
788.587
 20
573.765
  0
VERTEX
  8
Layer1
 10
789.622
 20
569.901
  0
SEQEND
  0
POLYLINE
  8
Layer1
  6
CONTINUOUS
 62
7
 66
1
 10
0
 20
0
 30
0
 70
1
  0
VERTEX
  8
Layer1
 10
789.622
 20
518.629
  0
VERTEX
  8
Layer1
 10
788.587
 20
514.765
  0
VERTEX
  8
Layer1
 10
787.552
 20
518.629
  0
SEQEND
  0
TEXT
  8
Layer1
 62
7
 10
800.846
 20
544.265
 72
1
 11
800.846
 21
544.265
 40
6
 41
1
 50
90
  1
 65 
  0
LINE
  8
Layer1
  6
CONTINUOUS
 62
7
 10
750.774
 20
576.765
 11
806.846
 21
576.765
  0
LINE
  8
Layer1
  6
CONTINUOUS
 62
7
 10
751.7
 20
511.765
 11
806.846
 21
511.765
  0
POLYLINE
  8
Layer1
  6
CONTINUOUS
 62
7
 66
1
 10
0
 20
0
 30
0
  0
VERTEX
  8
Layer1
 10
802.846
 20
576.765
  0
VERTEX
  8
Layer1
 10
802.846
 20
511.765
  0
SEQEND
  0
POLYLINE
  8
Layer1
  6
CONTINUOUS
 62
7
 66
1
 10
0
 20
0
 30
0
 70
1
  0
VERTEX
  8
Layer1
 10
801.811
 20
572.901
  0
VERTEX
  8
Layer1
 10
802.846
 20
576.765
  0
VERTEX
  8
Layer1
 10
803.881
 20
572.901
  0
SEQEND
  0
POLYLINE
  8
Layer1
  6
CONTINUOUS
 62
7
 66
1
 10
0
 20
0
 30
0
 70
1
  0
VERTEX
  8
Layer1
 10
803.881
 20
515.629
  0
VERTEX
  8
Layer1
 10
802.846
 20
511.765
  0
VERTEX
  8
Layer1
 10
801.811
 20
515.629
  0
SEQEND
  0
TEXT
  8
Layer1
 62
7
 10
814.883
 20
544.265
 72
1
 11
814.883
 21
544.265
 40
6
 41
1
 50
90
  1
 85 
  0
LINE
  8
Layer1
  6
CONTINUOUS
 62
7
 10
751.343
 20
586.765
 11
820.883
 21
586.765
  0
LINE
  8
Layer1
  6
CONTINUOUS
 62
7
 10
751.343
 20
501.765
 11
820.883
 21
501.765
  0
POLYLINE
  8
Layer1
  6
CONTINUOUS
 62
7
 66
1
 10
0
 20
0
 30
0
  0
VERTEX
  8
Layer1
 10
816.883
 20
586.765
  0
VERTEX
  8
Layer1
 10
816.883
 20
501.765
  0
SEQEND
  0
POLYLINE
  8
Layer1
  6
CONTINUOUS
 62
7
 66
1
 10
0
 20
0
 30
0
 70
1
  0
VERTEX
  8
Layer1
 10
815.848
 20
582.901
  0
VERTEX
  8
Layer1
 10
816.883
 20
586.765
  0
VERTEX
  8
Layer1
 10
817.918
 20
582.901
  0
SEQEND
  0
POLYLINE
  8
Layer1
  6
CONTINUOUS
 62
7
 66
1
 10
0
 20
0
 30
0
 70
1
  0
VERTEX
  8
Layer1
 10
817.918
 20
505.629
  0
VERTEX
  8
Layer1
 10
816.883
 20
501.765
  0
VERTEX
  8
Layer1
 10
815.848
 20
505.629
  0
SEQEND
  0
TEXT
  8
Layer1
 62
7
 10
827.428
 20
544.265
 72
1
 11
827.428
 21
544.265
 40
6
 41
1
 50
90
  1
 90 
  0
LINE
  8
Layer1
  6
CONTINUOUS
 62
7
 10
738.197
 20
589.265
 11
833.428
 21
589.265
  0
LINE
  8
Layer1
  6
CONTINUOUS
 62
7
 10
738.197
 20
499.265
 11
833.428
 21
499.265
  0
POLYLINE
  8
Layer1
  6
CONTINUOUS
 62
7
 66
1
 10
0
 20
0
 30
0
  0
VERTEX
  8
Layer1
 10
829.428
 20
589.265
  0
VERTEX
  8
Layer1
 10
829.428
 20
499.265
  0
SEQEND
  0
POLYLINE
  8
Layer1
  6
CONTINUOUS
 62
7
 66
1
 10
0
 20
0
 30
0
 70
1
  0
VERTEX
  8
Layer1
 10
828.391
 20
585.401
  0
VERTEX
  8
Layer1
 10
829.428
 20
589.265
  0
VERTEX
  8
Layer1
 10
830.463
 20
585.401
  0
SEQEND
  0
POLYLINE
  8
Layer1
  6
CONTINUOUS
 62
7
 66
1
 10
0
 20
0
 30
0
 70
1
  0
VERTEX
  8
Layer1
 10
830.463
 20
503.129
  0
VERTEX
  8
Layer1
 10
829.428
 20
499.265
  0
VERTEX
  8
Layer1
 10
828.391
 20
503.129
  0
SEQEND
  0
TEXT
  8
Layer1
 62
7
 10
838.776
 20
544.265
 72
1
 11
838.776
 21
544.265
 40
6
 41
1
 50
90
  1
 110 
  0
LINE
  8
Layer1
  6
CONTINUOUS
 62
7
 10
747.343
 20
599.265
 11
844.776
 21
599.265
  0
LINE
  8
Layer1
  6
CONTINUOUS
 62
7
 10
747.343
 20
489.265
 11
844.776
 21
489.265
  0
POLYLINE
  8
Layer1
  6
CONTINUOUS
 62
7
 66
1
 10
0
 20
0
 30
0
  0
VERTEX
  8
Layer1
 10
840.776
 20
599.265
  0
VERTEX
  8
Layer1
 10
840.776
 20
489.265
  0
SEQEND
  0
POLYLINE
  8
Layer1
  6
CONTINUOUS
 62
7
 66
1
 10
0
 20
0
 30
0
 70
1
  0
VERTEX
  8
Layer1
 10
839.742
 20
595.401
  0
VERTEX
  8
Layer1
 10
840.776
 20
599.265
  0
VERTEX
  8
Layer1
 10
841.812
 20
595.401
  0
SEQEND
  0
POLYLINE
  8
Layer1
  6
CONTINUOUS
 62
7
 66
1
 10
0
 20
0
 30
0
 70
1
  0
VERTEX
  8
Layer1
 10
841.812
 20
493.129
  0
VERTEX
  8
Layer1
 10
840.776
 20
489.265
  0
VERTEX
  8
Layer1
 10
839.742
 20
493.129
  0
SEQEND
  0
TEXT
  8
Layer1
 62
7
 10
595.441
 20
544.265
 72
1
 11
595.441
 21
544.265
 40
6
 41
1
 50
90
  1
 73 
  0
LINE
  8
Layer1
  6
CONTINUOUS
 62
7
 10
643.343
 20
580.765
 11
593.441
 21
580.765
  0
LINE
  8
Layer1
  6
CONTINUOUS
 62
7
 10
643.343
 20
507.765
 11
593.441
 21
507.765
  0
POLYLINE
  8
Layer1
  6
CONTINUOUS
 62
7
 66
1
 10
0
 20
0
 30
0
  0
VERTEX
  8
Layer1
 10
597.441
 20
580.765
  0
VERTEX
  8
Layer1
 10
597.441
 20
507.765
  0
SEQEND
  0
POLYLINE
  8
Layer1
  6
CONTINUOUS
 62
7
 66
1
 10
0
 20
0
 30
0
 70
1
  0
VERTEX
  8
Layer1
 10
596.405
 20
576.901
  0
VERTEX
  8
Layer1
 10
597.441
 20
580.765
  0
VERTEX
  8
Layer1
 10
598.476
 20
576.901
  0
SEQEND
  0
POLYLINE
  8
Layer1
  6
CONTINUOUS
 62
7
 66
1
 10
0
 20
0
 30
0
 70
1
  0
VERTEX
  8
Layer1
 10
598.476
 20
511.629
  0
VERTEX
  8
Layer1
 10
597.441
 20
507.765
  0
VERTEX
  8
Layer1
 10
596.405
 20
511.629
  0
SEQEND
  0
TEXT
  8
Layer1
 62
7
 10
737.488
 20
327.4
 72
1
 11
737.488
 21
327.4
 40
6
 41
1
 50
22.5
  1
 45°
  0
ARC
  8
Layer1
  6
CONTINUOUS
 62
7
 10
752.343
 20
291.536
 40
36.8188
 50
90
 51
135
  0
TEXT
  8
Layer1
 62
7
 10
745.343
 20
310.536
 72
1
 11
745.343
 21
310.536
 40
6
 41
1
  1
 14 
  0
LINE
  8
Layer1
  6
CONTINUOUS
 62
7
 10
738.343
 20
305.536
 11
738.343
 21
312.536
  0
POLYLINE
  8
Layer1
  6
CONTINUOUS
 62
7
 66
1
 10
0
 20
0
 30
0
  0
VERTEX
  8
Layer1
 10
738.343
 20
308.536
  0
VERTEX
  8
Layer1
 10
752.343
 20
308.536
  0
SEQEND
  0
POLYLINE
  8
Layer1
  6
CONTINUOUS
 62
7
 66
1
 10
0
 20
0
 30
0
 70
1
  0
VERTEX
  8
Layer1
 10
742.207
 20
307.501
  0
VERTEX
  8
Layer1
 10
738.343
 20
308.536
  0
VERTEX
  8
Layer1
 10
742.207
 20
309.571
  0
SEQEND
  0
POLYLINE
  8
Layer1
  6
CONTINUOUS
 62
7
 66
1
 10
0
 20
0
 30
0
 70
1
  0
VERTEX
  8
Layer1
 10
748.479
 20
309.571
  0
VERTEX
  8
Layer1
 10
752.343
 20
308.536
  0
VERTEX
  8
Layer1
 10
748.479
 20
307.501
  0
SEQEND
  0
LINE
  8
Layer1
  6
CONTINUOUS
 62
7
 10
431.479
 20
340.536
 11
412.007
 21
340.536
  0
LINE
  8
Layer1
  6
PHANTOM1
 62
7
 10
697.343
 20
321.536
 11
724.269
 21
294.611
  0
LINE
  8
Layer1
  6
PHANTOM1
 62
7
 10
724.269
 20
281.536
 11
724.269
 21
294.611
  0
TEXT
  8
Layer1
 62
7
 10
511.425
 20
272.558
 72
1
 11
511.425
 21
272.558
 40
6
 41
1
 50
90
  1
(中心間距離）
  0
POLYLINE
  8
Layer1
  6
CONTINUOUS
 62
7
 66
1
 10
0
 20
0
 30
0
  0
VERTEX
  8
Layer1
 10
667.669
 20
296.584
  0
VERTEX
  8
Layer1
 10
637.812
 20
214.55
  0
VERTEX
  8
Layer1
 10
637.812
 20
214.55
  0
SEQEND
  0
CIRCLE
  8
Layer1
  6
CONTINUOUS
 62
7
 10
667.669
 20
296.584
 40
1
  0
CIRCLE
  8
Layer1
  6
CONTINUOUS
 62
7
 10
636.665
 20
211.399
 40
3.3541
  0
TEXT
  8
Layer1
 62
7
 10
636.665
 20
211.399
 72
1
 73
2
 11
636.665
 21
211.399
 40
6
 41
1
  1
1
  0
POLYLINE
  8
Layer1
  6
CONTINUOUS
 62
7
 66
1
 10
0
 20
0
 30
0
  0
VERTEX
  8
Layer1
 10
734.284
 20
260.749
  0
VERTEX
  8
Layer1
 10
718.304
 20
214.55
  0
VERTEX
  8
Layer1
 10
718.304
 20
214.55
  0
SEQEND
  0
CIRCLE
  8
Layer1
  6
CONTINUOUS
 62
7
 10
734.284
 20
260.749
 40
1
  0
CIRCLE
  8
Layer1
  6
CONTINUOUS
 62
7
 10
717.207
 20
211.381
 40
3.3541
  0
TEXT
  8
Layer1
 62
7
 10
717.207
 20
211.381
 72
1
 73
2
 11
717.207
 21
211.381
 40
6
 41
1
  1
6
  0
POLYLINE
  8
Layer1
  6
CONTINUOUS
 62
7
 66
1
 10
0
 20
0
 30
0
  0
VERTEX
  8
Layer1
 10
690.695
 20
303.161
  0
VERTEX
  8
Layer1
 10
658.496
 20
214.55
  0
VERTEX
  8
Layer1
 10
658.496
 20
214.55
  0
SEQEND
  0
CIRCLE
  8
Layer1
  6
CONTINUOUS
 62
7
 10
690.695
 20
303.161
 40
1
  0
CIRCLE
  8
Layer1
  6
CONTINUOUS
 62
7
 10
657.351
 20
211.398
 40
3.3541
  0
TEXT
  8
Layer1
 62
7
 10
657.351
 20
211.398
 72
1
 73
2
 11
657.351
 21
211.398
 40
6
 41
1
  1
2
  0
POLYLINE
  8
Layer1
  6
CONTINUOUS
 62
7
 66
1
 10
0
 20
0
 30
0
  0
VERTEX
  8
Layer1
 10
702.42
 20
262.813
  0
VERTEX
  8
Layer1
 10
684.129
 20
214.55
  0
VERTEX
  8
Layer1
 10
684.129
 20
214.55
  0
SEQEND
  0
CIRCLE
  8
Layer1
  6
CONTINUOUS
 62
7
 10
702.42
 20
262.813
 40
1
  0
CIRCLE
  8
Layer1
  6
CONTINUOUS
 62
7
 10
682.939
 20
211.414
 40
3.3541
  0
TEXT
  8
Layer1
 62
7
 10
682.939
 20
211.414
 72
1
 73
2
 11
682.939
 21
211.414
 40
6
 41
1
  1
7
  0
POLYLINE
  8
Layer1
  6
CONTINUOUS
 62
7
 66
1
 10
0
 20
0
 30
0
  0
VERTEX
  8
Layer1
 10
742.269
 20
276.189
  0
VERTEX
  8
Layer1
 10
765.071
 20
214.55
  0
VERTEX
  8
Layer1
 10
765.071
 20
214.55
  0
SEQEND
  0
CIRCLE
  8
Layer1
  6
CONTINUOUS
 62
7
 10
742.269
 20
276.189
 40
1
  0
CIRCLE
  8
Layer1
  6
CONTINUOUS
 62
7
 10
766.543
 20
210.571
 40
4.24264
  0
TEXT
  8
Layer1
 62
7
 10
766.543
 20
210.571
 72
1
 73
2
 11
766.543
 21
210.571
 40
6
 41
1
  1
10
  0
POLYLINE
  8
Layer1
  6
CONTINUOUS
 62
7
 66
1
 10
0
 20
0
 30
0
  0
VERTEX
  8
Layer1
 10
632.493
 20
298.64
  0
VERTEX
  8
Layer1
 10
609.559
 20
379.536
  0
VERTEX
  8
Layer1
 10
609.559
 20
379.536
  0
SEQEND
  0
CIRCLE
  8
Layer1
  6
CONTINUOUS
 62
7
 10
632.493
 20
298.64
 40
1
  0
CIRCLE
  8
Layer1
  6
CONTINUOUS
 62
7
 10
608.401
 20
383.618
 40
4.24264
  0
TEXT
  8
Layer1
 62
7
 10
608.401
 20
383.618
 72
1
 73
2
 11
608.401
 21
383.618
 40
6
 41
1
  1
13
  0
POLYLINE
  8
Layer1
  6
CONTINUOUS
 62
7
 66
1
 10
0
 20
0
 30
0
  0
VERTEX
  8
Layer1
 10
618.593
 20
316.536
  0
VERTEX
  8
Layer1
 10
595.619
 20
379.536
  0
VERTEX
  8
Layer1
 10
595.619
 20
379.536
  0
SEQEND
  0
CIRCLE
  8
Layer1
  6
CONTINUOUS
 62
7
 10
618.593
 20
316.536
 40
1
  0
CIRCLE
  8
Layer1
  6
CONTINUOUS
 62
7
 10
594.166
 20
383.522
 40
4.24264
  0
TEXT
  8
Layer1
 62
7
 10
594.166
 20
383.522
 72
1
 73
2
 11
594.166
 21
383.522
 40
6
 41
1
  1
14
  0
POLYLINE
  8
Layer1
  6
CONTINUOUS
 62
7
 66
1
 10
0
 20
0
 30
0
  0
VERTEX
  8
Layer1
 10
696.622
 20
331.183
  0
VERTEX
  8
Layer1
 10
679.202
 20
379.62
  0
VERTEX
  8
Layer1
 10
679.202
 20
379.62
  0
SEQEND
  0
CIRCLE
  8
Layer1
  6
CONTINUOUS
 62
7
 10
696.622
 20
331.183
 40
1
  0
CIRCLE
  8
Layer1
  6
CONTINUOUS
 62
7
 10
678.067
 20
382.776
 40
3.3541
  0
TEXT
  8
Layer1
 62
7
 10
678.067
 20
382.776
 72
1
 73
2
 11
678.067
 21
382.776
 40
6
 41
1
  1
4
  0
POLYLINE
  8
Layer1
  6
CONTINUOUS
 62
7
 66
1
 10
0
 20
0
 30
0
  0
VERTEX
  8
Layer1
 10
654.266
 20
334.536
  0
VERTEX
  8
Layer1
 10
637.658
 20
380.714
  0
VERTEX
  8
Layer1
 10
637.658
 20
380.714
  0
SEQEND
  0
CIRCLE
  8
Layer1
  6
CONTINUOUS
 62
7
 10
654.266
 20
334.536
 40
1
  0
CIRCLE
  8
Layer1
  6
CONTINUOUS
 62
7
 10
636.223
 20
384.706
 40
4.24264
  0
TEXT
  8
Layer1
 62
7
 10
636.223
 20
384.706
 72
1
 73
2
 11
636.223
 21
384.706
 40
6
 41
1
  1
11
  0
POLYLINE
  8
Layer1
  6
CONTINUOUS
 62
7
 66
1
 10
0
 20
0
 30
0
  0
VERTEX
  8
Layer1
 10
672.343
 20
343.434
  0
VERTEX
  8
Layer1
 10
659.43
 20
379.579
  0
VERTEX
  8
Layer1
 10
659.43
 20
379.579
  0
SEQEND
  0
CIRCLE
  8
Layer1
  6
CONTINUOUS
 62
7
 10
672.343
 20
343.434
 40
1
  0
CIRCLE
  8
Layer1
  6
CONTINUOUS
 62
7
 10
658.302
 20
382.738
 40
3.3541
  0
TEXT
  8
Layer1
 62
7
 10
658.302
 20
382.738
 72
1
 73
2
 11
658.302
 21
382.738
 40
6
 41
1
  1
8
  0
POLYLINE
  8
Layer1
  6
CONTINUOUS
 62
7
 66
1
 10
0
 20
0
 30
0
  0
VERTEX
  8
Layer1
 10
703.343
 20
361.595
  0
VERTEX
  8
Layer1
 10
685.923
 20
410.032
  0
VERTEX
  8
Layer1
 10
685.923
 20
410.032
  0
SEQEND
  0
CIRCLE
  8
Layer1
  6
CONTINUOUS
 62
7
 10
703.343
 20
361.595
 40
1
  0
CIRCLE
  8
Layer1
  6
CONTINUOUS
 62
7
 10
684.787
 20
413.189
 40
3.3541
  0
TEXT
  8
Layer1
 62
7
 10
684.787
 20
413.189
 72
1
 73
2
 11
684.787
 21
413.189
 40
6
 41
1
  1
3
  0
TEXT
  8
Layer1
 62
7
 10
780.031
 20
609.611
 40
6
 41
1
  1
アッパー取付穴
  0
POLYLINE
  8
Layer1
  6
CONTINUOUS
 62
7
 66
1
 10
0
 20
0
 30
0
  0
VERTEX
  8
Layer1
 10
746.142
 20
580.711
  0
VERTEX
  8
Layer1
 10
786.305
 20
623.256
  0
VERTEX
  8
Layer1
 10
786.305
 20
623.256
  0
SEQEND
  0
POLYLINE
  8
Layer1
  6
CONTINUOUS
 62
7
 66
1
 10
0
 20
0
 30
0
 70
1
  0
VERTEX
  8
Layer1
 10
749.548
 20
582.81
  0
VERTEX
  8
Layer1
 10
746.142
 20
580.711
  0
VERTEX
  8
Layer1
 10
748.042
 20
584.231
  0
SEQEND
  0
LINE
  8
Layer1
  6
CONTINUOUS
 62
7
 10
786.305
 20
623.256
 11
801.305
 21
623.256
  0
TEXT
  8
Layer1
 62
7
 10
801.305
 20
625.256
 72
2
 11
801.305
 21
625.256
 40
6
 41
1
  1
4-φ9
  0
POLYLINE
  8
Layer1
  6
CONTINUOUS
 62
7
 66
1
 10
0
 20
0
 30
0
  0
VERTEX
  8
Layer1
 10
656.585
 20
592.447
  0
VERTEX
  8
Layer1
 10
626.12
 20
620.16
  0
VERTEX
  8
Layer1
 10
626.12
 20
620.16
  0
SEQEND
  0
POLYLINE
  8
Layer1
  6
CONTINUOUS
 62
7
 66
1
 10
0
 20
0
 30
0
 70
1
  0
VERTEX
  8
Layer1
 10
654.424
 20
595.813
  0
VERTEX
  8
Layer1
 10
656.585
 20
592.447
  0
VERTEX
  8
Layer1
 10
653.03
 20
594.281
  0
SEQEND
  0
LINE
  8
Layer1
  6
CONTINUOUS
 62
7
 10
626.12
 20
620.16
 11
611.12
 21
620.16
  0
TEXT
  8
Layer1
 62
7
 10
611.12
 20
622.16
 40
6
 41
1
  1
4-φ9
  0
TEXT
  8
Layer1
 62
7
 10
596.89
 20
607.12
 40
6
 41
1
  1
ベース取付穴
  0
LINE
  8
Layer1
  6
CENTER1
 62
7
 10
408.33
 20
269.536
 11
431.245
 21
269.536
  0
LINE
  8
Layer1
  6
CENTER1
 62
7
 10
419.507
 20
277.453
 11
419.507
 21
256.72
  0
LINE
  8
Layer1
  6
CENTER1
 62
7
 10
449.507
 20
279.394
 11
449.507
 21
258.482
  0
LINE
  8
Layer1
  6
CENTER1
 62
7
 10
437.051
 20
269.536
 11
460.005
 21
269.536
  0
CIRCLE
  8
Layer1
  6
DASHED1
 62
7
 10
419.507
 20
269.536
 40
8
  0
CIRCLE
  8
Layer1
  6
DASHED1
 62
7
 10
449.507
 20
269.536
 40
8
  0
CIRCLE
  8
Layer1
  6
DASHED1
 62
7
 10
449.507
 20
269.536
 40
4
  0
CIRCLE
  8
Layer1
  6
DASHED1
 62
7
 10
419.507
 20
269.536
 40
4
  0
TEXT
  8
Layer1
 62
7
 10
746.978
 20
459.048
 72
1
 11
746.978
 21
459.048
 40
6
 41
1
  1
 10 
  0
LINE
  8
Layer1
  6
CONTINUOUS
 62
7
 10
703.343
 20
459.625
 11
703.343
 21
454.521
  0
POLYLINE
  8
Layer1
  6
CONTINUOUS
 62
7
 66
1
 10
0
 20
0
 30
0
  0
VERTEX
  8
Layer1
 10
729.343
 20
458.521
  0
VERTEX
  8
Layer1
 10
713.343
 20
458.521
  0
SEQEND
  0
POLYLINE
  8
Layer1
  6
CONTINUOUS
 62
7
 66
1
 10
0
 20
0
 30
0
 70
1
  0
VERTEX
  8
Layer1
 10
717.207
 20
457.486
  0
VERTEX
  8
Layer1
 10
713.343
 20
458.521
  0
VERTEX
  8
Layer1
 10
717.207
 20
459.557
  0
SEQEND
  0
POLYLINE
  8
Layer1
  6
CONTINUOUS
 62
7
 66
1
 10
0
 20
0
 30
0
  0
VERTEX
  8
Layer1
 10
752.343
 20
458.521
  0
VERTEX
  8
Layer1
 10
760.343
 20
458.521
  0
SEQEND
  0
POLYLINE
  8
Layer1
  6
CONTINUOUS
 62
7
 66
1
 10
0
 20
0
 30
0
 70
1
  0
VERTEX
  8
Layer1
 10
756.207
 20
459.557
  0
VERTEX
  8
Layer1
 10
752.343
 20
458.521
  0
VERTEX
  8
Layer1
 10
756.207
 20
457.486
  0
SEQEND
  0
LINE
  8
Layer1
  6
CONTINUOUS
 62
7
 10
752.343
 20
458.521
 11
742.343
 21
458.521
  0
ARC
  8
Layer1
  6
CONTINUOUS
 62
7
 10
667.87
 20
544.299
 40
1
 50
140.711
 51
225
  0
LINE
  8
Layer1
  6
CONTINUOUS
 62
7
 10
676.853
 20
545.909
 11
679.117
 21
545.909
  0
LINE
  8
Layer1
  6
CONTINUOUS
 62
7
 10
676.853
 20
542.424
 11
679.117
 21
542.424
  0
LINE
  8
Layer1
  6
CONTINUOUS
 62
7
 10
679.117
 20
545.909
 11
679.117
 21
542.424
  0
ARC
  8
Layer1
  6
CONTINUOUS
 62
7
 10
672.343
 20
544.265
 40
4.80058
 50
20.031
 51
140.098
  0
ARC
  8
Layer1
  6
CONTINUOUS
 62
7
 10
672.343
 20
544.265
 40
4.80058
 50
218.056
 51
337.793
  0
ARC
  8
Layer1
  6
CONTINUOUS
 62
7
 10
659.451
 20
537.014
 40
10.1292
 50
24.1178
 51
40.4581
  0
ARC
  8
Layer1
  6
CONTINUOUS
 62
7
 10
659.39
 20
551.505
 40
10.1292
 50
319.542
 51
335.882
  0
ARC
  8
Layer1
  6
CONTINUOUS
 62
7
 10
677.985
 20
545.909
 40
0.542282
 50
0
 51
180
  0
ARC
  8
Layer1
  6
CONTINUOUS
 62
7
 10
677.985
 20
542.424
 40
0.657613
 50
180
 51
2.03555e-013
  0
LINE
  8
Layer1
  6
CONTINUOUS
 62
7
 10
673.582
 20
544.196
 11
671.291
 21
544.196
  0
LINE
  8
Layer1
  6
CENTER1
 62
7
 10
672.343
 20
522.364
 11
672.343
 21
557.4
  0
LINE
  8
Layer1
  6
CENTER1
 62
7
 10
672.343
 20
575.682
 11
672.343
 21
569.93
  0
LINE
  8
Layer1
  6
CENTER1
 62
7
 10
670.072
 20
572.765
 11
675.264
 21
572.765
  0
CIRCLE
  8
Layer1
  6
CONTINUOUS
 62
7
 10
672.343
 20
572.765
 40
1.25
  0
LINE
  8
Layer1
  6
CENTER1
 62
7
 10
672.343
 20
518.682
 11
672.343
 21
512.93
  0
LINE
  8
Layer1
  6
CENTER1
 62
7
 10
670.072
 20
515.765
 11
675.264
 21
515.765
  0
CIRCLE
  8
Layer1
  6
CONTINUOUS
 62
7
 10
672.343
 20
515.765
 40
1.25
  0
LINE
  8
Layer1
  6
CONTINUOUS
 62
7
 10
767.343
 20
258.536
 11
767.343
 21
329.536
  0
LINE
  8
Layer1
  6
CONTINUOUS
 62
7
 10
753.346
 20
330.536
 11
766.343
 21
330.536
  0
LINE
  8
Layer1
  6
CONTINUOUS
 62
7
 10
766.343
 20
330.536
 11
767.343
 21
329.536
  0
LINE
  8
Layer1
  6
CONTINUOUS
 62
7
 10
767.343
 20
258.536
 11
766.343
 21
257.536
  0
LINE
  8
Layer1
  6
CENTER1
 62
7
 10
748.477
 20
287.536
 11
777.803
 21
287.536
  0
LINE
  8
Layer1
  6
CONTINUOUS
 62
7
 10
767.343
 20
293.31
 11
771.84
 21
293.31
  0
LINE
  8
Layer1
  6
CONTINUOUS
 62
7
 10
771.84
 20
293.31
 11
772.343
 21
292.436
  0
LINE
  8
Layer1
  6
CONTINUOUS
 62
7
 10
772.343
 20
292.436
 11
772.343
 21
282.636
  0
LINE
  8
Layer1
  6
CONTINUOUS
 62
7
 10
772.343
 20
282.636
 11
771.84
 21
281.762
  0
LINE
  8
Layer1
  6
CONTINUOUS
 62
7
 10
771.84
 20
281.762
 11
767.343
 21
281.762
  0
LINE
  8
Layer1
  6
CONTINUOUS
 62
7
 10
767.343
 20
290.423
 11
771.84
 21
290.423
  0
LINE
  8
Layer1
  6
CONTINUOUS
 62
7
 10
767.343
 20
284.649
 11
771.84
 21
284.649
  0
LINE
  8
Layer1
  6
CONTINUOUS
 62
7
 10
772.343
 20
290.536
 11
775.303
 21
290.536
  0
LINE
  8
Layer1
  6
CONTINUOUS
 62
7
 10
772.343
 20
284.536
 11
775.303
 21
284.536
  0
LINE
  8
Layer1
  6
CONTINUOUS
 62
7
 10
775.303
 20
290.536
 11
775.303
 21
284.536
  0
LINE
  8
Layer1
  6
CONTINUOUS
 62
7
 10
772.343
 20
290.136
 11
775.704
 21
290.136
  0
LINE
  8
Layer1
  6
CONTINUOUS
 62
7
 10
772.343
 20
284.936
 11
775.704
 21
284.936
  0
ARC
  8
Layer1
  6
CONTINUOUS
 62
7
 10
762.733
 20
287.536
 40
9.553
 50
342.412
 51
17.588
  0
ARC
  8
Layer1
  6
CONTINUOUS
 62
7
 10
769.729
 20
291.866
 40
2.556
 50
325.616
 51
34.384
  0
ARC
  8
Layer1
  6
CONTINUOUS
 62
7
 10
769.729
 20
283.206
 40
2.556
 50
325.616
 51
34.384
  0
LINE
  8
Layer1
  6
CONTINUOUS
 62
7
 10
776.303
 20
289.536
 11
776.303
 21
285.536
  0
LINE
  8
Layer1
  6
CONTINUOUS
 62
7
 10
775.303
 20
290.536
 11
776.303
 21
289.536
  0
LINE
  8
Layer1
  6
CONTINUOUS
 62
7
 10
775.303
 20
284.536
 11
776.303
 21
285.536
  0
POLYLINE
  8
Layer1
  6
CONTINUOUS
 62
7
 66
1
 10
0
 20
0
 30
0
  0
VERTEX
  8
Layer1
 10
767.343
 20
287.536
  0
VERTEX
  8
Layer1
 10
793.928
 20
215
  0
VERTEX
  8
Layer1
 10
793.928
 20
215
  0
SEQEND
  0
CIRCLE
  8
Layer1
  6
CONTINUOUS
 62
7
 10
767.343
 20
287.536
 40
1
  0
CIRCLE
  8
Layer1
  6
CONTINUOUS
 62
7
 10
795.388
 20
211.017
 40
4.24264
  0
TEXT
  8
Layer1
 62
7
 10
795.388
 20
211.017
 72
1
 73
2
 11
795.388
 21
211.017
 40
6
 41
1
  1
12
  0
LINE
  8
Layer1
  6
CONTINUOUS
 62
7
 10
749.269
 20
289.536
 11
749.269
 21
285.536
  0
LINE
  8
Layer1
  6
CONTINUOUS
 62
7
 10
752.267
 20
290.136
 11
749.689
 21
290.136
  0
LINE
  8
Layer1
  6
CONTINUOUS
 62
7
 10
750.269
 20
290.536
 11
752.312
 21
290.536
  0
LINE
  8
Layer1
  6
CONTINUOUS
 62
7
 10
750.269
 20
290.536
 11
749.269
 21
289.536
  0
LINE
  8
Layer1
  6
CONTINUOUS
 62
7
 10
750.269
 20
284.536
 11
749.269
 21
285.536
  0
LINE
  8
Layer1
  6
CONTINUOUS
 62
7
 10
750.269
 20
284.536
 11
752.312
 21
284.536
  0
LINE
  8
Layer1
  6
CONTINUOUS
 62
7
 10
752.267
 20
284.936
 11
749.842
 21
284.936
  0
LINE
  8
Layer1
  6
CONTINUOUS
 62
7
 10
767.343
 20
302.31
 11
767.343
 21
290.762
  0
LINE
  8
Layer1
  6
CENTER1
 62
7
 10
748.266
 20
279.536
 11
776.64
 21
279.536
  0
LINE
  8
Layer1
  6
CENTER1
 62
7
 10
746.475
 20
314.536
 11
772.907
 21
314.536
  0
LINE
  8
Layer1
  6
CONTINUOUS
 62
7
 10
767.343
 20
308.036
 11
774.843
 21
308.036
  0
LINE
  8
Layer1
  6
CONTINUOUS
 62
7
 10
767.343
 20
321.036
 11
774.843
 21
321.036
  0
LINE
  8
Layer1
  6
CONTINUOUS
 62
7
 10
774.843
 20
308.036
 11
774.843
 21
321.036
  0
LINE
  8
Layer1
  6
CONTINUOUS
 62
7
 10
775.343
 20
308.536
 11
775.343
 21
320.536
  0
LINE
  8
Layer1
  6
CONTINUOUS
 62
7
 10
774.843
 20
308.036
 11
775.343
 21
308.536
  0
LINE
  8
Layer1
  6
CONTINUOUS
 62
7
 10
774.843
 20
321.036
 11
775.343
 21
320.536
  0
LINE
  8
Layer1
  6
CONTINUOUS
 62
7
 10
767.343
 20
321.036
 11
767.343
 21
308.036
  0
LINE
  8
Layer1
  6
CONTINUOUS
 62
7
 10
767.92
 20
320.036
 11
774.266
 21
320.036
  0
LINE
  8
Layer1
  6
CONTINUOUS
 62
7
 10
768.497
 20
319.036
 11
773.689
 21
319.036
  0
LINE
  8
Layer1
  6
CONTINUOUS
 62
7
 10
769.074
 20
318.036
 11
773.112
 21
318.036
  0
LINE
  8
Layer1
  6
CONTINUOUS
 62
7
 10
769.651
 20
317.036
 11
772.535
 21
317.036
  0
LINE
  8
Layer1
  6
CONTINUOUS
 62
7
 10
767.343
 20
273.036
 11
774.843
 21
273.036
  0
LINE
  8
Layer1
  6
CONTINUOUS
 62
7
 10
767.343
 20
286.036
 11
774.843
 21
286.036
  0
LINE
  8
Layer1
  6
CONTINUOUS
 62
7
 10
774.843
 20
273.036
 11
774.843
 21
286.036
  0
LINE
  8
Layer1
  6
CONTINUOUS
 62
7
 10
775.343
 20
273.536
 11
775.343
 21
285.536
  0
LINE
  8
Layer1
  6
CONTINUOUS
 62
7
 10
774.843
 20
273.036
 11
775.343
 21
273.536
  0
LINE
  8
Layer1
  6
CONTINUOUS
 62
7
 10
774.843
 20
286.036
 11
775.343
 21
285.536
  0
LINE
  8
Layer1
  6
CONTINUOUS
 62
7
 10
767.343
 20
286.036
 11
767.343
 21
273.036
  0
LINE
  8
Layer1
  6
CONTINUOUS
 62
7
 10
767.92
 20
285.036
 11
774.266
 21
285.036
  0
LINE
  8
Layer1
  6
CONTINUOUS
 62
7
 10
768.497
 20
284.036
 11
773.689
 21
284.036
  0
LINE
  8
Layer1
  6
CONTINUOUS
 62
7
 10
769.074
 20
283.036
 11
773.112
 21
283.036
  0
LINE
  8
Layer1
  6
CONTINUOUS
 62
7
 10
769.651
 20
282.036
 11
772.535
 21
282.036
  0
TEXT
  8
Layer1
 62
7
 10
787.185
 20
268.536
 72
1
 11
787.185
 21
268.536
 40
6
 41
1
 50
90
  1
 22 
  0
LINE
  8
Layer1
  6
CONTINUOUS
 62
7
 10
774.843
 20
279.536
 11
793.185
 21
279.536
  0
POLYLINE
  8
Layer1
  6
CONTINUOUS
 62
7
 66
1
 10
0
 20
0
 30
0
  0
VERTEX
  8
Layer1
 10
789.185
 20
279.536
  0
VERTEX
  8
Layer1
 10
789.185
 20
257.536
  0
SEQEND
  0
POLYLINE
  8
Layer1
  6
CONTINUOUS
 62
7
 66
1
 10
0
 20
0
 30
0
 70
1
  0
VERTEX
  8
Layer1
 10
788.149
 20
275.672
  0
VERTEX
  8
Layer1
 10
789.185
 20
279.536
  0
VERTEX
  8
Layer1
 10
790.219
 20
275.672
  0
SEQEND
  0
POLYLINE
  8
Layer1
  6
CONTINUOUS
 62
7
 66
1
 10
0
 20
0
 30
0
 70
1
  0
VERTEX
  8
Layer1
 10
790.219
 20
261.4
  0
VERTEX
  8
Layer1
 10
789.185
 20
257.536
  0
VERTEX
  8
Layer1
 10
788.149
 20
261.4
  0
SEQEND
  0
TEXT
  8
Layer1
 62
7
 10
787.185
 20
297.036
 72
1
 11
787.185
 21
297.036
 40
6
 41
1
 50
90
  1
 35 
  0
LINE
  8
Layer1
  6
CONTINUOUS
 62
7
 10
774.843
 20
314.536
 11
793.185
 21
314.536
  0
POLYLINE
  8
Layer1
  6
CONTINUOUS
 62
7
 66
1
 10
0
 20
0
 30
0
  0
VERTEX
  8
Layer1
 10
789.185
 20
314.536
  0
VERTEX
  8
Layer1
 10
789.185
 20
279.536
  0
SEQEND
  0
POLYLINE
  8
Layer1
  6
CONTINUOUS
 62
7
 66
1
 10
0
 20
0
 30
0
 70
1
  0
VERTEX
  8
Layer1
 10
788.149
 20
310.672
  0
VERTEX
  8
Layer1
 10
789.185
 20
314.536
  0
VERTEX
  8
Layer1
 10
790.219
 20
310.672
  0
SEQEND
  0
POLYLINE
  8
Layer1
  6
CONTINUOUS
 62
7
 66
1
 10
0
 20
0
 30
0
 70
1
  0
VERTEX
  8
Layer1
 10
790.219
 20
283.4
  0
VERTEX
  8
Layer1
 10
789.185
 20
279.536
  0
VERTEX
  8
Layer1
 10
788.149
 20
283.4
  0
SEQEND
  0
LINE
  8
Layer1
  6
CONTINUOUS
 62
7
 10
766.343
 20
257.536
 11
793.185
 21
257.536
  0
POLYLINE
  8
Layer1
  6
CONTINUOUS
 62
7
 66
1
 10
0
 20
0
 30
0
  0
VERTEX
  8
Layer1
 10
789.185
 20
247.14
  0
VERTEX
  8
Layer1
 10
789.185
 20
256.536
  0
SEQEND
  0
POLYLINE
  8
Layer1
  6
CONTINUOUS
 62
7
 66
1
 10
0
 20
0
 30
0
 70
1
  0
VERTEX
  8
Layer1
 10
788.149
 20
252.672
  0
VERTEX
  8
Layer1
 10
789.185
 20
256.536
  0
VERTEX
  8
Layer1
 10
790.219
 20
252.672
  0
SEQEND
  0
LINE
  8
Layer1
  6
CONTINUOUS
 62
7
 10
789.185
 20
257.536
 11
789.185
 21
256.457
  0
POLYLINE
  8
Layer1
  6
CONTINUOUS
 62
7
 66
1
 10
0
 20
0
 30
0
  0
VERTEX
  8
Layer1
 10
755.985
 20
324.702
  0
VERTEX
  8
Layer1
 10
797.89
 20
441.604
  0
VERTEX
  8
Layer1
 10
797.89
 20
441.604
  0
SEQEND
  0
CIRCLE
  8
Layer1
  6
CONTINUOUS
 62
7
 10
755.985
 20
324.702
 40
1
  0
CIRCLE
  8
Layer1
  6
CONTINUOUS
 62
7
 10
799.022
 20
444.761
 40
3.3541
  0
TEXT
  8
Layer1
 62
7
 10
799.022
 20
444.761
 72
1
 73
2
 11
799.022
 21
444.761
 40
6
 41
1
  1
5
  0
POLYLINE
  8
Layer1
  6
CONTINUOUS
 62
7
 66
1
 10
0
 20
0
 30
0
  0
VERTEX
  8
Layer1
 10
773.026
 20
316.63
  0
VERTEX
  8
Layer1
 10
817.909
 20
441.421
  0
VERTEX
  8
Layer1
 10
817.909
 20
441.421
  0
SEQEND
  0
CIRCLE
  8
Layer1
  6
CONTINUOUS
 62
7
 10
773.026
 20
316.63
 40
1
  0
CIRCLE
  8
Layer1
  6
CONTINUOUS
 62
7
 10
819.043
 20
444.577
 40
3.3541
  0
TEXT
  8
Layer1
 62
7
 10
819.043
 20
444.577
 72
1
 73
2
 11
819.043
 21
444.577
 40
6
 41
1
  1
9
  0
LINE
  8
Layer1
  6
CONTINUOUS
 62
7
 10
750.269
 20
290.536
 11
750.269
 21
284.536
  0
LINE
  8
Layer1
  6
CENTER1
 62
7
 10
729.843
 20
275.673
 11
729.843
 21
249.124
  0
TEXT
  8
Layer1
 62
7
 10
759.843
 20
627.671
 72
1
 11
759.843
 21
627.671
 40
7
 41
1
  1
 15 
  0
LINE
  8
Layer1
  6
CONTINUOUS
 62
7
 10
767.343
 20
575.765
 11
767.343
 21
628.671
  0
LINE
  8
Layer1
  6
CONTINUOUS
 62
7
 10
752.343
 20
581.765
 11
752.343
 21
628.671
  0
POLYLINE
  8
Layer1
  6
CONTINUOUS
 62
7
 66
1
 10
0
 20
0
 30
0
  0
VERTEX
  8
Layer1
 10
767.343
 20
626.671
  0
VERTEX
  8
Layer1
 10
752.343
 20
626.671
  0
SEQEND
  0
POLYLINE
  8
Layer1
  6
CONTINUOUS
 62
7
 66
1
 10
0
 20
0
 30
0
  0
VERTEX
  8
Layer1
 10
764.446
 20
627.448
  0
VERTEX
  8
Layer1
 10
767.343
 20
626.671
  0
VERTEX
  8
Layer1
 10
764.446
 20
625.895
  0
SEQEND
  0
POLYLINE
  8
Layer1
  6
CONTINUOUS
 62
7
 66
1
 10
0
 20
0
 30
0
  0
VERTEX
  8
Layer1
 10
755.241
 20
625.895
  0
VERTEX
  8
Layer1
 10
752.343
 20
626.671
  0
VERTEX
  8
Layer1
 10
755.241
 20
627.448
  0
SEQEND
  0
ENDSEC
  0
EOF
