  0
SECTION
  2
HEADER
  9
$EXTMIN
 10
0
 20
0
  9
$EXTMAX
 10
1189
 20
841
  9
$LTSCALE
 40
1
  9
$LIMMIN
 10
0
 20
0
  9
$LIMMAX
 10
1189
 20
841
  9
$DIMSCALE
 40
1
  0
ENDSEC
  0
SECTION
  2
TABLES
  0
TABLE
  2
LTYPE
 70
9
  0
LTYPE
  2
CONTINUOUS
 70
64
  3
----------
 72
65
 73
0
 40
0
  0
LTYPE
  2
DASHED1
 70
64
  3
--  --  --  --  --  --  --  --  
 72
65
 73
2
 40
2.5
 49
1.25
 49
-1.25
  0
LTYPE
  2
DASHED2
 70
64
  3
----    ----    ----    ----    
 72
65
 73
2
 40
5
 49
2.5
 49
-2.5
  0
LTYPE
  2
DASHED3
 70
64
  3
------  ------  ------  ------  
 72
65
 73
2
 40
5
 49
3.75
 49
-1.25
  0
LTYPE
  2
CENTER1
 70
64
  3
----- - ----- - ----- - ----- - 
 72
65
 73
4
 40
7.5
 49
3.75
 49
-1.25
 49
1.25
 49
-1.25
  0
LTYPE
  2
CENTER2
 70
64
  3
----------  --  ----------  --  
 72
65
 73
4
 40
13.75
 49
6.25
 49
-2.5
 49
2.5
 49
-2.5
  0
LTYPE
  2
PHANTOM1
 70
64
  3
--- - - --- - - --- - - --- - - 
 72
65
 73
6
 40
9.5
 49
3.25
 49
-1.25
 49
1.25
 49
-1.25
 49
1.25
 49
-1.25
  0
LTYPE
  2
PHANTOM2
 70
64
  3
--------  -  -  --------  -  -  
 72
65
 73
6
 40
18
 49
8
 49
-2.5
 49
1.25
 49
-2.5
 49
1.25
 49
-2.5
  0
LTYPE
  2
DOT
 70
64
  3
-   -   -   -   -   -   -   -   
 72
65
 73
2
 40
2.5
 49
0.625
 49
-1.875
  0
LTYPE
  2
HOJO
 70
64
  3
-   -   -   -   -   -   -   -   
 72
65
 73
2
 40
2.5
 49
0.625
 49
-1.875
  0
ENDTAB
  0
TABLE
  2
STYLE
 70
2
  0
STYLE
  2
STANDARD
 70
64
 40
0
 41
1
 42
0
 50
0
 71
0
  3
TXT
  4
BIGFONT
  0
STYLE
  2
TATEGAKI
 70
68
 40
0
 41
1
 42
0
 50
0
 71
0
  3
TXT
  4
EXTFONT
  0
ENDTAB
  0
TABLE
  2
LAYER
 70
1
  0
LAYER
  2
Layer1
 70
64
 62
7
  6
CONTINUOUS
  0
ENDTAB
  0
ENDSEC
  0
SECTION
  2
ENTITIES
  0
LINE
  8
Layer1
  6
CONTINUOUS
 62
7
 10
514.092
 20
416.232
 11
483.62
 21
416.232
  0
LINE
  8
Layer1
  6
CONTINUOUS
 62
7
 10
697.236
 20
507.937
 11
633.236
 21
507.937
  0
LINE
  8
Layer1
  6
CONTINUOUS
 62
7
 10
633.236
 20
469.937
 11
697.236
 21
469.937
  0
LINE
  8
Layer1
  6
CONTINUOUS
 62
7
 10
698.236
 20
470.937
 11
698.236
 21
506.937
  0
LINE
  8
Layer1
  6
CONTINUOUS
 62
7
 10
632.236
 20
470.937
 11
632.236
 21
506.937
  0
LINE
  8
Layer1
  6
CENTER1
 62
7
 10
620.465
 20
488.937
 11
707.209
 21
488.937
  0
LINE
  8
Layer1
  6
CENTER1
 62
7
 10
678.236
 20
508.784
 11
678.236
 21
463.667
  0
LINE
  8
Layer1
  6
DASHED1
 62
7
 10
632.236
 20
497.937
 11
683.016
 21
497.937
  0
LINE
  8
Layer1
  6
DASHED1
 62
7
 10
632.236
 20
479.937
 11
683.235
 21
479.937
  0
POLYLINE
  8
Layer1
  6
CONTINUOUS
 62
7
 66
1
 10
0
 20
0
 30
0
  0
VERTEX
  8
Layer1
 10
685.362
 20
474.65
  0
VERTEX
  8
Layer1
 10
686.236
 20
475.081
  0
VERTEX
  8
Layer1
 10
687.976
 20
476.243
  0
VERTEX
  8
Layer1
 10
689.549
 20
477.623
  0
VERTEX
  8
Layer1
 10
690.929
 20
479.197
  0
VERTEX
  8
Layer1
 10
692.092
 20
480.937
  0
VERTEX
  8
Layer1
 10
693.017
 20
482.814
  0
VERTEX
  8
Layer1
 10
693.69
 20
484.796
  0
VERTEX
  8
Layer1
 10
694.099
 20
486.849
  0
VERTEX
  8
Layer1
 10
694.236
 20
488.937
  0
VERTEX
  8
Layer1
 10
694.099
 20
491.025
  0
VERTEX
  8
Layer1
 10
693.69
 20
493.078
  0
VERTEX
  8
Layer1
 10
693.017
 20
495.06
  0
VERTEX
  8
Layer1
 10
692.092
 20
496.937
  0
VERTEX
  8
Layer1
 10
690.929
 20
498.677
  0
VERTEX
  8
Layer1
 10
689.549
 20
500.251
  0
VERTEX
  8
Layer1
 10
687.976
 20
501.631
  0
VERTEX
  8
Layer1
 10
686.236
 20
502.793
  0
VERTEX
  8
Layer1
 10
684.359
 20
503.719
  0
VERTEX
  8
Layer1
 10
682.376
 20
504.392
  0
VERTEX
  8
Layer1
 10
680.323
 20
504.8
  0
VERTEX
  8
Layer1
 10
678.236
 20
504.937
  0
VERTEX
  8
Layer1
 10
676.148
 20
504.8
  0
VERTEX
  8
Layer1
 10
674.094
 20
504.392
  0
VERTEX
  8
Layer1
 10
672.112
 20
503.719
  0
VERTEX
  8
Layer1
 10
670.236
 20
502.793
  0
VERTEX
  8
Layer1
 10
668.495
 20
501.631
  0
VERTEX
  8
Layer1
 10
666.921
 20
500.251
  0
VERTEX
  8
Layer1
 10
665.542
 20
498.677
  0
VERTEX
  8
Layer1
 10
664.38
 20
496.937
  0
VERTEX
  8
Layer1
 10
663.453
 20
495.06
  0
VERTEX
  8
Layer1
 10
662.78
 20
493.078
  0
VERTEX
  8
Layer1
 10
662.372
 20
491.025
  0
VERTEX
  8
Layer1
 10
662.236
 20
488.937
  0
VERTEX
  8
Layer1
 10
662.372
 20
486.849
  0
VERTEX
  8
Layer1
 10
662.78
 20
484.796
  0
VERTEX
  8
Layer1
 10
663.453
 20
482.814
  0
VERTEX
  8
Layer1
 10
664.38
 20
480.937
  0
VERTEX
  8
Layer1
 10
665.542
 20
479.197
  0
VERTEX
  8
Layer1
 10
666.921
 20
477.623
  0
VERTEX
  8
Layer1
 10
668.495
 20
476.243
  0
VERTEX
  8
Layer1
 10
670.236
 20
475.081
  0
VERTEX
  8
Layer1
 10
672.112
 20
474.155
  0
VERTEX
  8
Layer1
 10
674.094
 20
473.482
  0
VERTEX
  8
Layer1
 10
676.148
 20
473.074
  0
VERTEX
  8
Layer1
 10
678.236
 20
472.937
  0
VERTEX
  8
Layer1
 10
680.323
 20
473.074
  0
VERTEX
  8
Layer1
 10
682.376
 20
473.482
  0
VERTEX
  8
Layer1
 10
684.359
 20
474.155
  0
VERTEX
  8
Layer1
 10
685.345
 20
474.642
  0
SEQEND
  0
CIRCLE
  8
Layer1
  6
DASHED1
 62
7
 10
678.236
 20
488.937
 40
12
  0
CIRCLE
  8
Layer1
  6
CONTINUOUS
 62
7
 10
649.186
 20
488.937
 40
3.76681
  0
ARC
  8
Layer1
  6
CONTINUOUS
 62
7
 10
644.712
 20
488.971
 40
1
 50
140.711
 51
225
  0
LINE
  8
Layer1
  6
CONTINUOUS
 62
7
 10
653.696
 20
490.581
 11
655.959
 21
490.581
  0
LINE
  8
Layer1
  6
CONTINUOUS
 62
7
 10
653.696
 20
487.096
 11
655.959
 21
487.096
  0
LINE
  8
Layer1
  6
CONTINUOUS
 62
7
 10
655.959
 20
490.581
 11
655.959
 21
487.096
  0
ARC
  8
Layer1
  6
CONTINUOUS
 62
7
 10
649.186
 20
488.937
 40
4.80058
 50
20.031
 51
140.098
  0
ARC
  8
Layer1
  6
CONTINUOUS
 62
7
 10
649.186
 20
488.937
 40
4.80058
 50
218.056
 51
337.793
  0
ARC
  8
Layer1
  6
CONTINUOUS
 62
7
 10
636.293
 20
481.687
 40
10.1292
 50
24.1178
 51
40.4581
  0
ARC
  8
Layer1
  6
CONTINUOUS
 62
7
 10
636.231
 20
496.177
 40
10.1292
 50
319.542
 51
335.882
  0
ARC
  8
Layer1
  6
CONTINUOUS
 62
7
 10
654.827
 20
490.581
 40
0.542282
 50
0
 51
180
  0
ARC
  8
Layer1
  6
CONTINUOUS
 62
7
 10
654.827
 20
487.096
 40
0.657613
 50
180
 51
2.03555e-013
  0
LINE
  8
Layer1
  6
DASHED1
 62
7
 10
621.491
 20
492.883
 11
636.485
 21
492.883
  0
LINE
  8
Layer1
  6
DASHED1
 62
7
 10
621.491
 20
484.991
 11
636.485
 21
484.991
  0
LINE
  8
Layer1
  6
DASHED1
 62
7
 10
633.591
 20
492.883
 11
633.591
 21
484.991
  0
LINE
  8
Layer1
  6
DASHED1
 62
7
 10
636.485
 20
492.883
 11
636.485
 21
484.991
  0
LINE
  8
Layer1
  6
PHANTOM1
 62
7
 10
621.491
 20
497.881
 11
596.106
 21
497.881
  0
LINE
  8
Layer1
  6
PHANTOM1
 62
7
 10
621.491
 20
480.52
 11
596.106
 21
480.52
  0
LINE
  8
Layer1
  6
PHANTOM1
 62
7
 10
596.106
 20
497.881
 11
596.106
 21
480.52
  0
LINE
  8
Layer1
  6
PHANTOM1
 62
7
 10
596.106
 20
492.883
 11
612.811
 21
492.883
  0
LINE
  8
Layer1
  6
PHANTOM1
 62
7
 10
612.548
 20
484.991
 11
596.106
 21
484.991
  0
LINE
  8
Layer1
  6
PHANTOM1
 62
7
 10
598.475
 20
490.318
 11
598.475
 21
486.974
  0
LINE
  8
Layer1
  6
PHANTOM1
 62
7
 10
598.475
 20
490.318
 11
605.445
 21
490.318
  0
LINE
  8
Layer1
  6
PHANTOM1
 62
7
 10
598.475
 20
486.974
 11
606.119
 21
486.974
  0
ARC
  8
Layer1
  6
PHANTOM1
 62
7
 10
605.445
 20
500.318
 40
10
 50
270
 51
311.833
  0
ARC
  8
Layer1
  6
PHANTOM1
 62
7
 10
606.119
 20
476.974
 40
10
 50
53.3601
 51
90
  0
LINE
  8
Layer1
  6
PHANTOM1
 62
7
 10
612.114
 20
492.867
 11
612.114
 21
484.991
  0
LINE
  8
Layer1
  6
DASHED1
 62
7
 10
636.485
 20
491.962
 11
633.591
 21
492.883
  0
LINE
  8
Layer1
  6
DASHED1
 62
7
 10
636.485
 20
486.044
 11
633.591
 21
484.991
  0
LINE
  8
Layer1
  6
CENTER1
 62
7
 10
626.751
 20
495.513
 11
626.751
 21
482.755
  0
POLYLINE
  8
Layer1
  6
CONTINUOUS
 62
7
 66
1
 10
0
 20
0
 30
0
 70
1
  0
VERTEX
  8
Layer1
 10
630.565
 20
488.937
  0
VERTEX
  8
Layer1
 10
628.659
 20
492.24
  0
VERTEX
  8
Layer1
 10
624.844
 20
492.24
  0
VERTEX
  8
Layer1
 10
622.938
 20
488.937
  0
VERTEX
  8
Layer1
 10
624.844
 20
485.634
  0
VERTEX
  8
Layer1
 10
628.659
 20
485.634
  0
SEQEND
  0
CIRCLE
  8
Layer1
  6
CONTINUOUS
 62
7
 10
626.751
 20
488.937
 40
3.81416
  0
CIRCLE
  8
Layer1
  6
CONTINUOUS
 62
7
 10
626.751
 20
488.937
 40
1.90708
  0
CIRCLE
  8
Layer1
  6
CONTINUOUS
 62
7
 10
626.751
 20
488.937
 40
1.24947
  0
LINE
  8
Layer1
  6
PHANTOM1
 62
7
 10
596.106
 20
490.45
 11
588.611
 21
490.45
  0
LINE
  8
Layer1
  6
PHANTOM1
 62
7
 10
588.611
 20
490.45
 11
588.611
 21
486.767
  0
LINE
  8
Layer1
  6
PHANTOM1
 62
7
 10
588.611
 20
486.767
 11
596.106
 21
486.767
  0
LINE
  8
Layer1
  6
DASHED1
 62
7
 10
621.491
 20
492.883
 11
621.491
 21
484.991
  0
LINE
  8
Layer1
  6
PHANTOM1
 62
7
 10
621.491
 20
492.883
 11
611.758
 21
492.883
  0
LINE
  8
Layer1
  6
PHANTOM1
 62
7
 10
612.114
 20
484.991
 11
621.491
 21
484.991
  0
TEXT
  8
Layer1
 62
7
 10
659.669
 20
518.05
 73
3
 11
659.669
 21
518.05
 40
4
 41
1
  1
（ベース取付穴）
  0
LINE
  8
Layer1
  6
CENTER1
 62
7
 10
639.215
 20
474.937
 11
652.709
 21
474.937
  0
LINE
  8
Layer1
  6
CENTER1
 62
7
 10
642.705
 20
502.937
 11
652.376
 21
502.937
  0
CIRCLE
  8
Layer1
  6
CONTINUOUS
 62
7
 10
647.236
 20
502.937
 40
3.5
  0
CIRCLE
  8
Layer1
  6
CONTINUOUS
 62
7
 10
692.236
 20
502.937
 40
3.5
  0
LINE
  8
Layer1
  6
CENTER1
 62
7
 10
692.236
 20
508.09
 11
692.236
 21
497.784
  0
LINE
  8
Layer1
  6
CENTER1
 62
7
 10
647.236
 20
508.687
 11
647.236
 21
498.164
  0
LINE
  8
Layer1
  6
CONTINUOUS
 62
7
 10
632.236
 20
506.937
 11
633.236
 21
507.937
  0
LINE
  8
Layer1
  6
CONTINUOUS
 62
7
 10
697.236
 20
507.937
 11
698.236
 21
506.937
  0
LINE
  8
Layer1
  6
CONTINUOUS
 62
7
 10
698.236
 20
470.937
 11
697.236
 21
469.937
  0
LINE
  8
Layer1
  6
CONTINUOUS
 62
7
 10
633.236
 20
469.937
 11
632.236
 21
470.937
  0
CIRCLE
  8
Layer1
  6
CONTINUOUS
 62
7
 10
647.236
 20
474.937
 40
3.5
  0
CIRCLE
  8
Layer1
  6
CONTINUOUS
 62
7
 10
692.236
 20
474.937
 40
3.5
  0
LINE
  8
Layer1
  6
CENTER1
 62
7
 10
647.236
 20
480.128
 11
647.236
 21
468.15
  0
LINE
  8
Layer1
  6
CENTER1
 62
7
 10
692.236
 20
479.91
 11
692.236
 21
469.227
  0
LINE
  8
Layer1
  6
CENTER1
 62
7
 10
686.912
 20
474.937
 11
698
 21
474.937
  0
LINE
  8
Layer1
  6
CENTER1
 62
7
 10
687.168
 20
502.937
 11
705.971
 21
502.937
  0
CIRCLE
  8
Layer1
  6
CONTINUOUS
 62
7
 10
678.236
 20
488.937
 40
3
  0
CIRCLE
  8
Layer1
  6
CONTINUOUS
 62
7
 10
678.236
 20
488.937
 40
2.5
  0
LINE
  8
Layer1
  6
CENTER1
 62
7
 10
662.236
 20
469.578
 11
662.236
 21
478.535
  0
LINE
  8
Layer1
  6
CENTER1
 62
7
 10
637.236
 20
508.687
 11
637.236
 21
495.409
  0
ARC
  8
Layer1
  6
DASHED1
 62
7
 10
683.904
 20
488.352
 40
9.62574
 50
95.2852
 51
176.517
  0
POLYLINE
  8
Layer1
  6
DASHED1
 62
7
 66
1
 10
0
 20
0
 30
0
  0
VERTEX
  8
Layer1
 10
674.295
 20
488.937
  0
VERTEX
  8
Layer1
 10
674.325
 20
488.645
  0
VERTEX
  8
Layer1
 10
674.363
 20
488.355
  0
VERTEX
  8
Layer1
 10
674.41
 20
488.065
  0
VERTEX
  8
Layer1
 10
674.466
 20
487.778
  0
VERTEX
  8
Layer1
 10
674.529
 20
487.492
  0
VERTEX
  8
Layer1
 10
674.6
 20
487.208
  0
VERTEX
  8
Layer1
 10
674.678
 20
486.926
  0
VERTEX
  8
Layer1
 10
674.765
 20
486.647
  0
VERTEX
  8
Layer1
 10
674.861
 20
486.371
  0
VERTEX
  8
Layer1
 10
674.964
 20
486.097
  0
VERTEX
  8
Layer1
 10
675.074
 20
485.828
  0
VERTEX
  8
Layer1
 10
675.193
 20
485.561
  0
VERTEX
  8
Layer1
 10
675.318
 20
485.298
  0
VERTEX
  8
Layer1
 10
675.452
 20
485.04
  0
VERTEX
  8
Layer1
 10
675.592
 20
484.785
  0
VERTEX
  8
Layer1
 10
675.739
 20
484.535
  0
VERTEX
  8
Layer1
 10
675.894
 20
484.29
  0
VERTEX
  8
Layer1
 10
676.055
 20
484.049
  0
VERTEX
  8
Layer1
 10
676.225
 20
483.813
  0
VERTEX
  8
Layer1
 10
676.399
 20
483.583
  0
VERTEX
  8
Layer1
 10
676.581
 20
483.358
  0
VERTEX
  8
Layer1
 10
676.768
 20
483.139
  0
VERTEX
  8
Layer1
 10
676.962
 20
482.926
  0
VERTEX
  8
Layer1
 10
677.161
 20
482.719
  0
VERTEX
  8
Layer1
 10
677.368
 20
482.518
  0
VERTEX
  8
Layer1
 10
677.578
 20
482.323
  0
VERTEX
  8
Layer1
 10
677.795
 20
482.135
  0
VERTEX
  8
Layer1
 10
678.017
 20
481.953
  0
VERTEX
  8
Layer1
 10
678.245
 20
481.779
  0
VERTEX
  8
Layer1
 10
678.476
 20
481.612
  0
VERTEX
  8
Layer1
 10
678.714
 20
481.451
  0
VERTEX
  8
Layer1
 10
678.955
 20
481.299
  0
VERTEX
  8
Layer1
 10
679.199
 20
481.153
  0
VERTEX
  8
Layer1
 10
679.448
 20
481.015
  0
VERTEX
  8
Layer1
 10
679.702
 20
480.885
  0
VERTEX
  8
Layer1
 10
679.958
 20
480.763
  0
VERTEX
  8
Layer1
 10
680.218
 20
480.648
  0
VERTEX
  8
Layer1
 10
680.481
 20
480.542
  0
VERTEX
  8
Layer1
 10
680.747
 20
480.444
  0
VERTEX
  8
Layer1
 10
681.016
 20
480.354
  0
VERTEX
  8
Layer1
 10
681.287
 20
480.272
  0
VERTEX
  8
Layer1
 10
681.562
 20
480.199
  0
VERTEX
  8
Layer1
 10
681.837
 20
480.134
  0
VERTEX
  8
Layer1
 10
682.113
 20
480.077
  0
VERTEX
  8
Layer1
 10
682.392
 20
480.029
  0
VERTEX
  8
Layer1
 10
682.673
 20
479.99
  0
VERTEX
  8
Layer1
 10
682.952
 20
479.959
  0
VERTEX
  8
Layer1
 10
683.235
 20
479.937
  0
SEQEND
  0
LINE
  8
Layer1
  6
DASHED1
 62
7
 10
683.016
 20
497.937
 11
688.686
 21
492.357
  0
LINE
  8
Layer1
  6
DASHED1
 62
7
 10
688.686
 20
492.357
 11
688.686
 21
485.607
  0
LINE
  8
Layer1
  6
DASHED1
 62
7
 10
688.686
 20
485.607
 11
683.235
 21
479.937
  0
LINE
  8
Layer1
  6
CONTINUOUS
 62
7
 10
623.301
 20
497.937
 11
632.236
 21
497.937
  0
LINE
  8
Layer1
  6
CONTINUOUS
 62
7
 10
623.301
 20
479.937
 11
632.236
 21
479.937
  0
LINE
  8
Layer1
  6
CONTINUOUS
 62
7
 10
622.301
 20
480.937
 11
622.301
 21
496.937
  0
LINE
  8
Layer1
  6
CONTINUOUS
 62
7
 10
623.301
 20
497.937
 11
622.301
 21
496.937
  0
LINE
  8
Layer1
  6
CONTINUOUS
 62
7
 10
622.301
 20
480.937
 11
623.301
 21
479.937
  0
LINE
  8
Layer1
  6
CENTER1
 62
7
 10
639.402
 20
502.937
 11
634.212
 21
502.937
  0
LINE
  8
Layer1
  6
CENTER1
 62
7
 10
659.62
 20
474.937
 11
666.529
 21
474.937
  0
CIRCLE
  8
Layer1
  6
CONTINUOUS
 62
7
 10
637.236
 20
502.937
 40
1.25
  0
CIRCLE
  8
Layer1
  6
CONTINUOUS
 62
7
 10
662.236
 20
474.937
 40
1.25
  0
LINE
  8
Layer1
  6
CONTINUOUS
 62
7
 10
698.236
 20
492.853
 11
701.065
 21
492.853
  0
LINE
  8
Layer1
  6
DASHED1
 62
7
 10
698.236
 20
486.937
 11
689.928
 21
486.937
  0
LINE
  8
Layer1
  6
CONTINUOUS
 62
7
 10
701.436
 20
490.937
 11
701.436
 21
486.937
  0
LINE
  8
Layer1
  6
CONTINUOUS
 62
7
 10
701.736
 20
490.637
 11
701.436
 21
490.637
  0
LINE
  8
Layer1
  6
CONTINUOUS
 62
7
 10
701.736
 20
487.237
 11
701.436
 21
487.237
  0
LINE
  8
Layer1
  6
DASHED1
 62
7
 10
689.486
 20
486.982
 11
689.486
 21
490.982
  0
LINE
  8
Layer1
  6
CONTINUOUS
 62
7
 10
698.236
 20
492.853
 11
698.236
 21
484.771
  0
LINE
  8
Layer1
  6
CONTINUOUS
 62
7
 10
701.065
 20
492.853
 11
701.436
 21
492.212
  0
LINE
  8
Layer1
  6
CONTINUOUS
 62
7
 10
701.436
 20
492.212
 11
701.436
 21
485.412
  0
LINE
  8
Layer1
  6
CONTINUOUS
 62
7
 10
701.436
 20
485.412
 11
701.065
 21
484.771
  0
LINE
  8
Layer1
  6
CONTINUOUS
 62
7
 10
701.065
 20
484.771
 11
698.236
 21
484.771
  0
LINE
  8
Layer1
  6
CONTINUOUS
 62
7
 10
698.236
 20
490.833
 11
701.065
 21
490.833
  0
LINE
  8
Layer1
  6
CONTINUOUS
 62
7
 10
698.236
 20
486.791
 11
701.065
 21
486.791
  0
ARC
  8
Layer1
  6
CONTINUOUS
 62
7
 10
694.69
 20
488.812
 40
6.687
 50
342.412
 51
17.588
  0
ARC
  8
Layer1
  6
CONTINUOUS
 62
7
 10
699.589
 20
491.843
 40
1.789
 50
325.616
 51
34.384
  0
ARC
  8
Layer1
  6
CONTINUOUS
 62
7
 10
699.589
 20
485.781
 40
1.789
 50
325.616
 51
34.384
  0
LINE
  8
Layer1
  6
DASHED1
 62
7
 10
688.686
 20
487.782
 11
688.686
 21
490.182
  0
LINE
  8
Layer1
  6
DASHED1
 62
7
 10
689.486
 20
486.982
 11
688.686
 21
487.782
  0
LINE
  8
Layer1
  6
DASHED1
 62
7
 10
689.486
 20
490.982
 11
688.686
 21
490.182
  0
LINE
  8
Layer1
  6
CONTINUOUS
 62
7
 10
702.236
 20
490.137
 11
702.236
 21
487.737
  0
LINE
  8
Layer1
  6
CONTINUOUS
 62
7
 10
701.436
 20
490.937
 11
702.236
 21
490.137
  0
LINE
  8
Layer1
  6
CONTINUOUS
 62
7
 10
701.436
 20
486.937
 11
702.236
 21
487.737
  0
LINE
  8
Layer1
  6
DASHED1
 62
7
 10
698.236
 20
490.937
 11
689.928
 21
490.937
  0
LINE
  8
Layer1
  6
DASHED1
 62
7
 10
698.236
 20
490.637
 11
689.583
 21
490.637
  0
LINE
  8
Layer1
  6
DASHED1
 62
7
 10
698.236
 20
487.237
 11
689.673
 21
487.237
  0
TEXT
  8
Layer1
 62
7
 10
655.236
 20
450.394
 72
1
 11
655.236
 21
450.394
 40
8
 41
1
  1
 46 
  0
LINE
  8
Layer1
  6
CONTINUOUS
 62
7
 10
632.236
 20
470.743
 11
632.236
 21
448.394
  0
LINE
  8
Layer1
  6
CONTINUOUS
 62
7
 10
678.236
 20
469.743
 11
678.236
 21
448.394
  0
POLYLINE
  8
Layer1
  6
CONTINUOUS
 62
7
 66
1
 10
0
 20
0
 30
0
  0
VERTEX
  8
Layer1
 10
632.236
 20
450.394
  0
VERTEX
  8
Layer1
 10
678.236
 20
450.394
  0
SEQEND
  0
POLYLINE
  8
Layer1
  6
CONTINUOUS
 62
7
 66
1
 10
0
 20
0
 30
0
 70
1
  0
VERTEX
  8
Layer1
 10
636.1
 20
449.359
  0
VERTEX
  8
Layer1
 10
632.236
 20
450.394
  0
VERTEX
  8
Layer1
 10
636.1
 20
451.429
  0
SEQEND
  0
POLYLINE
  8
Layer1
  6
CONTINUOUS
 62
7
 66
1
 10
0
 20
0
 30
0
 70
1
  0
VERTEX
  8
Layer1
 10
674.371
 20
451.429
  0
VERTEX
  8
Layer1
 10
678.236
 20
450.394
  0
VERTEX
  8
Layer1
 10
674.371
 20
449.359
  0
SEQEND
  0
TEXT
  8
Layer1
 62
7
 10
639.736
 20
527.766
 72
1
 11
639.736
 21
527.766
 40
8
 41
1
  1
 15 
  0
LINE
  8
Layer1
  6
CONTINUOUS
 62
7
 10
632.236
 20
505.592
 11
632.236
 21
529.766
  0
LINE
  8
Layer1
  6
CONTINUOUS
 62
7
 10
647.236
 20
518.094
 11
647.236
 21
529.766
  0
POLYLINE
  8
Layer1
  6
CONTINUOUS
 62
7
 66
1
 10
0
 20
0
 30
0
  0
VERTEX
  8
Layer1
 10
616.236
 20
527.766
  0
VERTEX
  8
Layer1
 10
632.236
 20
527.766
  0
SEQEND
  0
POLYLINE
  8
Layer1
  6
CONTINUOUS
 62
7
 66
1
 10
0
 20
0
 30
0
 70
1
  0
VERTEX
  8
Layer1
 10
628.371
 20
528.801
  0
VERTEX
  8
Layer1
 10
632.236
 20
527.766
  0
VERTEX
  8
Layer1
 10
628.371
 20
526.731
  0
SEQEND
  0
POLYLINE
  8
Layer1
  6
CONTINUOUS
 62
7
 66
1
 10
0
 20
0
 30
0
  0
VERTEX
  8
Layer1
 10
663.236
 20
527.766
  0
VERTEX
  8
Layer1
 10
647.236
 20
527.766
  0
SEQEND
  0
POLYLINE
  8
Layer1
  6
CONTINUOUS
 62
7
 66
1
 10
0
 20
0
 30
0
 70
1
  0
VERTEX
  8
Layer1
 10
651.1
 20
526.731
  0
VERTEX
  8
Layer1
 10
647.236
 20
527.766
  0
VERTEX
  8
Layer1
 10
651.1
 20
528.801
  0
SEQEND
  0
LINE
  8
Layer1
  6
CONTINUOUS
 62
7
 10
632.236
 20
527.766
 11
647.236
 21
527.766
  0
TEXT
  8
Layer1
 62
7
 10
669.698
 20
527.766
 72
1
 11
669.698
 21
527.766
 40
8
 41
1
  1
 45
  0
LINE
  8
Layer1
  6
CONTINUOUS
 62
7
 10
692.236
 20
502.937
 11
692.236
 21
529.766
  0
POLYLINE
  8
Layer1
  6
CONTINUOUS
 62
7
 66
1
 10
0
 20
0
 30
0
  0
VERTEX
  8
Layer1
 10
647.162
 20
527.766
  0
VERTEX
  8
Layer1
 10
692.236
 20
527.766
  0
SEQEND
  0
POLYLINE
  8
Layer1
  6
CONTINUOUS
 62
7
 66
1
 10
0
 20
0
 30
0
 70
1
  0
VERTEX
  8
Layer1
 10
651.025
 20
526.731
  0
VERTEX
  8
Layer1
 10
647.162
 20
527.766
  0
VERTEX
  8
Layer1
 10
651.025
 20
528.801
  0
SEQEND
  0
POLYLINE
  8
Layer1
  6
CONTINUOUS
 62
7
 66
1
 10
0
 20
0
 30
0
 70
1
  0
VERTEX
  8
Layer1
 10
688.371
 20
528.801
  0
VERTEX
  8
Layer1
 10
692.236
 20
527.766
  0
VERTEX
  8
Layer1
 10
688.371
 20
526.731
  0
SEQEND
  0
POLYLINE
  8
Layer1
  6
CONTINUOUS
 62
7
 66
1
 10
0
 20
0
 30
0
  0
VERTEX
  8
Layer1
 10
649.71
 20
505.412
  0
VERTEX
  8
Layer1
 10
660.919
 20
518.675
  0
VERTEX
  8
Layer1
 10
660.919
 20
518.675
  0
SEQEND
  0
POLYLINE
  8
Layer1
  6
CONTINUOUS
 62
7
 66
1
 10
0
 20
0
 30
0
 70
1
  0
VERTEX
  8
Layer1
 10
652.995
 20
507.695
  0
VERTEX
  8
Layer1
 10
649.71
 20
505.412
  0
VERTEX
  8
Layer1
 10
651.414
 20
509.031
  0
SEQEND
  0
LINE
  8
Layer1
  6
CONTINUOUS
 62
7
 10
660.919
 20
518.675
 11
670.919
 21
518.675
  0
TEXT
  8
Layer1
 62
7
 10
670.919
 20
519.675
 72
2
 11
670.919
 21
519.675
 40
4
 41
1
  1
4-Φ7
  0
TEXT
  8
Layer1
 62
7
 10
679.779
 20
447.558
 73
3
 11
679.779
 21
447.558
 40
4
 41
1
  1
（ベース取付穴）
  0
TEXT
  8
Layer1
 62
7
 10
702.856
 20
464.429
 73
3
 11
702.856
 21
464.429
 40
4
 41
1
  1
（ベース取付穴）
  0
POLYLINE
  8
Layer1
  6
CONTINUOUS
 62
7
 66
1
 10
0
 20
0
 30
0
  0
VERTEX
  8
Layer1
 10
680.799
 20
486.816
  0
VERTEX
  8
Layer1
 10
693.155
 20
460.183
  0
VERTEX
  8
Layer1
 10
693.155
 20
460.183
  0
SEQEND
  0
POLYLINE
  8
Layer1
  6
CONTINUOUS
 62
7
 66
1
 10
0
 20
0
 30
0
 70
1
  0
VERTEX
  8
Layer1
 10
681.486
 20
482.875
  0
VERTEX
  8
Layer1
 10
680.799
 20
486.816
  0
VERTEX
  8
Layer1
 10
683.364
 20
483.747
  0
SEQEND
  0
LINE
  8
Layer1
  6
CONTINUOUS
 62
7
 10
693.155
 20
460.183
 11
703.155
 21
460.183
  0
TEXT
  8
Layer1
 62
7
 10
703.155
 20
461.183
 72
2
 11
703.155
 21
461.183
 40
4
 41
1
  1
M6-16
  0
POLYLINE
  8
Layer1
  6
CONTINUOUS
 62
7
 66
1
 10
0
 20
0
 30
0
  0
VERTEX
  8
Layer1
 10
660.12
 20
474.053
  0
VERTEX
  8
Layer1
 10
679.334
 20
449.804
  0
VERTEX
  8
Layer1
 10
679.334
 20
449.804
  0
SEQEND
  0
POLYLINE
  8
Layer1
  6
CONTINUOUS
 62
7
 66
1
 10
0
 20
0
 30
0
 70
1
  0
VERTEX
  8
Layer1
 10
661.707
 20
470.382
  0
VERTEX
  8
Layer1
 10
660.12
 20
474.053
  0
VERTEX
  8
Layer1
 10
663.331
 20
471.668
  0
SEQEND
  0
LINE
  8
Layer1
  6
CONTINUOUS
 62
7
 10
679.334
 20
449.804
 11
713.334
 21
449.804
  0
TEXT
  8
Layer1
 62
7
 10
713.334
 20
450.804
 72
2
 11
713.334
 21
450.804
 40
4
 41
1
  1
2-Φ2.5センター穴
  0
TEXT
  8
Layer1
 62
7
 10
574.768
 20
488.937
 72
1
 11
574.768
 21
488.937
 40
8
 41
1
 50
90
  1
 28 
  0
LINE
  8
Layer1
  6
CONTINUOUS
 62
7
 10
634.212
 20
502.937
 11
572.768
 21
502.937
  0
LINE
  8
Layer1
  6
CONTINUOUS
 62
7
 10
639.215
 20
474.937
 11
572.768
 21
474.937
  0
POLYLINE
  8
Layer1
  6
CONTINUOUS
 62
7
 66
1
 10
0
 20
0
 30
0
  0
VERTEX
  8
Layer1
 10
574.768
 20
502.937
  0
VERTEX
  8
Layer1
 10
574.768
 20
474.937
  0
SEQEND
  0
POLYLINE
  8
Layer1
  6
CONTINUOUS
 62
7
 66
1
 10
0
 20
0
 30
0
 70
1
  0
VERTEX
  8
Layer1
 10
573.732
 20
499.073
  0
VERTEX
  8
Layer1
 10
574.768
 20
502.937
  0
VERTEX
  8
Layer1
 10
575.803
 20
499.073
  0
SEQEND
  0
POLYLINE
  8
Layer1
  6
CONTINUOUS
 62
7
 66
1
 10
0
 20
0
 30
0
 70
1
  0
VERTEX
  8
Layer1
 10
575.803
 20
478.801
  0
VERTEX
  8
Layer1
 10
574.768
 20
474.937
  0
VERTEX
  8
Layer1
 10
573.732
 20
478.801
  0
SEQEND
  0
TEXT
  8
Layer1
 62
7
 10
564.861
 20
488.937
 72
1
 11
564.861
 21
488.937
 40
8
 41
1
 50
90
  1
38
  0
LINE
  8
Layer1
  6
CONTINUOUS
 62
7
 10
633.236
 20
469.937
 11
562.861
 21
469.937
  0
LINE
  8
Layer1
  6
CONTINUOUS
 62
7
 10
633.751
 20
507.937
 11
562.861
 21
507.937
  0
POLYLINE
  8
Layer1
  6
CONTINUOUS
 62
7
 66
1
 10
0
 20
0
 30
0
  0
VERTEX
  8
Layer1
 10
564.861
 20
469.937
  0
VERTEX
  8
Layer1
 10
564.861
 20
507.937
  0
SEQEND
  0
POLYLINE
  8
Layer1
  6
CONTINUOUS
 62
7
 66
1
 10
0
 20
0
 30
0
 70
1
  0
VERTEX
  8
Layer1
 10
565.897
 20
473.801
  0
VERTEX
  8
Layer1
 10
564.861
 20
469.937
  0
VERTEX
  8
Layer1
 10
563.825
 20
473.801
  0
SEQEND
  0
POLYLINE
  8
Layer1
  6
CONTINUOUS
 62
7
 66
1
 10
0
 20
0
 30
0
 70
1
  0
VERTEX
  8
Layer1
 10
563.825
 20
504.073
  0
VERTEX
  8
Layer1
 10
564.861
 20
507.937
  0
VERTEX
  8
Layer1
 10
565.897
 20
504.073
  0
SEQEND
  0
CIRCLE
  8
Layer1
  6
CONTINUOUS
 62
7
 10
637.236
 20
502.937
 40
1.7
  0
CIRCLE
  8
Layer1
  6
CONTINUOUS
 62
7
 10
662.236
 20
474.937
 40
1.7
  0
LINE
  8
Layer1
  6
CONTINUOUS
 62
7
 10
637.236
 20
505.592
 11
637.236
 21
520.094
  0
LINE
  8
Layer1
  6
CONTINUOUS
 62
7
 10
647.236
 20
507.881
 11
647.236
 21
520.094
  0
POLYLINE
  8
Layer1
  6
CONTINUOUS
 62
7
 66
1
 10
0
 20
0
 30
0
  0
VERTEX
  8
Layer1
 10
655.236
 20
518.094
  0
VERTEX
  8
Layer1
 10
647.236
 20
518.094
  0
SEQEND
  0
POLYLINE
  8
Layer1
  6
CONTINUOUS
 62
7
 66
1
 10
0
 20
0
 30
0
 70
1
  0
VERTEX
  8
Layer1
 10
651.1
 20
517.059
  0
VERTEX
  8
Layer1
 10
647.236
 20
518.094
  0
VERTEX
  8
Layer1
 10
651.1
 20
519.13
  0
SEQEND
  0
TEXT
  8
Layer1
 62
7
 10
634.719
 20
518.079
 72
1
 11
634.719
 21
518.079
 40
8
 41
1
  1
 5 
  0
LINE
  8
Layer1
  6
CONTINUOUS
 62
7
 10
637.236
 20
518.094
 11
637.236
 21
516.079
  0
LINE
  8
Layer1
  6
CONTINUOUS
 62
7
 10
632.202
 20
518.094
 11
632.202
 21
516.079
  0
POLYLINE
  8
Layer1
  6
CONTINUOUS
 62
7
 66
1
 10
0
 20
0
 30
0
  0
VERTEX
  8
Layer1
 10
616.202
 20
518.079
  0
VERTEX
  8
Layer1
 10
632.202
 20
518.079
  0
SEQEND
  0
POLYLINE
  8
Layer1
  6
CONTINUOUS
 62
7
 66
1
 10
0
 20
0
 30
0
 70
1
  0
VERTEX
  8
Layer1
 10
628.339
 20
519.115
  0
VERTEX
  8
Layer1
 10
632.202
 20
518.079
  0
VERTEX
  8
Layer1
 10
628.339
 20
517.044
  0
SEQEND
  0
LINE
  8
Layer1
  6
CONTINUOUS
 62
7
 10
637.236
 20
518.079
 11
632.202
 21
518.079
  0
CIRCLE
  8
Layer1
  6
CONTINUOUS
 62
7
 10
637.236
 20
518.079
 40
1
  0
LINE
  8
Layer1
  6
CONTINUOUS
 62
7
 10
632.236
 20
336.232
 11
698.236
 21
336.232
  0
LINE
  8
Layer1
  6
CONTINUOUS
 62
7
 10
693.736
 20
416.232
 11
662.736
 21
416.232
  0
LINE
  8
Layer1
  6
CENTER1
 62
7
 10
693.736
 20
404.232
 11
662.736
 21
404.232
  0
LINE
  8
Layer1
  6
CONTINUOUS
 62
7
 10
662.38
 20
396.232
 11
693.736
 21
396.232
  0
LINE
  8
Layer1
  6
PHANTOM1
 62
7
 10
662.736
 20
384.232
 11
693.736
 21
384.232
  0
LINE
  8
Layer1
  6
CONTINUOUS
 62
7
 10
666.236
 20
382.022
 11
690.236
 21
382.022
  0
LINE
  8
Layer1
  6
CONTINUOUS
 62
7
 10
694.236
 20
396.473
 11
694.236
 21
415.732
  0
LINE
  8
Layer1
  6
CONTINUOUS
 62
7
 10
662.236
 20
415.732
 11
662.236
 21
396.118
  0
LINE
  8
Layer1
  6
CONTINUOUS
 62
7
 10
666.236
 20
396.238
 11
666.236
 21
382.022
  0
LINE
  8
Layer1
  6
CONTINUOUS
 62
7
 10
690.236
 20
395.931
 11
690.236
 21
381.979
  0
LINE
  8
Layer1
  6
DASHED1
 62
7
 10
681.236
 20
416.09
 11
681.236
 21
399.867
  0
LINE
  8
Layer1
  6
DASHED1
 62
7
 10
675.236
 20
416.09
 11
675.236
 21
399.867
  0
LINE
  8
Layer1
  6
DASHED1
 62
7
 10
681.236
 20
399.867
 11
675.236
 21
399.867
  0
LINE
  8
Layer1
  6
DASHED1
 62
7
 10
680.736
 20
398.867
 11
675.635
 21
398.867
  0
LINE
  8
Layer1
  6
DASHED1
 62
7
 10
681.236
 20
399.867
 11
680.736
 21
398.867
  0
LINE
  8
Layer1
  6
DASHED1
 62
7
 10
675.236
 20
399.867
 11
675.635
 21
398.867
  0
LINE
  8
Layer1
  6
DASHED1
 62
7
 10
680.736
 20
416.09
 11
680.736
 21
393.867
  0
LINE
  8
Layer1
  6
DASHED1
 62
7
 10
675.635
 20
416.09
 11
675.635
 21
393.867
  0
LINE
  8
Layer1
  6
DASHED1
 62
7
 10
675.635
 20
393.867
 11
680.736
 21
393.867
  0
LINE
  8
Layer1
  6
DASHED1
 62
7
 10
678.236
 20
392.366
 11
675.635
 21
393.867
  0
LINE
  8
Layer1
  6
DASHED1
 62
7
 10
680.736
 20
393.867
 11
678.135
 21
392.366
  0
LINE
  8
Layer1
  6
CONTINUOUS
 62
7
 10
662.736
 20
416.232
 11
662.236
 21
415.732
  0
LINE
  8
Layer1
  6
CONTINUOUS
 62
7
 10
693.736
 20
416.232
 11
694.236
 21
415.732
  0
LINE
  8
Layer1
  6
CONTINUOUS
 62
7
 10
694.236
 20
384.793
 11
693.736
 21
384.293
  0
LINE
  8
Layer1
  6
CONTINUOUS
 62
7
 10
662.736
 20
384.293
 11
662.236
 21
384.793
  0
LINE
  8
Layer1
  6
CONTINUOUS
 62
7
 10
662.236
 20
403.732
 11
662.736
 21
404.232
  0
LINE
  8
Layer1
  6
CONTINUOUS
 62
7
 10
693.736
 20
404.232
 11
694.236
 21
403.732
  0
LINE
  8
Layer1
  6
CONTINUOUS
 62
7
 10
693.736
 20
396.232
 11
694.236
 21
396.732
  0
LINE
  8
Layer1
  6
PHANTOM1
 62
7
 10
694.236
 20
396.507
 11
694.236
 21
384.793
  0
LINE
  8
Layer1
  6
CONTINUOUS
 62
7
 10
662.38
 20
396.232
 11
662.236
 21
396.376
  0
LINE
  8
Layer1
  6
PHANTOM1
 62
7
 10
662.236
 20
396.473
 11
662.236
 21
384.793
  0
ARC
  8
Layer1
  6
CONTINUOUS
 62
7
 10
690.236
 20
380.886
 40
1.13561
 50
90
 51
270
  0
ARC
  8
Layer1
  6
CONTINUOUS
 62
7
 10
666.236
 20
380.886
 40
1.13561
 50
270
 51
90
  0
LINE
  8
Layer1
  6
CONTINUOUS
 62
7
 10
666.236
 20
379.75
 11
666.236
 21
378.245
  0
LINE
  8
Layer1
  6
CONTINUOUS
 62
7
 10
690.236
 20
379.75
 11
690.236
 21
360.683
  0
LINE
  8
Layer1
  6
CONTINUOUS
 62
7
 10
666.236
 20
379.75
 11
690.236
 21
379.75
  0
LINE
  8
Layer1
  6
CONTINUOUS
 62
7
 10
622.301
 20
368.232
 11
647.935
 21
368.232
  0
LINE
  8
Layer1
  6
CONTINUOUS
 62
7
 10
622.173
 20
350.232
 11
647.935
 21
350.232
  0
LINE
  8
Layer1
  6
CENTER1
 62
7
 10
579.224
 20
359.232
 11
703.16
 21
359.232
  0
LINE
  8
Layer1
  6
CONTINUOUS
 62
7
 10
632.236
 20
374.232
 11
670.245
 21
374.232
  0
LINE
  8
Layer1
  6
CONTINUOUS
 62
7
 10
632.236
 20
350.187
 11
632.236
 21
336.232
  0
LINE
  8
Layer1
  6
CENTER1
 62
7
 10
627.649
 20
343.045
 11
686.344
 21
343.045
  0
LINE
  8
Layer1
  6
CONTINUOUS
 62
7
 10
644.998
 20
382.386
 11
653.11
 21
382.386
  0
LINE
  8
Layer1
  6
CONTINUOUS
 62
7
 10
688.85
 20
355.614
 11
666.236
 21
378.245
  0
LINE
  8
Layer1
  6
PHANTOM1
 62
7
 10
664.821
 20
368.029
 11
677.37
 21
355.511
  0
LINE
  8
Layer1
  6
CONTINUOUS
 62
7
 10
683.236
 20
361.232
 11
690.236
 21
361.232
  0
LINE
  8
Layer1
  6
CONTINUOUS
 62
7
 10
687.621
 20
368.217
 11
687.621
 21
361.232
  0
ARC
  8
Layer1
  6
CONTINUOUS
 62
7
 10
695.452
 20
368.191
 40
7.83009
 50
131.635
 51
179.811
  0
LINE
  8
Layer1
  6
CONTINUOUS
 62
7
 10
688.85
 20
355.065
 11
688.85
 21
350.187
  0
LINE
  8
Layer1
  6
CONTINUOUS
 62
7
 10
644.998
 20
380.277
 11
652.137
 21
380.277
  0
LINE
  8
Layer1
  6
CONTINUOUS
 62
7
 10
653.11
 20
382.386
 11
654.408
 21
380.872
  0
LINE
  8
Layer1
  6
CONTINUOUS
 62
7
 10
654.408
 20
380.277
 11
654.408
 21
380.872
  0
ARC
  8
Layer1
  6
CONTINUOUS
 62
7
 10
653.272
 20
380.265
 40
1.13567
 50
179.415
 51
0.584631
  0
LINE
  8
Layer1
  6
CONTINUOUS
 62
7
 10
644.998
 20
382.386
 11
642.799
 21
380.082
  0
LINE
  8
Layer1
  6
CONTINUOUS
 62
7
 10
644.998
 20
380.277
 11
643.7
 21
379.141
  0
ARC
  8
Layer1
  6
CONTINUOUS
 62
7
 10
643.27
 20
379.632
 40
0.652073
 50
136.332
 51
311.186
  0
LINE
  8
Layer1
  6
CONTINUOUS
 62
7
 10
646.202
 20
380.277
 11
646.202
 21
377.432
  0
LINE
  8
Layer1
  6
CONTINUOUS
 62
7
 10
651.587
 20
380.277
 11
651.587
 21
377.432
  0
LINE
  8
Layer1
  6
CONTINUOUS
 62
7
 10
646.936
 20
368.232
 11
650.935
 21
368.232
  0
LINE
  8
Layer1
  6
CONTINUOUS
 62
7
 10
646.202
 20
368.732
 11
651.668
 21
368.732
  0
LINE
  8
Layer1
  6
CONTINUOUS
 62
7
 10
650.935
 20
373.531
 11
650.935
 21
368.232
  0
LINE
  8
Layer1
  6
CONTINUOUS
 62
7
 10
646.936
 20
373.531
 11
646.936
 21
368.232
  0
LINE
  8
Layer1
  6
CONTINUOUS
 62
7
 10
646.936
 20
373.531
 11
650.935
 21
373.531
  0
LINE
  8
Layer1
  6
CONTINUOUS
 62
7
 10
651.668
 20
374.031
 11
650.935
 21
373.531
  0
LINE
  8
Layer1
  6
CONTINUOUS
 62
7
 10
646.936
 20
373.531
 11
646.202
 21
374.031
  0
LINE
  8
Layer1
  6
CONTINUOUS
 62
7
 10
646.936
 20
368.232
 11
646.202
 21
368.732
  0
LINE
  8
Layer1
  6
CONTINUOUS
 62
7
 10
650.935
 20
368.232
 11
651.668
 21
368.732
  0
LINE
  8
Layer1
  6
CONTINUOUS
 62
7
 10
646.202
 20
368.232
 11
646.202
 21
374.031
  0
LINE
  8
Layer1
  6
CONTINUOUS
 62
7
 10
651.668
 20
368.232
 11
651.668
 21
374.031
  0
LINE
  8
Layer1
  6
CONTINUOUS
 62
7
 10
653.592
 20
374.031
 11
653.592
 21
376.844
  0
LINE
  8
Layer1
  6
CONTINUOUS
 62
7
 10
653.592
 20
376.844
 11
652.572
 21
377.432
  0
LINE
  8
Layer1
  6
CONTINUOUS
 62
7
 10
652.572
 20
377.432
 11
645.372
 21
377.432
  0
LINE
  8
Layer1
  6
CONTINUOUS
 62
7
 10
645.372
 20
377.432
 11
644.353
 21
376.844
  0
LINE
  8
Layer1
  6
CONTINUOUS
 62
7
 10
644.353
 20
376.844
 11
644.353
 21
374.031
  0
LINE
  8
Layer1
  6
CONTINUOUS
 62
7
 10
651.282
 20
374.031
 11
651.282
 21
376.844
  0
LINE
  8
Layer1
  6
CONTINUOUS
 62
7
 10
646.664
 20
374.031
 11
646.664
 21
376.844
  0
ARC
  8
Layer1
  6
CONTINUOUS
 62
7
 10
648.972
 20
369.558
 40
7.643
 50
72.412
 51
107.588
  0
ARC
  8
Layer1
  6
CONTINUOUS
 62
7
 10
652.437
 20
375.156
 40
2.045
 50
55.616
 51
124.384
  0
ARC
  8
Layer1
  6
CONTINUOUS
 62
7
 10
645.508
 20
375.156
 40
2.045
 50
55.616
 51
124.384
  0
CIRCLE
  8
Layer1
  6
CONTINUOUS
 62
7
 10
653.272
 20
380.265
 40
0.497482
  0
LINE
  8
Layer1
  6
CENTER1
 62
7
 10
648.935
 20
367.591
 11
648.935
 21
385.01
  0
LINE
  8
Layer1
  6
CONTINUOUS
 62
7
 10
632.736
 20
349.38
 11
637.587
 21
349.38
  0
LINE
  8
Layer1
  6
CONTINUOUS
 62
7
 10
632.736
 20
337.346
 11
637.587
 21
337.346
  0
LINE
  8
Layer1
  6
CONTINUOUS
 62
7
 10
632.236
 20
337.818
 11
638.087
 21
337.818
  0
LINE
  8
Layer1
  6
CONTINUOUS
 62
7
 10
632.236
 20
348.908
 11
638.087
 21
348.908
  0
LINE
  8
Layer1
  6
CONTINUOUS
 62
7
 10
665.575
 20
336.232
 11
665.575
 21
337.497
  0
LINE
  8
Layer1
  6
CONTINUOUS
 62
7
 10
683.85
 20
350.187
 11
683.85
 21
338.526
  0
LINE
  8
Layer1
  6
CONTINUOUS
 62
7
 10
688.85
 20
338.526
 11
683.85
 21
338.526
  0
LINE
  8
Layer1
  6
CONTINUOUS
 62
7
 10
688.85
 20
350.187
 11
688.85
 21
338.526
  0
LINE
  8
Layer1
  6
PHANTOM1
 62
7
 10
677.37
 20
355.511
 11
677.37
 21
350.187
  0
LINE
  8
Layer1
  6
CONTINUOUS
 62
7
 10
638.087
 20
348.545
 11
665.575
 21
348.545
  0
LINE
  8
Layer1
  6
CONTINUOUS
 62
7
 10
638.087
 20
337.497
 11
665.575
 21
337.497
  0
LINE
  8
Layer1
  6
CONTINUOUS
 62
7
 10
680.238
 20
340.598
 11
683.85
 21
340.598
  0
LINE
  8
Layer1
  6
CONTINUOUS
 62
7
 10
680.238
 20
345.493
 11
683.85
 21
345.493
  0
LINE
  8
Layer1
  6
CONTINUOUS
 62
7
 10
680.238
 20
345.493
 11
680.238
 21
340.598
  0
LINE
  8
Layer1
  6
CENTER1
 62
7
 10
686.907
 20
343.045
 11
681.07
 21
343.045
  0
LINE
  8
Layer1
  6
CONTINUOUS
 62
7
 10
638.087
 20
337.846
 11
638.087
 21
348.88
  0
LINE
  8
Layer1
  6
CONTINUOUS
 62
7
 10
632.236
 20
348.88
 11
632.236
 21
337.846
  0
LINE
  8
Layer1
  6
CONTINUOUS
 62
7
 10
638.087
 20
348.88
 11
637.587
 21
349.38
  0
LINE
  8
Layer1
  6
CONTINUOUS
 62
7
 10
638.087
 20
337.846
 11
637.587
 21
337.346
  0
LINE
  8
Layer1
  6
CONTINUOUS
 62
7
 10
632.736
 20
337.346
 11
632.236
 21
337.846
  0
LINE
  8
Layer1
  6
CONTINUOUS
 62
7
 10
632.236
 20
348.88
 11
632.736
 21
349.38
  0
LINE
  8
Layer1
  6
CONTINUOUS
 62
7
 10
637.587
 20
349.38
 11
637.587
 21
337.346
  0
LINE
  8
Layer1
  6
CONTINUOUS
 62
7
 10
632.736
 20
349.38
 11
632.736
 21
337.346
  0
LINE
  8
Layer1
  6
CONTINUOUS
 62
7
 10
665.575
 20
348.545
 11
665.575
 21
350.187
  0
LINE
  8
Layer1
  6
CONTINUOUS
 62
7
 10
622.71
 20
368.232
 11
622.71
 21
371.016
  0
LINE
  8
Layer1
  6
CENTER1
 62
7
 10
626.751
 20
374.439
 11
626.751
 21
360.448
  0
LINE
  8
Layer1
  6
CONTINUOUS
 62
7
 10
621.673
 20
350.687
 11
621.673
 21
355.232
  0
LINE
  8
Layer1
  6
CONTINUOUS
 62
7
 10
621.673
 20
355.232
 11
636.666
 21
355.232
  0
LINE
  8
Layer1
  6
CONTINUOUS
 62
7
 10
633.773
 20
363.232
 11
633.773
 21
355.226
  0
LINE
  8
Layer1
  6
CONTINUOUS
 62
7
 10
636.666
 20
363.031
 11
636.666
 21
355.139
  0
LINE
  8
Layer1
  6
PHANTOM1
 62
7
 10
621.673
 20
368.029
 11
594.289
 21
368.029
  0
LINE
  8
Layer1
  6
PHANTOM1
 62
7
 10
621.673
 20
350.668
 11
594.289
 21
350.668
  0
LINE
  8
Layer1
  6
PHANTOM1
 62
7
 10
594.289
 20
368.029
 11
594.289
 21
350.668
  0
LINE
  8
Layer1
  6
PHANTOM1
 62
7
 10
596.655
 20
363.247
 11
612.296
 21
363.232
  0
LINE
  8
Layer1
  6
PHANTOM1
 62
7
 10
612.296
 20
355.232
 11
596.655
 21
355.232
  0
LINE
  8
Layer1
  6
CONTINUOUS
 62
7
 10
596.667
 20
361.187
 11
596.667
 21
357.115
  0
LINE
  8
Layer1
  6
CONTINUOUS
 62
7
 10
596.649
 20
361.256
 11
606.328
 21
361.256
  0
LINE
  8
Layer1
  6
CONTINUOUS
 62
7
 10
596.655
 20
357.208
 11
606.328
 21
357.208
  0
ARC
  8
Layer1
  6
CONTINUOUS
 62
7
 10
606.328
 20
347.208
 40
10
 50
53.3601
 51
90
  0
LINE
  8
Layer1
  6
CONTINUOUS
 62
7
 10
612.296
 20
363.232
 11
612.296
 21
355.232
  0
LINE
  8
Layer1
  6
CONTINUOUS
 62
7
 10
636.666
 20
362.311
 11
633.773
 21
363.232
  0
LINE
  8
Layer1
  6
CONTINUOUS
 62
7
 10
636.666
 20
356.284
 11
633.773
 21
355.232
  0
LINE
  8
Layer1
  6
PHANTOM1
 62
7
 10
594.289
 20
361.256
 11
586.667
 21
361.256
  0
LINE
  8
Layer1
  6
PHANTOM1
 62
7
 10
586.667
 20
361.256
 11
586.667
 21
357.208
  0
LINE
  8
Layer1
  6
PHANTOM1
 62
7
 10
586.667
 20
357.208
 11
594.289
 21
357.208
  0
LINE
  8
Layer1
  6
CONTINUOUS
 62
7
 10
612.296
 20
355.232
 11
621.673
 21
355.232
  0
LINE
  8
Layer1
  6
CONTINUOUS
 62
7
 10
622.71
 20
371.016
 11
623.351
 21
371.386
  0
LINE
  8
Layer1
  6
CONTINUOUS
 62
7
 10
630.151
 20
371.386
 11
630.793
 21
371.016
  0
LINE
  8
Layer1
  6
CONTINUOUS
 62
7
 10
630.793
 20
371.016
 11
630.793
 21
368.232
  0
LINE
  8
Layer1
  6
CONTINUOUS
 62
7
 10
624.731
 20
368.232
 11
624.731
 21
371.016
  0
LINE
  8
Layer1
  6
CONTINUOUS
 62
7
 10
628.773
 20
368.232
 11
628.773
 21
371.016
  0
LINE
  8
Layer1
  6
CONTINUOUS
 62
7
 10
625.052
 20
371.386
 11
625.052
 21
371.686
  0
LINE
  8
Layer1
  6
CONTINUOUS
 62
7
 10
628.452
 20
371.386
 11
628.452
 21
371.686
  0
ARC
  8
Layer1
  6
CONTINUOUS
 62
7
 10
626.751
 20
364.641
 40
6.687
 50
72.412
 51
107.588
  0
ARC
  8
Layer1
  6
CONTINUOUS
 62
7
 10
623.72
 20
369.539
 40
1.789
 50
55.616
 51
124.384
  0
ARC
  8
Layer1
  6
CONTINUOUS
 62
7
 10
629.783
 20
369.539
 40
1.789
 50
55.616
 51
124.384
  0
LINE
  8
Layer1
  6
CONTINUOUS
 62
7
 10
625.552
 20
372.186
 11
627.952
 21
372.186
  0
LINE
  8
Layer1
  6
CONTINUOUS
 62
7
 10
624.751
 20
371.386
 11
625.552
 21
372.186
  0
LINE
  8
Layer1
  6
CONTINUOUS
 62
7
 10
628.751
 20
371.386
 11
627.952
 21
372.186
  0
LINE
  8
Layer1
  6
CONTINUOUS
 62
7
 10
630.151
 20
371.386
 11
623.351
 21
371.386
  0
LINE
  8
Layer1
  6
CONTINUOUS
 62
7
 10
622.301
 20
368.232
 11
621.673
 21
367.604
  0
POLYLINE
  8
Layer1
  6
CONTINUOUS
 62
7
 66
1
 10
0
 20
0
 30
0
  0
VERTEX
  8
Layer1
 10
639.714
 20
368.029
  0
VERTEX
  8
Layer1
 10
639.625
 20
367.805
  0
VERTEX
  8
Layer1
 10
639.539
 20
367.582
  0
VERTEX
  8
Layer1
 10
639.457
 20
367.36
  0
VERTEX
  8
Layer1
 10
639.38
 20
367.14
  0
VERTEX
  8
Layer1
 10
639.311
 20
366.923
  0
VERTEX
  8
Layer1
 10
639.25
 20
366.709
  0
VERTEX
  8
Layer1
 10
639.2
 20
366.498
  0
VERTEX
  8
Layer1
 10
639.164
 20
366.292
  0
VERTEX
  8
Layer1
 10
639.141
 20
366.091
  0
VERTEX
  8
Layer1
 10
639.137
 20
365.895
  0
VERTEX
  8
Layer1
 10
639.149
 20
365.706
  0
VERTEX
  8
Layer1
 10
639.183
 20
365.523
  0
VERTEX
  8
Layer1
 10
639.237
 20
365.348
  0
VERTEX
  8
Layer1
 10
639.316
 20
365.181
  0
VERTEX
  8
Layer1
 10
639.42
 20
365.023
  0
VERTEX
  8
Layer1
 10
639.552
 20
364.874
  0
VERTEX
  8
Layer1
 10
639.703
 20
364.732
  0
VERTEX
  8
Layer1
 10
639.866
 20
364.595
  0
VERTEX
  8
Layer1
 10
640.032
 20
364.459
  0
VERTEX
  8
Layer1
 10
640.19
 20
364.323
  0
VERTEX
  8
Layer1
 10
640.334
 20
364.183
  0
VERTEX
  8
Layer1
 10
640.455
 20
364.038
  0
VERTEX
  8
Layer1
 10
640.542
 20
363.884
  0
VERTEX
  8
Layer1
 10
640.591
 20
363.719
  0
VERTEX
  8
Layer1
 10
640.604
 20
363.545
  0
VERTEX
  8
Layer1
 10
640.59
 20
363.363
  0
VERTEX
  8
Layer1
 10
640.548
 20
363.173
  0
VERTEX
  8
Layer1
 10
640.488
 20
362.977
  0
VERTEX
  8
Layer1
 10
640.414
 20
362.776
  0
VERTEX
  8
Layer1
 10
640.328
 20
362.572
  0
VERTEX
  8
Layer1
 10
640.238
 20
362.364
  0
VERTEX
  8
Layer1
 10
640.149
 20
362.156
  0
VERTEX
  8
Layer1
 10
640.064
 20
361.946
  0
VERTEX
  8
Layer1
 10
639.989
 20
361.738
  0
VERTEX
  8
Layer1
 10
639.929
 20
361.531
  0
VERTEX
  8
Layer1
 10
639.883
 20
361.326
  0
VERTEX
  8
Layer1
 10
639.852
 20
361.123
  0
VERTEX
  8
Layer1
 10
639.834
 20
360.922
  0
VERTEX
  8
Layer1
 10
639.83
 20
360.723
  0
VERTEX
  8
Layer1
 10
639.837
 20
360.525
  0
VERTEX
  8
Layer1
 10
639.856
 20
360.329
  0
VERTEX
  8
Layer1
 10
639.888
 20
360.134
  0
VERTEX
  8
Layer1
 10
639.928
 20
359.941
  0
VERTEX
  8
Layer1
 10
639.979
 20
359.749
  0
VERTEX
  8
Layer1
 10
640.041
 20
359.559
  0
VERTEX
  8
Layer1
 10
640.11
 20
359.37
  0
VERTEX
  8
Layer1
 10
640.188
 20
359.182
  0
VERTEX
  8
Layer1
 10
640.274
 20
358.995
  0
VERTEX
  8
Layer1
 10
640.366
 20
358.81
  0
VERTEX
  8
Layer1
 10
640.466
 20
358.625
  0
VERTEX
  8
Layer1
 10
640.571
 20
358.442
  0
VERTEX
  8
Layer1
 10
640.68
 20
358.259
  0
VERTEX
  8
Layer1
 10
640.796
 20
358.077
  0
VERTEX
  8
Layer1
 10
640.916
 20
357.896
  0
VERTEX
  8
Layer1
 10
641.039
 20
357.716
  0
VERTEX
  8
Layer1
 10
641.164
 20
357.537
  0
VERTEX
  8
Layer1
 10
641.293
 20
357.358
  0
VERTEX
  8
Layer1
 10
641.423
 20
357.179
  0
VERTEX
  8
Layer1
 10
641.554
 20
357.001
  0
VERTEX
  8
Layer1
 10
641.687
 20
356.824
  0
VERTEX
  8
Layer1
 10
641.818
 20
356.646
  0
VERTEX
  8
Layer1
 10
641.95
 20
356.469
  0
VERTEX
  8
Layer1
 10
642.081
 20
356.293
  0
VERTEX
  8
Layer1
 10
642.209
 20
356.116
  0
VERTEX
  8
Layer1
 10
642.335
 20
355.94
  0
VERTEX
  8
Layer1
 10
642.459
 20
355.763
  0
VERTEX
  8
Layer1
 10
642.578
 20
355.586
  0
VERTEX
  8
Layer1
 10
642.695
 20
355.409
  0
VERTEX
  8
Layer1
 10
642.805
 20
355.232
  0
VERTEX
  8
Layer1
 10
642.91
 20
355.054
  0
VERTEX
  8
Layer1
 10
643.01
 20
354.876
  0
VERTEX
  8
Layer1
 10
643.102
 20
354.697
  0
VERTEX
  8
Layer1
 10
643.188
 20
354.518
  0
VERTEX
  8
Layer1
 10
643.266
 20
354.338
  0
VERTEX
  8
Layer1
 10
643.335
 20
354.157
  0
VERTEX
  8
Layer1
 10
643.395
 20
353.975
  0
VERTEX
  8
Layer1
 10
643.447
 20
353.792
  0
VERTEX
  8
Layer1
 10
643.486
 20
353.608
  0
VERTEX
  8
Layer1
 10
643.515
 20
353.423
  0
VERTEX
  8
Layer1
 10
643.534
 20
353.236
  0
VERTEX
  8
Layer1
 10
643.539
 20
353.048
  0
VERTEX
  8
Layer1
 10
643.534
 20
352.859
  0
VERTEX
  8
Layer1
 10
643.519
 20
352.669
  0
VERTEX
  8
Layer1
 10
643.495
 20
352.478
  0
VERTEX
  8
Layer1
 10
643.46
 20
352.285
  0
VERTEX
  8
Layer1
 10
643.418
 20
352.092
  0
VERTEX
  8
Layer1
 10
643.37
 20
351.898
  0
VERTEX
  8
Layer1
 10
643.313
 20
351.703
  0
VERTEX
  8
Layer1
 10
643.25
 20
351.508
  0
VERTEX
  8
Layer1
 10
643.183
 20
351.312
  0
VERTEX
  8
Layer1
 10
643.112
 20
351.115
  0
VERTEX
  8
Layer1
 10
643.036
 20
350.918
  0
VERTEX
  8
Layer1
 10
642.958
 20
350.721
  0
VERTEX
  8
Layer1
 10
642.878
 20
350.523
  0
VERTEX
  8
Layer1
 10
642.795
 20
350.326
  0
VERTEX
  8
Layer1
 10
642.714
 20
350.128
  0
SEQEND
  0
LINE
  8
Layer1
  6
CONTINUOUS
 62
7
 10
628.751
 20
368.232
 11
628.751
 21
363.232
  0
LINE
  8
Layer1
  6
CONTINUOUS
 62
7
 10
624.751
 20
368.232
 11
624.751
 21
363.331
  0
LINE
  8
Layer1
  6
CONTINUOUS
 62
7
 10
625.052
 20
363.531
 11
625.052
 21
363.231
  0
LINE
  8
Layer1
  6
CONTINUOUS
 62
7
 10
628.452
 20
363.331
 11
628.452
 21
368.232
  0
LINE
  8
Layer1
  6
CONTINUOUS
 62
7
 10
624.751
 20
363.531
 11
625.552
 21
362.731
  0
LINE
  8
Layer1
  6
CONTINUOUS
 62
7
 10
628.751
 20
363.531
 11
627.952
 21
362.731
  0
LINE
  8
Layer1
  6
CONTINUOUS
 62
7
 10
625.052
 20
363.331
 11
625.052
 21
368.232
  0
LINE
  8
Layer1
  6
CONTINUOUS
 62
7
 10
628.751
 20
363.531
 11
624.751
 21
363.531
  0
LINE
  8
Layer1
  6
CONTINUOUS
 62
7
 10
625.552
 20
362.731
 11
627.952
 21
362.731
  0
LINE
  8
Layer1
  6
CONTINUOUS
 62
7
 10
624.751
 20
363.331
 11
624.751
 21
361.78
  0
LINE
  8
Layer1
  6
CONTINUOUS
 62
7
 10
629.46
 20
363.232
 11
624.751
 21
361.78
  0
LINE
  8
Layer1
  6
CONTINUOUS
 62
7
 10
621.673
 20
363.232
 11
621.673
 21
367.604
  0
LINE
  8
Layer1
  6
CONTINUOUS
 62
7
 10
621.673
 20
350.687
 11
622.173
 21
350.187
  0
LINE
  8
Layer1
  6
CONTINUOUS
 62
7
 10
665.774
 20
374.232
 11
665.774
 21
368.232
  0
LINE
  8
Layer1
  6
CONTINUOUS
 62
7
 10
632.236
 20
374.232
 11
632.236
 21
368.232
  0
LINE
  8
Layer1
  6
CONTINUOUS
 62
7
 10
690.25
 20
374.031
 11
698.236
 21
374.031
  0
LINE
  8
Layer1
  6
CENTER1
 62
7
 10
687.799
 20
353.037
 11
705.024
 21
353.037
  0
LINE
  8
Layer1
  6
CONTINUOUS
 62
7
 10
698.236
 20
356.909
 11
701.065
 21
356.909
  0
LINE
  8
Layer1
  6
CONTINUOUS
 62
7
 10
698.236
 20
350.993
 11
689.693
 21
350.993
  0
LINE
  8
Layer1
  6
CONTINUOUS
 62
7
 10
701.436
 20
354.993
 11
701.436
 21
350.993
  0
LINE
  8
Layer1
  6
CONTINUOUS
 62
7
 10
701.736
 20
354.693
 11
701.436
 21
354.693
  0
LINE
  8
Layer1
  6
CONTINUOUS
 62
7
 10
701.736
 20
351.293
 11
701.436
 21
351.293
  0
LINE
  8
Layer1
  6
CONTINUOUS
 62
7
 10
698.236
 20
356.909
 11
698.236
 21
348.827
  0
LINE
  8
Layer1
  6
CONTINUOUS
 62
7
 10
701.065
 20
356.909
 11
701.436
 21
356.268
  0
LINE
  8
Layer1
  6
CONTINUOUS
 62
7
 10
701.436
 20
356.268
 11
701.436
 21
349.468
  0
LINE
  8
Layer1
  6
CONTINUOUS
 62
7
 10
701.436
 20
349.468
 11
701.065
 21
348.827
  0
LINE
  8
Layer1
  6
CONTINUOUS
 62
7
 10
701.065
 20
348.827
 11
698.236
 21
348.827
  0
LINE
  8
Layer1
  6
CONTINUOUS
 62
7
 10
698.236
 20
354.889
 11
701.065
 21
354.889
  0
LINE
  8
Layer1
  6
CONTINUOUS
 62
7
 10
698.236
 20
350.847
 11
701.065
 21
350.847
  0
ARC
  8
Layer1
  6
CONTINUOUS
 62
7
 10
694.69
 20
352.868
 40
6.687
 50
342.412
 51
17.588
  0
ARC
  8
Layer1
  6
CONTINUOUS
 62
7
 10
699.589
 20
355.899
 40
1.789
 50
325.616
 51
34.384
  0
ARC
  8
Layer1
  6
CONTINUOUS
 62
7
 10
699.589
 20
349.837
 40
1.789
 50
325.616
 51
34.384
  0
LINE
  8
Layer1
  6
CONTINUOUS
 62
7
 10
688.85
 20
351.837
 11
688.85
 21
355.614
  0
LINE
  8
Layer1
  6
CONTINUOUS
 62
7
 10
689.649
 20
355.037
 11
688.85
 21
354.237
  0
LINE
  8
Layer1
  6
CONTINUOUS
 62
7
 10
702.236
 20
354.193
 11
702.236
 21
351.793
  0
LINE
  8
Layer1
  6
CONTINUOUS
 62
7
 10
701.436
 20
354.993
 11
702.236
 21
354.193
  0
LINE
  8
Layer1
  6
CONTINUOUS
 62
7
 10
701.436
 20
350.993
 11
702.236
 21
351.793
  0
LINE
  8
Layer1
  6
CONTINUOUS
 62
7
 10
698.236
 20
354.993
 11
689.604
 21
354.993
  0
LINE
  8
Layer1
  6
CONTINUOUS
 62
7
 10
698.236
 20
354.693
 11
689.304
 21
354.693
  0
LINE
  8
Layer1
  6
CONTINUOUS
 62
7
 10
698.236
 20
351.293
 11
689.393
 21
351.293
  0
TEXT
  8
Layer1
 62
7
 10
729.168
 20
376.161
 72
1
 11
729.168
 21
376.161
 40
4
 41
1
 50
90
  1
80
  0
TEXT
  8
Layer1
 62
7
 10
720.673
 20
370.321
 72
1
 11
720.673
 21
370.321
 40
4
 41
1
 50
90
  1
68
  0
TEXT
  8
Layer1
 62
7
 10
608.041
 20
326.491
 72
1
 11
608.041
 21
326.491
 40
4
 41
1
  1
25
  0
TEXT
  8
Layer1
 62
7
 10
626.953
 20
326.491
 72
1
 11
626.953
 21
326.491
 40
4
 41
1
  1
10
  0
TEXT
  8
Layer1
 62
7
 10
677.56
 20
374.867
 72
1
 11
677.56
 21
374.867
 40
8
 41
1
 50
22.4885
  1
 45°
  0
ARC
  8
Layer1
  6
CONTINUOUS
 62
7
 10
683.181
 20
361.286
 40
14.6984
 50
90
 51
134.977
  0
TEXT
  8
Layer1
 62
7
 10
617.946
 20
384.538
 72
1
 11
617.946
 21
384.538
 40
4
 41
1
  1
40
  0
LINE
  8
Layer1
  6
CENTER1
 62
7
 10
648.935
 20
349.951
 11
648.935
 21
367.793
  0
LINE
  8
Layer1
  6
CONTINUOUS
 62
7
 10
649.935
 20
368.232
 11
649.935
 21
350.232
  0
LINE
  8
Layer1
  6
CONTINUOUS
 62
7
 10
647.935
 20
368.232
 11
647.935
 21
350.232
  0
POLYLINE
  8
Layer1
  6
CONTINUOUS
 62
7
 66
1
 10
0
 20
0
 30
0
  0
VERTEX
  8
Layer1
 10
647.933
 20
368.21
  0
VERTEX
  8
Layer1
 10
647.935
 20
368.177
  0
VERTEX
  8
Layer1
 10
647.94
 20
368.144
  0
VERTEX
  8
Layer1
 10
647.952
 20
368.112
  0
VERTEX
  8
Layer1
 10
647.967
 20
368.08
  0
VERTEX
  8
Layer1
 10
647.986
 20
368.049
  0
VERTEX
  8
Layer1
 10
648.008
 20
368.018
  0
VERTEX
  8
Layer1
 10
648.035
 20
367.989
  0
VERTEX
  8
Layer1
 10
648.066
 20
367.96
  0
VERTEX
  8
Layer1
 10
648.101
 20
367.932
  0
VERTEX
  8
Layer1
 10
648.139
 20
367.905
  0
VERTEX
  8
Layer1
 10
648.18
 20
367.88
  0
VERTEX
  8
Layer1
 10
648.226
 20
367.856
  0
VERTEX
  8
Layer1
 10
648.273
 20
367.834
  0
VERTEX
  8
Layer1
 10
648.323
 20
367.813
  0
VERTEX
  8
Layer1
 10
648.376
 20
367.794
  0
VERTEX
  8
Layer1
 10
648.433
 20
367.777
  0
VERTEX
  8
Layer1
 10
648.489
 20
367.761
  0
VERTEX
  8
Layer1
 10
648.549
 20
367.748
  0
VERTEX
  8
Layer1
 10
648.611
 20
367.736
  0
VERTEX
  8
Layer1
 10
648.673
 20
367.727
  0
VERTEX
  8
Layer1
 10
648.737
 20
367.719
  0
VERTEX
  8
Layer1
 10
648.802
 20
367.714
  0
VERTEX
  8
Layer1
 10
648.866
 20
367.711
  0
VERTEX
  8
Layer1
 10
648.933
 20
367.71
  0
VERTEX
  8
Layer1
 10
648.997
 20
367.711
  0
VERTEX
  8
Layer1
 10
649.063
 20
367.714
  0
VERTEX
  8
Layer1
 10
649.128
 20
367.719
  0
VERTEX
  8
Layer1
 10
649.191
 20
367.727
  0
VERTEX
  8
Layer1
 10
649.254
 20
367.736
  0
VERTEX
  8
Layer1
 10
649.314
 20
367.748
  0
VERTEX
  8
Layer1
 10
649.375
 20
367.761
  0
VERTEX
  8
Layer1
 10
649.433
 20
367.777
  0
VERTEX
  8
Layer1
 10
649.487
 20
367.794
  0
VERTEX
  8
Layer1
 10
649.541
 20
367.813
  0
VERTEX
  8
Layer1
 10
649.592
 20
367.834
  0
VERTEX
  8
Layer1
 10
649.64
 20
367.856
  0
VERTEX
  8
Layer1
 10
649.685
 20
367.88
  0
VERTEX
  8
Layer1
 10
649.726
 20
367.905
  0
VERTEX
  8
Layer1
 10
649.764
 20
367.932
  0
VERTEX
  8
Layer1
 10
649.798
 20
367.96
  0
VERTEX
  8
Layer1
 10
649.83
 20
367.989
  0
VERTEX
  8
Layer1
 10
649.856
 20
368.018
  0
VERTEX
  8
Layer1
 10
649.88
 20
368.049
  0
VERTEX
  8
Layer1
 10
649.899
 20
368.08
  0
VERTEX
  8
Layer1
 10
649.914
 20
368.112
  0
VERTEX
  8
Layer1
 10
649.923
 20
368.144
  0
VERTEX
  8
Layer1
 10
649.93
 20
368.177
  0
VERTEX
  8
Layer1
 10
649.933
 20
368.21
  0
SEQEND
  0
POLYLINE
  8
Layer1
  6
CONTINUOUS
 62
7
 66
1
 10
0
 20
0
 30
0
  0
VERTEX
  8
Layer1
 10
649.935
 20
350.232
  0
VERTEX
  8
Layer1
 10
649.933
 20
350.264
  0
VERTEX
  8
Layer1
 10
649.927
 20
350.297
  0
VERTEX
  8
Layer1
 10
649.916
 20
350.329
  0
VERTEX
  8
Layer1
 10
649.9
 20
350.361
  0
VERTEX
  8
Layer1
 10
649.881
 20
350.392
  0
VERTEX
  8
Layer1
 10
649.859
 20
350.423
  0
VERTEX
  8
Layer1
 10
649.832
 20
350.453
  0
VERTEX
  8
Layer1
 10
649.802
 20
350.482
  0
VERTEX
  8
Layer1
 10
649.766
 20
350.509
  0
VERTEX
  8
Layer1
 10
649.728
 20
350.536
  0
VERTEX
  8
Layer1
 10
649.687
 20
350.561
  0
VERTEX
  8
Layer1
 10
649.642
 20
350.585
  0
VERTEX
  8
Layer1
 10
649.594
 20
350.608
  0
VERTEX
  8
Layer1
 10
649.543
 20
350.628
  0
VERTEX
  8
Layer1
 10
649.491
 20
350.647
  0
VERTEX
  8
Layer1
 10
649.435
 20
350.665
  0
VERTEX
  8
Layer1
 10
649.378
 20
350.68
  0
VERTEX
  8
Layer1
 10
649.318
 20
350.694
  0
VERTEX
  8
Layer1
 10
649.256
 20
350.705
  0
VERTEX
  8
Layer1
 10
649.193
 20
350.715
  0
VERTEX
  8
Layer1
 10
649.13
 20
350.722
  0
VERTEX
  8
Layer1
 10
649.065
 20
350.727
  0
VERTEX
  8
Layer1
 10
649
 20
350.731
  0
VERTEX
  8
Layer1
 10
648.935
 20
350.732
  0
VERTEX
  8
Layer1
 10
648.87
 20
350.731
  0
VERTEX
  8
Layer1
 10
648.804
 20
350.727
  0
VERTEX
  8
Layer1
 10
648.739
 20
350.722
  0
VERTEX
  8
Layer1
 10
648.677
 20
350.715
  0
VERTEX
  8
Layer1
 10
648.613
 20
350.705
  0
VERTEX
  8
Layer1
 10
648.553
 20
350.694
  0
VERTEX
  8
Layer1
 10
648.493
 20
350.68
  0
VERTEX
  8
Layer1
 10
648.435
 20
350.665
  0
VERTEX
  8
Layer1
 10
648.38
 20
350.647
  0
VERTEX
  8
Layer1
 10
648.327
 20
350.628
  0
VERTEX
  8
Layer1
 10
648.275
 20
350.608
  0
VERTEX
  8
Layer1
 10
648.227
 20
350.585
  0
VERTEX
  8
Layer1
 10
648.183
 20
350.561
  0
VERTEX
  8
Layer1
 10
648.141
 20
350.536
  0
VERTEX
  8
Layer1
 10
648.103
 20
350.509
  0
VERTEX
  8
Layer1
 10
648.068
 20
350.482
  0
VERTEX
  8
Layer1
 10
648.039
 20
350.453
  0
VERTEX
  8
Layer1
 10
648.012
 20
350.423
  0
VERTEX
  8
Layer1
 10
647.988
 20
350.392
  0
VERTEX
  8
Layer1
 10
647.969
 20
350.361
  0
VERTEX
  8
Layer1
 10
647.955
 20
350.329
  0
VERTEX
  8
Layer1
 10
647.943
 20
350.297
  0
VERTEX
  8
Layer1
 10
647.938
 20
350.264
  0
VERTEX
  8
Layer1
 10
647.935
 20
350.232
  0
SEQEND
  0
LINE
  8
Layer1
  6
CONTINUOUS
 62
7
 10
649.935
 20
368.232
 11
676.241
 21
368.232
  0
LINE
  8
Layer1
  6
CONTINUOUS
 62
7
 10
649.935
 20
350.232
 11
688.85
 21
350.232
  0
LINE
  8
Layer1
  6
CONTINUOUS
 62
7
 10
697.793
 20
336.232
 11
730.168
 21
336.232
  0
LINE
  8
Layer1
  6
CONTINUOUS
 62
7
 10
693.736
 20
416.232
 11
730.168
 21
416.232
  0
POLYLINE
  8
Layer1
  6
CONTINUOUS
 62
7
 66
1
 10
0
 20
0
 30
0
  0
VERTEX
  8
Layer1
 10
729.168
 20
336.232
  0
VERTEX
  8
Layer1
 10
729.168
 20
416.09
  0
SEQEND
  0
POLYLINE
  8
Layer1
  6
CONTINUOUS
 62
7
 66
1
 10
0
 20
0
 30
0
 70
1
  0
VERTEX
  8
Layer1
 10
730.203
 20
340.095
  0
VERTEX
  8
Layer1
 10
729.168
 20
336.232
  0
VERTEX
  8
Layer1
 10
728.132
 20
340.095
  0
SEQEND
  0
POLYLINE
  8
Layer1
  6
CONTINUOUS
 62
7
 66
1
 10
0
 20
0
 30
0
 70
1
  0
VERTEX
  8
Layer1
 10
728.132
 20
412.226
  0
VERTEX
  8
Layer1
 10
729.168
 20
416.09
  0
VERTEX
  8
Layer1
 10
730.203
 20
412.226
  0
SEQEND
  0
LINE
  8
Layer1
  6
CONTINUOUS
 62
7
 10
693.736
 20
404.232
 11
721.673
 21
404.232
  0
LINE
  8
Layer1
  6
CONTINUOUS
 62
7
 10
694.717
 20
336.232
 11
721.673
 21
336.232
  0
POLYLINE
  8
Layer1
  6
CONTINUOUS
 62
7
 66
1
 10
0
 20
0
 30
0
  0
VERTEX
  8
Layer1
 10
720.673
 20
404.409
  0
VERTEX
  8
Layer1
 10
720.673
 20
336.232
  0
SEQEND
  0
POLYLINE
  8
Layer1
  6
CONTINUOUS
 62
7
 66
1
 10
0
 20
0
 30
0
 70
1
  0
VERTEX
  8
Layer1
 10
719.638
 20
400.546
  0
VERTEX
  8
Layer1
 10
720.673
 20
404.409
  0
VERTEX
  8
Layer1
 10
721.708
 20
400.546
  0
SEQEND
  0
POLYLINE
  8
Layer1
  6
CONTINUOUS
 62
7
 66
1
 10
0
 20
0
 30
0
 70
1
  0
VERTEX
  8
Layer1
 10
721.708
 20
340.095
  0
VERTEX
  8
Layer1
 10
720.673
 20
336.232
  0
VERTEX
  8
Layer1
 10
719.638
 20
340.095
  0
SEQEND
  0
LINE
  8
Layer1
  6
CONTINUOUS
 62
7
 10
586.667
 20
357.208
 11
586.667
 21
325.577
  0
LINE
  8
Layer1
  6
CONTINUOUS
 62
7
 10
596.655
 20
357.115
 11
596.655
 21
325.332
  0
POLYLINE
  8
Layer1
  6
CONTINUOUS
 62
7
 66
1
 10
0
 20
0
 30
0
  0
VERTEX
  8
Layer1
 10
580.667
 20
326.491
  0
VERTEX
  8
Layer1
 10
586.667
 20
326.491
  0
SEQEND
  0
POLYLINE
  8
Layer1
  6
CONTINUOUS
 62
7
 66
1
 10
0
 20
0
 30
0
 70
1
  0
VERTEX
  8
Layer1
 10
582.803
 20
327.527
  0
VERTEX
  8
Layer1
 10
586.667
 20
326.491
  0
VERTEX
  8
Layer1
 10
582.803
 20
325.456
  0
SEQEND
  0
LINE
  8
Layer1
  6
CONTINUOUS
 62
7
 10
586.667
 20
326.491
 11
596.655
 21
326.491
  0
LINE
  8
Layer1
  6
CONTINUOUS
 62
7
 10
621.673
 20
350.687
 11
621.673
 21
325.491
  0
POLYLINE
  8
Layer1
  6
CONTINUOUS
 62
7
 66
1
 10
0
 20
0
 30
0
  0
VERTEX
  8
Layer1
 10
621.673
 20
326.491
  0
VERTEX
  8
Layer1
 10
596.655
 20
326.491
  0
SEQEND
  0
POLYLINE
  8
Layer1
  6
CONTINUOUS
 62
7
 66
1
 10
0
 20
0
 30
0
 70
1
  0
VERTEX
  8
Layer1
 10
617.808
 20
327.527
  0
VERTEX
  8
Layer1
 10
621.673
 20
326.491
  0
VERTEX
  8
Layer1
 10
617.808
 20
325.456
  0
SEQEND
  0
POLYLINE
  8
Layer1
  6
CONTINUOUS
 62
7
 66
1
 10
0
 20
0
 30
0
 70
1
  0
VERTEX
  8
Layer1
 10
600.519
 20
325.456
  0
VERTEX
  8
Layer1
 10
596.655
 20
326.491
  0
VERTEX
  8
Layer1
 10
600.519
 20
327.527
  0
SEQEND
  0
LINE
  8
Layer1
  6
CONTINUOUS
 62
7
 10
632.236
 20
336.232
 11
632.236
 21
325.491
  0
POLYLINE
  8
Layer1
  6
CONTINUOUS
 62
7
 66
1
 10
0
 20
0
 30
0
  0
VERTEX
  8
Layer1
 10
640.236
 20
326.491
  0
VERTEX
  8
Layer1
 10
632.236
 20
326.491
  0
SEQEND
  0
POLYLINE
  8
Layer1
  6
CONTINUOUS
 62
7
 66
1
 10
0
 20
0
 30
0
 70
1
  0
VERTEX
  8
Layer1
 10
636.1
 20
325.456
  0
VERTEX
  8
Layer1
 10
632.236
 20
326.491
  0
VERTEX
  8
Layer1
 10
636.1
 20
327.527
  0
SEQEND
  0
POLYLINE
  8
Layer1
  6
CONTINUOUS
 62
7
 66
1
 10
0
 20
0
 30
0
  0
VERTEX
  8
Layer1
 10
613.673
 20
326.491
  0
VERTEX
  8
Layer1
 10
621.673
 20
326.491
  0
SEQEND
  0
POLYLINE
  8
Layer1
  6
CONTINUOUS
 62
7
 66
1
 10
0
 20
0
 30
0
 70
1
  0
VERTEX
  8
Layer1
 10
617.808
 20
327.527
  0
VERTEX
  8
Layer1
 10
621.673
 20
326.491
  0
VERTEX
  8
Layer1
 10
617.808
 20
325.456
  0
SEQEND
  0
LINE
  8
Layer1
  6
CONTINUOUS
 62
7
 10
632.236
 20
326.491
 11
621.673
 21
326.491
  0
LINE
  8
Layer1
  6
CONTINUOUS
 62
7
 10
632.236
 20
336.232
 11
632.236
 21
325.491
  0
LINE
  8
Layer1
  6
CONTINUOUS
 62
7
 10
694.717
 20
336.232
 11
698.236
 21
336.232
  0
LINE
  8
Layer1
  6
CONTINUOUS
 62
7
 10
596.667
 20
361.187
 11
596.667
 21
386.174
  0
LINE
  8
Layer1
  6
CONTINUOUS
 62
7
 10
636.666
 20
359.085
 11
636.666
 21
385.436
  0
POLYLINE
  8
Layer1
  6
CONTINUOUS
 62
7
 66
1
 10
0
 20
0
 30
0
  0
VERTEX
  8
Layer1
 10
596.667
 20
384.538
  0
VERTEX
  8
Layer1
 10
636.666
 20
384.538
  0
SEQEND
  0
POLYLINE
  8
Layer1
  6
CONTINUOUS
 62
7
 66
1
 10
0
 20
0
 30
0
 70
1
  0
VERTEX
  8
Layer1
 10
600.529
 20
383.503
  0
VERTEX
  8
Layer1
 10
596.667
 20
384.538
  0
VERTEX
  8
Layer1
 10
600.529
 20
385.574
  0
SEQEND
  0
POLYLINE
  8
Layer1
  6
CONTINUOUS
 62
7
 66
1
 10
0
 20
0
 30
0
 70
1
  0
VERTEX
  8
Layer1
 10
632.803
 20
385.574
  0
VERTEX
  8
Layer1
 10
636.666
 20
384.538
  0
VERTEX
  8
Layer1
 10
632.803
 20
383.503
  0
SEQEND
  0
LINE
  8
Layer1
  6
CONTINUOUS
 62
7
 10
612.296
 20
363.232
 11
624.751
 21
363.232
  0
LINE
  8
Layer1
  6
CONTINUOUS
 62
7
 10
628.751
 20
363.232
 11
636.666
 21
363.232
  0
ARC
  8
Layer1
  6
CONTINUOUS
 62
7
 10
606.328
 20
371.256
 40
10
 50
270
 51
306.64
  0
TEXT
  8
Layer1
 62
7
 10
732.707
 20
358.582
 73
3
 11
732.707
 21
358.582
 40
4
 41
1
 50
90
  1
(オープンハイト）
  0
TEXT
  8
Layer1
 62
7
 10
565.173
 20
385.482
 73
3
 11
565.173
 21
385.482
 40
4
 41
1
 50
2e-013
  1
(ウレタン）
  0
POLYLINE
  8
Layer1
  6
CONTINUOUS
 62
7
 66
1
 10
0
 20
0
 30
0
  0
VERTEX
  8
Layer1
 10
602.456
 20
365.189
  0
VERTEX
  8
Layer1
 10
589.241
 20
386.898
  0
VERTEX
  8
Layer1
 10
589.241
 20
386.898
  0
SEQEND
  0
CIRCLE
  8
Layer1
  6
CONTINUOUS
 62
7
 10
602.456
 20
365.189
 40
1
  0
LINE
  8
Layer1
  6
CONTINUOUS
 62
7
 10
589.241
 20
386.898
 11
565.241
 21
386.898
  0
TEXT
  8
Layer1
 62
7
 10
565.241
 20
387.898
 40
4
 41
1
  1
ストリッパー
  0
TEXT
  8
Layer1
 62
7
 10
578.135
 20
323.113
 73
3
 11
578.135
 21
323.113
 40
4
 41
1
  1
10ストローク
  0
TEXT
  8
Layer1
 62
7
 10
720.673
 20
357.167
 73
3
 11
720.673
 21
357.167
 40
4
 41
1
 50
90
  1
(シャットハイト）
  0
LINE
  8
Layer1
  6
CONTINUOUS
 62
7
 10
639.018
 20
337.545
 11
640.523
 21
337.545
  0
LINE
  8
Layer1
  6
CONTINUOUS
 62
7
 10
657.568
 20
348.545
 11
656.063
 21
348.545
  0
LINE
  8
Layer1
  6
CONTINUOUS
 62
7
 10
654.56
 20
348.545
 11
653.055
 21
348.545
  0
LINE
  8
Layer1
  6
CONTINUOUS
 62
7
 10
651.552
 20
348.545
 11
650.048
 21
348.545
  0
LINE
  8
Layer1
  6
CONTINUOUS
 62
7
 10
648.543
 20
348.545
 11
647.039
 21
348.545
  0
LINE
  8
Layer1
  6
CONTINUOUS
 62
7
 10
639.52
 20
348.545
 11
638.016
 21
348.545
  0
LINE
  8
Layer1
  6
CONTINUOUS
 62
7
 10
638.016
 20
345.799
 11
639.52
 21
345.799
  0
LINE
  8
Layer1
  6
CONTINUOUS
 62
7
 10
639.018
 20
340.306
 11
640.523
 21
340.306
  0
LINE
  8
Layer1
  6
CONTINUOUS
 62
7
 10
639.52
 20
348.545
 11
639.52
 21
345.799
  0
LINE
  8
Layer1
  6
CONTINUOUS
 62
7
 10
638.016
 20
348.545
 11
638.016
 21
345.799
  0
LINE
  8
Layer1
  6
CONTINUOUS
 62
7
 10
639.018
 20
340.306
 11
639.018
 21
337.545
  0
LINE
  8
Layer1
  6
CONTINUOUS
 62
7
 10
640.523
 20
340.306
 11
640.523
 21
337.545
  0
LINE
  8
Layer1
  6
CONTINUOUS
 62
7
 10
638.016
 20
345.799
 11
639.018
 21
340.306
  0
LINE
  8
Layer1
  6
CONTINUOUS
 62
7
 10
639.52
 20
345.799
 11
640.523
 21
340.306
  0
LINE
  8
Layer1
  6
CONTINUOUS
 62
7
 10
638.517
 20
343.052
 11
639.018
 21
337.545
  0
LINE
  8
Layer1
  6
CONTINUOUS
 62
7
 10
639.645
 20
348.545
 11
640.022
 21
343.052
  0
LINE
  8
Layer1
  6
CONTINUOUS
 62
7
 10
642.026
 20
337.545
 11
643.53
 21
337.545
  0
LINE
  8
Layer1
  6
CONTINUOUS
 62
7
 10
642.527
 20
348.545
 11
641.024
 21
348.545
  0
LINE
  8
Layer1
  6
CONTINUOUS
 62
7
 10
641.024
 20
345.799
 11
642.527
 21
345.799
  0
LINE
  8
Layer1
  6
CONTINUOUS
 62
7
 10
642.026
 20
340.306
 11
643.53
 21
340.306
  0
LINE
  8
Layer1
  6
CONTINUOUS
 62
7
 10
642.527
 20
348.545
 11
642.527
 21
345.799
  0
LINE
  8
Layer1
  6
CONTINUOUS
 62
7
 10
641.024
 20
348.545
 11
641.024
 21
345.799
  0
LINE
  8
Layer1
  6
CONTINUOUS
 62
7
 10
642.026
 20
340.306
 11
642.026
 21
337.545
  0
LINE
  8
Layer1
  6
CONTINUOUS
 62
7
 10
643.53
 20
340.306
 11
643.53
 21
337.545
  0
LINE
  8
Layer1
  6
CONTINUOUS
 62
7
 10
641.024
 20
345.799
 11
642.026
 21
340.306
  0
LINE
  8
Layer1
  6
CONTINUOUS
 62
7
 10
642.527
 20
345.799
 11
643.53
 21
340.306
  0
LINE
  8
Layer1
  6
CONTINUOUS
 62
7
 10
641.525
 20
343.052
 11
642.026
 21
337.545
  0
LINE
  8
Layer1
  6
CONTINUOUS
 62
7
 10
642.654
 20
348.545
 11
643.029
 21
343.052
  0
LINE
  8
Layer1
  6
CONTINUOUS
 62
7
 10
645.034
 20
337.545
 11
646.539
 21
337.545
  0
LINE
  8
Layer1
  6
CONTINUOUS
 62
7
 10
645.535
 20
348.545
 11
644.032
 21
348.545
  0
LINE
  8
Layer1
  6
CONTINUOUS
 62
7
 10
644.032
 20
345.799
 11
645.535
 21
345.799
  0
LINE
  8
Layer1
  6
CONTINUOUS
 62
7
 10
645.034
 20
340.306
 11
646.539
 21
340.306
  0
LINE
  8
Layer1
  6
CONTINUOUS
 62
7
 10
645.535
 20
348.545
 11
645.535
 21
345.799
  0
LINE
  8
Layer1
  6
CONTINUOUS
 62
7
 10
644.032
 20
348.545
 11
644.032
 21
345.799
  0
LINE
  8
Layer1
  6
CONTINUOUS
 62
7
 10
645.034
 20
340.306
 11
645.034
 21
337.545
  0
LINE
  8
Layer1
  6
CONTINUOUS
 62
7
 10
646.539
 20
340.306
 11
646.539
 21
337.545
  0
LINE
  8
Layer1
  6
CONTINUOUS
 62
7
 10
644.032
 20
345.799
 11
645.034
 21
340.306
  0
LINE
  8
Layer1
  6
CONTINUOUS
 62
7
 10
645.535
 20
345.799
 11
646.539
 21
340.306
  0
LINE
  8
Layer1
  6
CONTINUOUS
 62
7
 10
644.534
 20
343.052
 11
645.034
 21
337.545
  0
LINE
  8
Layer1
  6
CONTINUOUS
 62
7
 10
645.661
 20
348.545
 11
646.037
 21
343.052
  0
LINE
  8
Layer1
  6
CONTINUOUS
 62
7
 10
648.043
 20
337.545
 11
649.546
 21
337.545
  0
LINE
  8
Layer1
  6
CONTINUOUS
 62
7
 10
648.543
 20
348.545
 11
647.039
 21
348.545
  0
LINE
  8
Layer1
  6
CONTINUOUS
 62
7
 10
647.039
 20
345.799
 11
648.543
 21
345.799
  0
LINE
  8
Layer1
  6
CONTINUOUS
 62
7
 10
648.043
 20
340.306
 11
649.546
 21
340.306
  0
LINE
  8
Layer1
  6
CONTINUOUS
 62
7
 10
648.543
 20
348.545
 11
648.543
 21
345.799
  0
LINE
  8
Layer1
  6
CONTINUOUS
 62
7
 10
647.039
 20
348.545
 11
647.039
 21
345.799
  0
LINE
  8
Layer1
  6
CONTINUOUS
 62
7
 10
648.043
 20
340.306
 11
648.043
 21
337.545
  0
LINE
  8
Layer1
  6
CONTINUOUS
 62
7
 10
649.546
 20
340.306
 11
649.546
 21
337.545
  0
LINE
  8
Layer1
  6
CONTINUOUS
 62
7
 10
647.039
 20
345.799
 11
648.043
 21
340.306
  0
LINE
  8
Layer1
  6
CONTINUOUS
 62
7
 10
648.543
 20
345.799
 11
649.546
 21
340.306
  0
LINE
  8
Layer1
  6
CONTINUOUS
 62
7
 10
647.541
 20
343.052
 11
648.043
 21
337.545
  0
LINE
  8
Layer1
  6
CONTINUOUS
 62
7
 10
648.668
 20
348.545
 11
649.044
 21
343.052
  0
LINE
  8
Layer1
  6
CONTINUOUS
 62
7
 10
651.051
 20
337.545
 11
652.554
 21
337.545
  0
LINE
  8
Layer1
  6
CONTINUOUS
 62
7
 10
651.552
 20
348.545
 11
650.048
 21
348.545
  0
LINE
  8
Layer1
  6
CONTINUOUS
 62
7
 10
650.048
 20
345.799
 11
651.552
 21
345.799
  0
LINE
  8
Layer1
  6
CONTINUOUS
 62
7
 10
651.051
 20
340.306
 11
652.554
 21
340.306
  0
LINE
  8
Layer1
  6
CONTINUOUS
 62
7
 10
651.552
 20
348.545
 11
651.552
 21
345.799
  0
LINE
  8
Layer1
  6
CONTINUOUS
 62
7
 10
650.048
 20
348.545
 11
650.048
 21
345.799
  0
LINE
  8
Layer1
  6
CONTINUOUS
 62
7
 10
651.051
 20
340.306
 11
651.051
 21
337.545
  0
LINE
  8
Layer1
  6
CONTINUOUS
 62
7
 10
652.554
 20
340.306
 11
652.554
 21
337.545
  0
LINE
  8
Layer1
  6
CONTINUOUS
 62
7
 10
650.048
 20
345.799
 11
651.051
 21
340.306
  0
LINE
  8
Layer1
  6
CONTINUOUS
 62
7
 10
651.552
 20
345.799
 11
652.554
 21
340.306
  0
LINE
  8
Layer1
  6
CONTINUOUS
 62
7
 10
650.548
 20
343.052
 11
651.051
 21
337.545
  0
LINE
  8
Layer1
  6
CONTINUOUS
 62
7
 10
651.677
 20
348.545
 11
652.053
 21
343.052
  0
LINE
  8
Layer1
  6
CONTINUOUS
 62
7
 10
654.058
 20
337.545
 11
655.562
 21
337.545
  0
LINE
  8
Layer1
  6
CONTINUOUS
 62
7
 10
654.56
 20
348.545
 11
653.055
 21
348.545
  0
LINE
  8
Layer1
  6
CONTINUOUS
 62
7
 10
653.055
 20
345.799
 11
654.56
 21
345.799
  0
LINE
  8
Layer1
  6
CONTINUOUS
 62
7
 10
654.058
 20
340.306
 11
655.562
 21
340.306
  0
LINE
  8
Layer1
  6
CONTINUOUS
 62
7
 10
654.56
 20
348.545
 11
654.56
 21
345.799
  0
LINE
  8
Layer1
  6
CONTINUOUS
 62
7
 10
653.055
 20
348.545
 11
653.055
 21
345.799
  0
LINE
  8
Layer1
  6
CONTINUOUS
 62
7
 10
654.058
 20
340.306
 11
654.058
 21
337.545
  0
LINE
  8
Layer1
  6
CONTINUOUS
 62
7
 10
655.562
 20
340.306
 11
655.562
 21
337.545
  0
LINE
  8
Layer1
  6
CONTINUOUS
 62
7
 10
653.055
 20
345.799
 11
654.058
 21
340.306
  0
LINE
  8
Layer1
  6
CONTINUOUS
 62
7
 10
654.56
 20
345.799
 11
655.562
 21
340.306
  0
LINE
  8
Layer1
  6
CONTINUOUS
 62
7
 10
653.556
 20
343.052
 11
654.058
 21
337.545
  0
LINE
  8
Layer1
  6
CONTINUOUS
 62
7
 10
654.685
 20
348.545
 11
655.061
 21
343.052
  0
LINE
  8
Layer1
  6
CONTINUOUS
 62
7
 10
657.065
 20
337.545
 11
658.57
 21
337.545
  0
LINE
  8
Layer1
  6
PHANTOM1
 62
7
 10
672.104
 20
337.545
 11
673.609
 21
337.545
  0
LINE
  8
Layer1
  6
PHANTOM1
 62
7
 10
671.102
 20
345.799
 11
672.606
 21
345.799
  0
LINE
  8
Layer1
  6
PHANTOM1
 62
7
 10
672.104
 20
340.306
 11
673.609
 21
340.306
  0
LINE
  8
Layer1
  6
PHANTOM1
 62
7
 10
672.606
 20
348.545
 11
672.606
 21
345.799
  0
LINE
  8
Layer1
  6
PHANTOM1
 62
7
 10
671.102
 20
348.545
 11
671.102
 21
345.799
  0
LINE
  8
Layer1
  6
PHANTOM1
 62
7
 10
672.104
 20
340.306
 11
672.104
 21
337.545
  0
LINE
  8
Layer1
  6
PHANTOM1
 62
7
 10
673.609
 20
340.306
 11
673.609
 21
337.545
  0
LINE
  8
Layer1
  6
PHANTOM1
 62
7
 10
671.102
 20
345.799
 11
672.104
 21
340.306
  0
LINE
  8
Layer1
  6
PHANTOM1
 62
7
 10
672.606
 20
345.799
 11
673.609
 21
340.306
  0
LINE
  8
Layer1
  6
PHANTOM1
 62
7
 10
671.603
 20
343.052
 11
672.104
 21
337.545
  0
LINE
  8
Layer1
  6
PHANTOM1
 62
7
 10
672.731
 20
348.545
 11
673.107
 21
343.052
  0
LINE
  8
Layer1
  6
PHANTOM1
 62
7
 10
675.112
 20
337.545
 11
676.616
 21
337.545
  0
LINE
  8
Layer1
  6
PHANTOM1
 62
7
 10
675.614
 20
348.545
 11
674.111
 21
348.545
  0
LINE
  8
Layer1
  6
PHANTOM1
 62
7
 10
674.111
 20
345.799
 11
675.614
 21
345.799
  0
LINE
  8
Layer1
  6
PHANTOM1
 62
7
 10
675.112
 20
340.306
 11
676.616
 21
340.306
  0
LINE
  8
Layer1
  6
PHANTOM1
 62
7
 10
675.614
 20
348.545
 11
675.614
 21
345.799
  0
LINE
  8
Layer1
  6
PHANTOM1
 62
7
 10
674.111
 20
348.545
 11
674.111
 21
345.799
  0
LINE
  8
Layer1
  6
PHANTOM1
 62
7
 10
675.112
 20
340.306
 11
675.112
 21
337.545
  0
LINE
  8
Layer1
  6
PHANTOM1
 62
7
 10
676.616
 20
340.306
 11
676.616
 21
337.545
  0
LINE
  8
Layer1
  6
PHANTOM1
 62
7
 10
674.111
 20
345.799
 11
675.112
 21
340.306
  0
LINE
  8
Layer1
  6
PHANTOM1
 62
7
 10
675.614
 20
345.799
 11
676.616
 21
340.306
  0
LINE
  8
Layer1
  6
PHANTOM1
 62
7
 10
674.611
 20
343.052
 11
675.112
 21
337.545
  0
LINE
  8
Layer1
  6
PHANTOM1
 62
7
 10
675.739
 20
348.545
 11
676.116
 21
343.052
  0
LINE
  8
Layer1
  6
PHANTOM1
 62
7
 10
678.12
 20
337.545
 11
679.625
 21
337.545
  0
LINE
  8
Layer1
  6
PHANTOM1
 62
7
 10
678.621
 20
348.545
 11
677.119
 21
348.545
  0
LINE
  8
Layer1
  6
PHANTOM1
 62
7
 10
677.119
 20
345.799
 11
678.621
 21
345.799
  0
LINE
  8
Layer1
  6
PHANTOM1
 62
7
 10
678.12
 20
340.306
 11
679.625
 21
340.306
  0
LINE
  8
Layer1
  6
PHANTOM1
 62
7
 10
678.621
 20
348.545
 11
678.621
 21
345.799
  0
LINE
  8
Layer1
  6
PHANTOM1
 62
7
 10
677.119
 20
348.545
 11
677.119
 21
345.799
  0
LINE
  8
Layer1
  6
PHANTOM1
 62
7
 10
678.12
 20
340.306
 11
678.12
 21
337.545
  0
LINE
  8
Layer1
  6
PHANTOM1
 62
7
 10
679.625
 20
340.306
 11
679.625
 21
337.545
  0
LINE
  8
Layer1
  6
PHANTOM1
 62
7
 10
677.119
 20
345.799
 11
678.12
 21
340.306
  0
LINE
  8
Layer1
  6
PHANTOM1
 62
7
 10
678.621
 20
345.799
 11
679.625
 21
340.306
  0
LINE
  8
Layer1
  6
PHANTOM1
 62
7
 10
677.62
 20
343.052
 11
678.12
 21
337.545
  0
LINE
  8
Layer1
  6
PHANTOM1
 62
7
 10
678.747
 20
348.545
 11
679.123
 21
343.052
  0
LINE
  8
Layer1
  6
PHANTOM1
 62
7
 10
672.606
 20
348.545
 11
671.102
 21
348.545
  0
LINE
  8
Layer1
  6
PHANTOM1
 62
7
 10
669.599
 20
348.545
 11
668.094
 21
348.545
  0
LINE
  8
Layer1
  6
CONTINUOUS
 62
7
 10
666.591
 20
348.545
 11
665.087
 21
348.545
  0
LINE
  8
Layer1
  6
CONTINUOUS
 62
7
 10
657.568
 20
348.545
 11
656.063
 21
348.545
  0
LINE
  8
Layer1
  6
CONTINUOUS
 62
7
 10
656.063
 20
345.799
 11
657.568
 21
345.799
  0
LINE
  8
Layer1
  6
CONTINUOUS
 62
7
 10
657.065
 20
340.306
 11
658.57
 21
340.306
  0
LINE
  8
Layer1
  6
CONTINUOUS
 62
7
 10
657.568
 20
348.545
 11
657.568
 21
345.799
  0
LINE
  8
Layer1
  6
CONTINUOUS
 62
7
 10
656.063
 20
348.545
 11
656.063
 21
345.799
  0
LINE
  8
Layer1
  6
CONTINUOUS
 62
7
 10
657.065
 20
340.306
 11
657.065
 21
337.545
  0
LINE
  8
Layer1
  6
CONTINUOUS
 62
7
 10
658.57
 20
340.306
 11
658.57
 21
337.545
  0
LINE
  8
Layer1
  6
CONTINUOUS
 62
7
 10
656.063
 20
345.799
 11
657.065
 21
340.306
  0
LINE
  8
Layer1
  6
CONTINUOUS
 62
7
 10
657.568
 20
345.799
 11
658.57
 21
340.306
  0
LINE
  8
Layer1
  6
CONTINUOUS
 62
7
 10
656.564
 20
343.052
 11
657.065
 21
337.545
  0
LINE
  8
Layer1
  6
CONTINUOUS
 62
7
 10
657.693
 20
348.545
 11
658.068
 21
343.052
  0
LINE
  8
Layer1
  6
CONTINUOUS
 62
7
 10
660.073
 20
337.545
 11
661.577
 21
337.545
  0
LINE
  8
Layer1
  6
CONTINUOUS
 62
7
 10
660.574
 20
348.545
 11
659.071
 21
348.545
  0
LINE
  8
Layer1
  6
CONTINUOUS
 62
7
 10
659.071
 20
345.799
 11
660.574
 21
345.799
  0
LINE
  8
Layer1
  6
CONTINUOUS
 62
7
 10
660.073
 20
340.306
 11
661.577
 21
340.306
  0
LINE
  8
Layer1
  6
CONTINUOUS
 62
7
 10
660.574
 20
348.545
 11
660.574
 21
345.799
  0
LINE
  8
Layer1
  6
CONTINUOUS
 62
7
 10
659.071
 20
348.545
 11
659.071
 21
345.799
  0
LINE
  8
Layer1
  6
CONTINUOUS
 62
7
 10
660.073
 20
340.306
 11
660.073
 21
337.545
  0
LINE
  8
Layer1
  6
CONTINUOUS
 62
7
 10
661.577
 20
340.306
 11
661.577
 21
337.545
  0
LINE
  8
Layer1
  6
CONTINUOUS
 62
7
 10
659.071
 20
345.799
 11
660.073
 21
340.306
  0
LINE
  8
Layer1
  6
CONTINUOUS
 62
7
 10
660.574
 20
345.799
 11
661.577
 21
340.306
  0
LINE
  8
Layer1
  6
CONTINUOUS
 62
7
 10
659.572
 20
343.052
 11
660.073
 21
337.545
  0
LINE
  8
Layer1
  6
CONTINUOUS
 62
7
 10
660.7
 20
348.545
 11
661.077
 21
343.052
  0
LINE
  8
Layer1
  6
CONTINUOUS
 62
7
 10
663.082
 20
337.545
 11
664.585
 21
337.545
  0
LINE
  8
Layer1
  6
CONTINUOUS
 62
7
 10
663.582
 20
348.545
 11
662.078
 21
348.545
  0
LINE
  8
Layer1
  6
CONTINUOUS
 62
7
 10
662.078
 20
345.799
 11
663.582
 21
345.799
  0
LINE
  8
Layer1
  6
CONTINUOUS
 62
7
 10
663.082
 20
340.306
 11
664.585
 21
340.306
  0
LINE
  8
Layer1
  6
CONTINUOUS
 62
7
 10
663.582
 20
348.545
 11
663.582
 21
345.799
  0
LINE
  8
Layer1
  6
CONTINUOUS
 62
7
 10
662.078
 20
348.545
 11
662.078
 21
345.799
  0
LINE
  8
Layer1
  6
CONTINUOUS
 62
7
 10
663.082
 20
340.306
 11
663.082
 21
337.545
  0
LINE
  8
Layer1
  6
CONTINUOUS
 62
7
 10
664.585
 20
340.306
 11
664.585
 21
337.545
  0
LINE
  8
Layer1
  6
CONTINUOUS
 62
7
 10
662.078
 20
345.799
 11
663.082
 21
340.306
  0
LINE
  8
Layer1
  6
CONTINUOUS
 62
7
 10
663.582
 20
345.799
 11
664.585
 21
340.306
  0
LINE
  8
Layer1
  6
CONTINUOUS
 62
7
 10
662.581
 20
343.052
 11
663.082
 21
337.545
  0
LINE
  8
Layer1
  6
CONTINUOUS
 62
7
 10
663.708
 20
348.545
 11
664.084
 21
343.052
  0
LINE
  8
Layer1
  6
CONTINUOUS
 62
7
 10
666.09
 20
337.545
 11
667.593
 21
337.545
  0
LINE
  8
Layer1
  6
CONTINUOUS
 62
7
 10
637.89
 20
337.545
 11
638.642
 21
337.545
  0
LINE
  8
Layer1
  6
CONTINUOUS
 62
7
 10
638.642
 20
340.292
 11
637.89
 21
340.292
  0
LINE
  8
Layer1
  6
CONTINUOUS
 62
7
 10
638.642
 20
337.545
 11
638.642
 21
340.292
  0
LINE
  8
Layer1
  6
CONTINUOUS
 62
7
 10
638.642
 20
340.292
 11
638.141
 21
343.038
  0
LINE
  8
Layer1
  6
CONTINUOUS
 62
7
 10
637.89
 20
337.545
 11
637.89
 21
343.038
  0
LINE
  8
Layer1
  6
CONTINUOUS
 62
7
 10
638.141
 20
343.038
 11
637.89
 21
343.038
  0
LINE
  8
Layer1
  6
PHANTOM1
 62
7
 10
683.85
 20
337.545
 11
683.85
 21
340.295
  0
LINE
  8
Layer1
  6
PHANTOM1
 62
7
 10
683.85
 20
343.045
 11
683.85
 21
337.545
  0
LINE
  8
Layer1
  6
PHANTOM1
 62
7
 10
683.85
 20
348.545
 11
682.595
 21
348.545
  0
LINE
  8
Layer1
  6
PHANTOM1
 62
7
 10
683.599
 20
337.545
 11
683.85
 21
337.545
  0
LINE
  8
Layer1
  6
PHANTOM1
 62
7
 10
682.595
 20
345.799
 11
683.85
 21
345.795
  0
LINE
  8
Layer1
  6
PHANTOM1
 62
7
 10
683.599
 20
340.306
 11
683.85
 21
340.295
  0
LINE
  8
Layer1
  6
PHANTOM1
 62
7
 10
682.595
 20
348.545
 11
682.595
 21
345.799
  0
LINE
  8
Layer1
  6
PHANTOM1
 62
7
 10
683.599
 20
340.306
 11
683.599
 21
337.545
  0
LINE
  8
Layer1
  6
PHANTOM1
 62
7
 10
682.595
 20
345.799
 11
683.599
 21
340.306
  0
LINE
  8
Layer1
  6
PHANTOM1
 62
7
 10
683.097
 20
343.052
 11
683.599
 21
337.545
  0
LINE
  8
Layer1
  6
CONTINUOUS
 62
7
 10
666.591
 20
348.545
 11
665.087
 21
348.545
  0
LINE
  8
Layer1
  6
CONTINUOUS
 62
7
 10
665.087
 20
345.799
 11
666.591
 21
345.799
  0
LINE
  8
Layer1
  6
CONTINUOUS
 62
7
 10
666.09
 20
340.306
 11
667.593
 21
340.306
  0
LINE
  8
Layer1
  6
CONTINUOUS
 62
7
 10
666.591
 20
348.545
 11
666.591
 21
345.799
  0
LINE
  8
Layer1
  6
CONTINUOUS
 62
7
 10
665.087
 20
348.545
 11
665.087
 21
345.799
  0
LINE
  8
Layer1
  6
CONTINUOUS
 62
7
 10
666.09
 20
340.306
 11
666.09
 21
337.545
  0
LINE
  8
Layer1
  6
CONTINUOUS
 62
7
 10
667.593
 20
340.306
 11
667.593
 21
337.545
  0
LINE
  8
Layer1
  6
CONTINUOUS
 62
7
 10
665.087
 20
345.799
 11
666.09
 21
340.306
  0
LINE
  8
Layer1
  6
CONTINUOUS
 62
7
 10
666.591
 20
345.799
 11
667.593
 21
340.306
  0
LINE
  8
Layer1
  6
CONTINUOUS
 62
7
 10
665.587
 20
343.052
 11
666.09
 21
337.545
  0
LINE
  8
Layer1
  6
CONTINUOUS
 62
7
 10
666.716
 20
348.545
 11
667.092
 21
343.052
  0
LINE
  8
Layer1
  6
PHANTOM1
 62
7
 10
669.097
 20
337.545
 11
670.601
 21
337.545
  0
LINE
  8
Layer1
  6
PHANTOM1
 62
7
 10
669.599
 20
348.545
 11
668.094
 21
348.545
  0
LINE
  8
Layer1
  6
PHANTOM1
 62
7
 10
668.094
 20
345.799
 11
669.599
 21
345.799
  0
LINE
  8
Layer1
  6
PHANTOM1
 62
7
 10
669.097
 20
340.306
 11
670.601
 21
340.306
  0
LINE
  8
Layer1
  6
PHANTOM1
 62
7
 10
669.599
 20
348.545
 11
669.599
 21
345.799
  0
LINE
  8
Layer1
  6
PHANTOM1
 62
7
 10
668.094
 20
348.545
 11
668.094
 21
345.799
  0
LINE
  8
Layer1
  6
PHANTOM1
 62
7
 10
669.097
 20
340.306
 11
669.097
 21
337.545
  0
LINE
  8
Layer1
  6
PHANTOM1
 62
7
 10
670.601
 20
340.306
 11
670.601
 21
337.545
  0
LINE
  8
Layer1
  6
PHANTOM1
 62
7
 10
668.094
 20
345.799
 11
669.097
 21
340.306
  0
LINE
  8
Layer1
  6
PHANTOM1
 62
7
 10
669.599
 20
345.799
 11
670.601
 21
340.306
  0
LINE
  8
Layer1
  6
PHANTOM1
 62
7
 10
668.595
 20
343.052
 11
669.097
 21
337.545
  0
LINE
  8
Layer1
  6
PHANTOM1
 62
7
 10
669.724
 20
348.545
 11
670.1
 21
343.052
  0
LINE
  8
Layer1
  6
PHANTOM1
 62
7
 10
672.104
 20
337.545
 11
673.609
 21
337.545
  0
LINE
  8
Layer1
  6
PHANTOM1
 62
7
 10
672.606
 20
348.545
 11
671.102
 21
348.545
  0
LINE
  8
Layer1
  6
PHANTOM1
 62
7
 10
671.102
 20
345.799
 11
672.606
 21
345.799
  0
LINE
  8
Layer1
  6
PHANTOM1
 62
7
 10
672.104
 20
340.306
 11
673.609
 21
340.306
  0
LINE
  8
Layer1
  6
PHANTOM1
 62
7
 10
672.606
 20
348.545
 11
672.606
 21
345.799
  0
LINE
  8
Layer1
  6
PHANTOM1
 62
7
 10
671.102
 20
348.545
 11
671.102
 21
345.799
  0
LINE
  8
Layer1
  6
PHANTOM1
 62
7
 10
672.104
 20
340.306
 11
672.104
 21
337.545
  0
LINE
  8
Layer1
  6
PHANTOM1
 62
7
 10
673.609
 20
340.306
 11
673.609
 21
337.545
  0
LINE
  8
Layer1
  6
PHANTOM1
 62
7
 10
671.102
 20
345.799
 11
672.104
 21
340.306
  0
LINE
  8
Layer1
  6
PHANTOM1
 62
7
 10
672.606
 20
345.799
 11
673.609
 21
340.306
  0
LINE
  8
Layer1
  6
PHANTOM1
 62
7
 10
671.603
 20
343.052
 11
672.104
 21
337.545
  0
LINE
  8
Layer1
  6
PHANTOM1
 62
7
 10
672.731
 20
348.545
 11
673.107
 21
343.052
  0
TEXT
  8
Layer1
 62
7
 10
618.871
 20
373.792
 72
1
 11
618.871
 21
373.792
 40
8
 41
1
 50
90
  1
φ8
  0
POLYLINE
  8
Layer1
  6
CONTINUOUS
 62
7
 66
1
 10
0
 20
0
 30
0
  0
VERTEX
  8
Layer1
 10
619.237
 20
379.187
  0
VERTEX
  8
Layer1
 10
619.237
 20
363.187
  0
SEQEND
  0
POLYLINE
  8
Layer1
  6
CONTINUOUS
 62
7
 66
1
 10
0
 20
0
 30
0
 70
1
  0
VERTEX
  8
Layer1
 10
620.273
 20
367.051
  0
VERTEX
  8
Layer1
 10
619.237
 20
363.187
  0
VERTEX
  8
Layer1
 10
618.202
 20
367.051
  0
SEQEND
  0
POLYLINE
  8
Layer1
  6
CONTINUOUS
 62
7
 66
1
 10
0
 20
0
 30
0
  0
VERTEX
  8
Layer1
 10
619.237
 20
348.176
  0
VERTEX
  8
Layer1
 10
619.237
 20
355.139
  0
SEQEND
  0
POLYLINE
  8
Layer1
  6
CONTINUOUS
 62
7
 66
1
 10
0
 20
0
 30
0
 70
1
  0
VERTEX
  8
Layer1
 10
618.202
 20
351.276
  0
VERTEX
  8
Layer1
 10
619.237
 20
355.139
  0
VERTEX
  8
Layer1
 10
620.273
 20
351.276
  0
SEQEND
  0
LINE
  8
Layer1
  6
CONTINUOUS
 62
7
 10
619.237
 20
363.187
 11
619.237
 21
355.139
  0
POLYLINE
  8
Layer1
  6
CONTINUOUS
 62
7
 66
1
 10
0
 20
0
 30
0
  0
VERTEX
  8
Layer1
 10
700.595
 20
354.861
  0
VERTEX
  8
Layer1
 10
710.373
 20
311.86
  0
VERTEX
  8
Layer1
 10
710.373
 20
311.86
  0
SEQEND
  0
CIRCLE
  8
Layer1
  6
CONTINUOUS
 62
7
 10
700.595
 20
354.861
 40
1
  0
CIRCLE
  8
Layer1
  6
CONTINUOUS
 62
7
 10
711.116
 20
308.589
 40
3.3541
  0
TEXT
  8
Layer1
 62
7
 10
711.116
 20
308.589
 72
1
 73
2
 11
711.116
 21
308.589
 40
6
 41
1
  1
4
  0
POLYLINE
  8
Layer1
  6
CONTINUOUS
 62
7
 66
1
 10
0
 20
0
 30
0
  0
VERTEX
  8
Layer1
 10
648.935
 20
382.386
  0
VERTEX
  8
Layer1
 10
632.637
 20
429.262
  0
VERTEX
  8
Layer1
 10
632.637
 20
429.262
  0
SEQEND
  0
CIRCLE
  8
Layer1
  6
CONTINUOUS
 62
7
 10
648.935
 20
382.386
 40
1
  0
CIRCLE
  8
Layer1
  6
CONTINUOUS
 62
7
 10
631.535
 20
432.43
 40
3.3541
  0
TEXT
  8
Layer1
 62
7
 10
631.535
 20
432.43
 72
1
 73
2
 11
631.535
 21
432.43
 40
6
 41
1
  1
8
  0
POLYLINE
  8
Layer1
  6
CONTINUOUS
 62
7
 66
1
 10
0
 20
0
 30
0
  0
VERTEX
  8
Layer1
 10
667.129
 20
408.881
  0
VERTEX
  8
Layer1
 10
648.036
 20
437.286
  0
VERTEX
  8
Layer1
 10
648.036
 20
437.286
  0
SEQEND
  0
CIRCLE
  8
Layer1
  6
CONTINUOUS
 62
7
 10
667.129
 20
408.881
 40
1
  0
CIRCLE
  8
Layer1
  6
CONTINUOUS
 62
7
 10
646.164
 20
440.069
 40
3.3541
  0
TEXT
  8
Layer1
 62
7
 10
646.164
 20
440.069
 72
1
 73
2
 11
646.164
 21
440.069
 40
6
 41
1
  1
3
  0
POLYLINE
  8
Layer1
  6
CONTINUOUS
 62
7
 66
1
 10
0
 20
0
 30
0
  0
VERTEX
  8
Layer1
 10
626.751
 20
371.328
  0
VERTEX
  8
Layer1
 10
603.988
 20
429.559
  0
VERTEX
  8
Layer1
 10
603.988
 20
429.559
  0
SEQEND
  0
CIRCLE
  8
Layer1
  6
CONTINUOUS
 62
7
 10
626.751
 20
371.328
 40
1
  0
CIRCLE
  8
Layer1
  6
CONTINUOUS
 62
7
 10
602.767
 20
432.683
 40
3.3541
  0
TEXT
  8
Layer1
 62
7
 10
602.767
 20
432.683
 72
1
 73
2
 11
602.767
 21
432.683
 40
6
 41
1
  1
5
  0
POLYLINE
  8
Layer1
  6
CONTINUOUS
 62
7
 66
1
 10
0
 20
0
 30
0
  0
VERTEX
  8
Layer1
 10
620.495
 20
360.553
  0
VERTEX
  8
Layer1
 10
591.084
 20
430.518
  0
VERTEX
  8
Layer1
 10
591.084
 20
430.518
  0
SEQEND
  0
CIRCLE
  8
Layer1
  6
CONTINUOUS
 62
7
 10
620.495
 20
360.553
 40
1
  0
CIRCLE
  8
Layer1
  6
CONTINUOUS
 62
7
 10
589.784
 20
433.61
 40
3.3541
  0
TEXT
  8
Layer1
 62
7
 10
589.784
 20
433.61
 72
1
 73
2
 11
589.784
 21
433.61
 40
6
 41
1
  1
9
  0
POLYLINE
  8
Layer1
  6
CONTINUOUS
 62
7
 66
1
 10
0
 20
0
 30
0
  0
VERTEX
  8
Layer1
 10
633.427
 20
343.045
  0
VERTEX
  8
Layer1
 10
612.17
 20
313.538
  0
VERTEX
  8
Layer1
 10
612.17
 20
313.538
  0
SEQEND
  0
CIRCLE
  8
Layer1
  6
CONTINUOUS
 62
7
 10
633.427
 20
343.045
 40
1
  0
CIRCLE
  8
Layer1
  6
CONTINUOUS
 62
7
 10
609.69
 20
310.095
 40
4.24264
  0
TEXT
  8
Layer1
 62
7
 10
609.69
 20
310.095
 72
1
 73
2
 11
609.69
 21
310.095
 40
6
 41
1
  1
10
  0
POLYLINE
  8
Layer1
  6
CONTINUOUS
 62
7
 66
1
 10
0
 20
0
 30
0
  0
VERTEX
  8
Layer1
 10
684.025
 20
345.498
  0
VERTEX
  8
Layer1
 10
694.087
 20
312.697
  0
VERTEX
  8
Layer1
 10
694.087
 20
312.697
  0
SEQEND
  0
CIRCLE
  8
Layer1
  6
CONTINUOUS
 62
7
 10
684.025
 20
345.498
 40
1
  0
CIRCLE
  8
Layer1
  6
CONTINUOUS
 62
7
 10
695.071
 20
309.491
 40
3.3541
  0
TEXT
  8
Layer1
 62
7
 10
695.071
 20
309.491
 72
1
 73
2
 11
695.071
 21
309.491
 40
6
 41
1
  1
6
  0
POLYLINE
  8
Layer1
  6
CONTINUOUS
 62
7
 66
1
 10
0
 20
0
 30
0
  0
VERTEX
  8
Layer1
 10
671.552
 20
343.941
  0
VERTEX
  8
Layer1
 10
682.955
 20
312.382
  0
VERTEX
  8
Layer1
 10
682.955
 20
312.382
  0
SEQEND
  0
CIRCLE
  8
Layer1
  6
CONTINUOUS
 62
7
 10
671.552
 20
343.941
 40
1
  0
CIRCLE
  8
Layer1
  6
CONTINUOUS
 62
7
 10
684.094
 20
309.228
 40
3.3541
  0
TEXT
  8
Layer1
 62
7
 10
684.094
 20
309.228
 72
1
 73
2
 11
684.094
 21
309.228
 40
6
 41
1
  1
7
  0
POLYLINE
  8
Layer1
  6
CONTINUOUS
 62
7
 66
1
 10
0
 20
0
 30
0
  0
VERTEX
  8
Layer1
 10
660.619
 20
355.326
  0
VERTEX
  8
Layer1
 10
638.657
 20
312.428
  0
VERTEX
  8
Layer1
 10
638.657
 20
312.428
  0
SEQEND
  0
CIRCLE
  8
Layer1
  6
CONTINUOUS
 62
7
 10
660.619
 20
355.326
 40
1
  0
CIRCLE
  8
Layer1
  6
CONTINUOUS
 62
7
 10
637.128
 20
309.443
 40
3.3541
  0
TEXT
  8
Layer1
 62
7
 10
637.128
 20
309.443
 72
1
 73
2
 11
637.128
 21
309.443
 40
6
 41
1
  1
2
  0
POLYLINE
  8
Layer1
  6
CONTINUOUS
 62
7
 66
1
 10
0
 20
0
 30
0
  0
VERTEX
  8
Layer1
 10
639.041
 20
335.956
  0
VERTEX
  8
Layer1
 10
626.69
 20
313.139
  0
VERTEX
  8
Layer1
 10
626.69
 20
313.139
  0
SEQEND
  0
CIRCLE
  8
Layer1
  6
CONTINUOUS
 62
7
 10
639.041
 20
335.956
 40
1
  0
CIRCLE
  8
Layer1
  6
CONTINUOUS
 62
7
 10
625.093
 20
310.189
 40
3.3541
  0
TEXT
  8
Layer1
 62
7
 10
625.093
 20
310.189
 72
1
 73
2
 11
625.093
 21
310.189
 40
6
 41
1
  1
1
  0
LINE
  8
Layer1
  6
PHANTOM1
 62
7
 10
681.129
 20
337.545
 11
682.632
 21
337.545
  0
LINE
  8
Layer1
  6
PHANTOM1
 62
7
 10
681.63
 20
348.545
 11
680.125
 21
348.545
  0
LINE
  8
Layer1
  6
PHANTOM1
 62
7
 10
680.125
 20
345.799
 11
681.63
 21
345.799
  0
LINE
  8
Layer1
  6
PHANTOM1
 62
7
 10
681.129
 20
340.306
 11
682.632
 21
340.306
  0
LINE
  8
Layer1
  6
PHANTOM1
 62
7
 10
681.63
 20
348.545
 11
681.63
 21
345.799
  0
LINE
  8
Layer1
  6
PHANTOM1
 62
7
 10
680.125
 20
348.545
 11
680.125
 21
345.799
  0
LINE
  8
Layer1
  6
PHANTOM1
 62
7
 10
681.129
 20
340.306
 11
681.129
 21
337.545
  0
LINE
  8
Layer1
  6
PHANTOM1
 62
7
 10
682.632
 20
340.306
 11
682.632
 21
337.545
  0
LINE
  8
Layer1
  6
PHANTOM1
 62
7
 10
680.125
 20
345.799
 11
681.129
 21
340.306
  0
LINE
  8
Layer1
  6
PHANTOM1
 62
7
 10
681.63
 20
345.799
 11
682.632
 21
340.306
  0
LINE
  8
Layer1
  6
PHANTOM1
 62
7
 10
680.628
 20
343.052
 11
681.129
 21
337.545
  0
LINE
  8
Layer1
  6
PHANTOM1
 62
7
 10
681.755
 20
348.545
 11
682.131
 21
343.052
  0
LINE
  8
Layer1
  6
CONTINUOUS
 62
7
 10
690.236
 20
374.031
 11
690.236
 21
336.232
  0
LINE
  8
Layer1
  6
CONTINUOUS
 62
7
 10
698.236
 20
374.031
 11
698.236
 21
336.232
  0
LINE
  8
Layer1
  6
CONTINUOUS
 62
7
 10
689.649
 20
351.037
 11
689.649
 21
355.037
  0
LINE
  8
Layer1
  6
CONTINUOUS
 62
7
 10
689.649
 20
351.037
 11
688.85
 21
351.837
  0
LINE
  8
Layer1
  6
CONTINUOUS
 62
7
 10
683.236
 20
377.714
 11
683.236
 21
361.232
  0
LINE
  8
Layer1
  6
CENTER1
 62
7
 10
514.092
 20
404.232
 11
483.62
 21
404.232
  0
LINE
  8
Layer1
  6
CONTINUOUS
 62
7
 10
483.62
 20
396.232
 11
514.092
 21
396.232
  0
LINE
  8
Layer1
  6
PHANTOM1
 62
7
 10
483.62
 20
384.232
 11
514.092
 21
384.232
  0
LINE
  8
Layer1
  6
CONTINUOUS
 62
7
 10
487.014
 20
381.494
 11
510.698
 21
381.494
  0
LINE
  8
Layer1
  6
CONTINUOUS
 62
7
 10
487.014
 20
379.223
 11
494.269
 21
379.223
  0
LINE
  8
Layer1
  6
CONTINUOUS
 62
7
 10
517.518
 20
374.232
 11
480.519
 21
374.232
  0
LINE
  8
Layer1
  6
CONTINUOUS
 62
7
 10
480.519
 20
336.232
 11
517.837
 21
336.232
  0
LINE
  8
Layer1
  6
CONTINUOUS
 62
7
 10
514.592
 20
395.946
 11
514.592
 21
415.062
  0
LINE
  8
Layer1
  6
CONTINUOUS
 62
7
 10
483.12
 20
415.062
 11
483.12
 21
395.946
  0
LINE
  8
Layer1
  6
CONTINUOUS
 62
7
 10
487.014
 20
396.232
 11
487.014
 21
381.494
  0
LINE
  8
Layer1
  6
CONTINUOUS
 62
7
 10
510.698
 20
396.232
 11
510.698
 21
381.494
  0
LINE
  8
Layer1
  6
CENTER1
 62
7
 10
499.018
 20
418.807
 11
499.018
 21
328.931
  0
LINE
  8
Layer1
  6
CONTINUOUS
 62
7
 10
518.018
 20
336.732
 11
518.018
 21
373.732
  0
LINE
  8
Layer1
  6
CONTINUOUS
 62
7
 10
480.019
 20
336.732
 11
480.019
 21
373.732
  0
LINE
  8
Layer1
  6
PHANTOM1
 62
7
 10
514.592
 20
395.946
 11
514.592
 21
403.382
  0
LINE
  8
Layer1
  6
CONTINUOUS
 62
7
 10
495.174
 20
380.609
 11
503.019
 21
380.609
  0
LINE
  8
Layer1
  6
CONTINUOUS
 62
7
 10
494.847
 20
380.006
 11
503.321
 21
380.006
  0
LINE
  8
Layer1
  6
CONTINUOUS
 62
7
 10
494.753
 20
376.626
 11
503.2
 21
376.626
  0
LINE
  8
Layer1
  6
CONTINUOUS
 62
7
 10
503.926
 20
375.902
 11
494.029
 21
375.902
  0
LINE
  8
Layer1
  6
CONTINUOUS
 62
7
 10
503.926
 20
375.902
 11
503.926
 21
374.031
  0
LINE
  8
Layer1
  6
CONTINUOUS
 62
7
 10
494.029
 20
375.902
 11
494.029
 21
374.031
  0
POLYLINE
  8
Layer1
  6
CONTINUOUS
 62
7
 66
1
 10
0
 20
0
 30
0
  0
VERTEX
  8
Layer1
 10
498.969
 20
377.822
  0
VERTEX
  8
Layer1
 10
498.904
 20
377.879
  0
VERTEX
  8
Layer1
 10
498.837
 20
377.935
  0
VERTEX
  8
Layer1
 10
498.769
 20
377.988
  0
VERTEX
  8
Layer1
 10
498.7
 20
378.04
  0
VERTEX
  8
Layer1
 10
498.63
 20
378.09
  0
VERTEX
  8
Layer1
 10
498.556
 20
378.138
  0
VERTEX
  8
Layer1
 10
498.483
 20
378.184
  0
VERTEX
  8
Layer1
 10
498.409
 20
378.229
  0
VERTEX
  8
Layer1
 10
498.333
 20
378.271
  0
VERTEX
  8
Layer1
 10
498.256
 20
378.311
  0
VERTEX
  8
Layer1
 10
498.178
 20
378.35
  0
VERTEX
  8
Layer1
 10
498.101
 20
378.386
  0
VERTEX
  8
Layer1
 10
498.02
 20
378.421
  0
VERTEX
  8
Layer1
 10
497.94
 20
378.453
  0
VERTEX
  8
Layer1
 10
497.858
 20
378.483
  0
VERTEX
  8
Layer1
 10
497.777
 20
378.511
  0
VERTEX
  8
Layer1
 10
497.695
 20
378.537
  0
VERTEX
  8
Layer1
 10
497.611
 20
378.561
  0
VERTEX
  8
Layer1
 10
497.527
 20
378.583
  0
VERTEX
  8
Layer1
 10
497.443
 20
378.602
  0
VERTEX
  8
Layer1
 10
497.357
 20
378.619
  0
VERTEX
  8
Layer1
 10
497.272
 20
378.634
  0
VERTEX
  8
Layer1
 10
497.186
 20
378.647
  0
VERTEX
  8
Layer1
 10
497.101
 20
378.658
  0
VERTEX
  8
Layer1
 10
497.013
 20
378.666
  0
VERTEX
  8
Layer1
 10
496.928
 20
378.672
  0
VERTEX
  8
Layer1
 10
496.84
 20
378.676
  0
VERTEX
  8
Layer1
 10
496.753
 20
378.678
  0
VERTEX
  8
Layer1
 10
496.667
 20
378.677
  0
VERTEX
  8
Layer1
 10
496.58
 20
378.674
  0
VERTEX
  8
Layer1
 10
496.493
 20
378.669
  0
VERTEX
  8
Layer1
 10
496.407
 20
378.662
  0
VERTEX
  8
Layer1
 10
496.321
 20
378.653
  0
VERTEX
  8
Layer1
 10
496.236
 20
378.641
  0
VERTEX
  8
Layer1
 10
496.149
 20
378.627
  0
VERTEX
  8
Layer1
 10
496.065
 20
378.611
  0
VERTEX
  8
Layer1
 10
495.979
 20
378.592
  0
VERTEX
  8
Layer1
 10
495.895
 20
378.572
  0
VERTEX
  8
Layer1
 10
495.813
 20
378.549
  0
VERTEX
  8
Layer1
 10
495.729
 20
378.524
  0
VERTEX
  8
Layer1
 10
495.647
 20
378.497
  0
VERTEX
  8
Layer1
 10
495.565
 20
378.468
  0
VERTEX
  8
Layer1
 10
495.484
 20
378.437
  0
VERTEX
  8
Layer1
 10
495.404
 20
378.403
  0
VERTEX
  8
Layer1
 10
495.325
 20
378.368
  0
VERTEX
  8
Layer1
 10
495.246
 20
378.33
  0
VERTEX
  8
Layer1
 10
495.169
 20
378.291
  0
VERTEX
  8
Layer1
 10
495.094
 20
378.25
  0
SEQEND
  0
POLYLINE
  8
Layer1
  6
CONTINUOUS
 62
7
 66
1
 10
0
 20
0
 30
0
  0
VERTEX
  8
Layer1
 10
503.322
 20
378.195
  0
VERTEX
  8
Layer1
 10
503.234
 20
378.23
  0
VERTEX
  8
Layer1
 10
503.147
 20
378.264
  0
VERTEX
  8
Layer1
 10
503.058
 20
378.296
  0
VERTEX
  8
Layer1
 10
502.969
 20
378.327
  0
VERTEX
  8
Layer1
 10
502.878
 20
378.355
  0
VERTEX
  8
Layer1
 10
502.787
 20
378.382
  0
VERTEX
  8
Layer1
 10
502.696
 20
378.406
  0
VERTEX
  8
Layer1
 10
502.604
 20
378.429
  0
VERTEX
  8
Layer1
 10
502.512
 20
378.451
  0
VERTEX
  8
Layer1
 10
502.421
 20
378.47
  0
VERTEX
  8
Layer1
 10
502.327
 20
378.487
  0
VERTEX
  8
Layer1
 10
502.234
 20
378.503
  0
VERTEX
  8
Layer1
 10
502.142
 20
378.517
  0
VERTEX
  8
Layer1
 10
502.048
 20
378.529
  0
VERTEX
  8
Layer1
 10
501.953
 20
378.539
  0
VERTEX
  8
Layer1
 10
501.859
 20
378.547
  0
VERTEX
  8
Layer1
 10
501.765
 20
378.553
  0
VERTEX
  8
Layer1
 10
501.671
 20
378.557
  0
VERTEX
  8
Layer1
 10
501.577
 20
378.56
  0
VERTEX
  8
Layer1
 10
501.482
 20
378.56
  0
VERTEX
  8
Layer1
 10
501.387
 20
378.559
  0
VERTEX
  8
Layer1
 10
501.293
 20
378.556
  0
VERTEX
  8
Layer1
 10
501.198
 20
378.551
  0
VERTEX
  8
Layer1
 10
501.104
 20
378.544
  0
VERTEX
  8
Layer1
 10
501.01
 20
378.535
  0
VERTEX
  8
Layer1
 10
500.916
 20
378.524
  0
VERTEX
  8
Layer1
 10
500.823
 20
378.512
  0
VERTEX
  8
Layer1
 10
500.731
 20
378.497
  0
VERTEX
  8
Layer1
 10
500.637
 20
378.481
  0
VERTEX
  8
Layer1
 10
500.544
 20
378.463
  0
VERTEX
  8
Layer1
 10
500.452
 20
378.443
  0
VERTEX
  8
Layer1
 10
500.361
 20
378.421
  0
VERTEX
  8
Layer1
 10
500.268
 20
378.397
  0
VERTEX
  8
Layer1
 10
500.178
 20
378.372
  0
VERTEX
  8
Layer1
 10
500.087
 20
378.344
  0
VERTEX
  8
Layer1
 10
499.998
 20
378.315
  0
VERTEX
  8
Layer1
 10
499.909
 20
378.284
  0
VERTEX
  8
Layer1
 10
499.82
 20
378.252
  0
VERTEX
  8
Layer1
 10
499.731
 20
378.217
  0
VERTEX
  8
Layer1
 10
499.644
 20
378.181
  0
VERTEX
  8
Layer1
 10
499.558
 20
378.143
  0
VERTEX
  8
Layer1
 10
499.472
 20
378.103
  0
VERTEX
  8
Layer1
 10
499.387
 20
378.062
  0
VERTEX
  8
Layer1
 10
499.303
 20
378.019
  0
VERTEX
  8
Layer1
 10
499.22
 20
377.974
  0
VERTEX
  8
Layer1
 10
499.138
 20
377.928
  0
VERTEX
  8
Layer1
 10
499.056
 20
377.88
  0
VERTEX
  8
Layer1
 10
498.976
 20
377.83
  0
SEQEND
  0
LINE
  8
Layer1
  6
CONTINUOUS
 62
7
 10
495.44
 20
378.418
 11
495.106
 21
378.228
  0
LINE
  8
Layer1
  6
CONTINUOUS
 62
7
 10
495.174
 20
380.609
 11
494.315
 21
379.025
  0
LINE
  8
Layer1
  6
CONTINUOUS
 62
7
 10
503.019
 20
380.609
 11
503.907
 21
378.794
  0
LINE
  8
Layer1
  6
CONTINUOUS
 62
7
 10
502.837
 20
378.339
 11
503.322
 21
378.195
  0
POLYLINE
  8
Layer1
  6
CONTINUOUS
 62
7
 66
1
 10
0
 20
0
 30
0
  0
VERTEX
  8
Layer1
 10
494.315
 20
379.025
  0
VERTEX
  8
Layer1
 10
494.301
 20
378.998
  0
VERTEX
  8
Layer1
 10
494.286
 20
378.969
  0
VERTEX
  8
Layer1
 10
494.274
 20
378.94
  0
VERTEX
  8
Layer1
 10
494.265
 20
378.91
  0
VERTEX
  8
Layer1
 10
494.255
 20
378.879
  0
VERTEX
  8
Layer1
 10
494.248
 20
378.849
  0
VERTEX
  8
Layer1
 10
494.243
 20
378.817
  0
VERTEX
  8
Layer1
 10
494.239
 20
378.786
  0
VERTEX
  8
Layer1
 10
494.238
 20
378.754
  0
VERTEX
  8
Layer1
 10
494.238
 20
378.723
  0
VERTEX
  8
Layer1
 10
494.238
 20
378.691
  0
VERTEX
  8
Layer1
 10
494.241
 20
378.66
  0
VERTEX
  8
Layer1
 10
494.246
 20
378.629
  0
VERTEX
  8
Layer1
 10
494.253
 20
378.598
  0
VERTEX
  8
Layer1
 10
494.262
 20
378.567
  0
VERTEX
  8
Layer1
 10
494.272
 20
378.537
  0
VERTEX
  8
Layer1
 10
494.282
 20
378.508
  0
VERTEX
  8
Layer1
 10
494.296
 20
378.479
  0
VERTEX
  8
Layer1
 10
494.31
 20
378.451
  0
VERTEX
  8
Layer1
 10
494.327
 20
378.423
  0
VERTEX
  8
Layer1
 10
494.344
 20
378.397
  0
VERTEX
  8
Layer1
 10
494.363
 20
378.372
  0
VERTEX
  8
Layer1
 10
494.383
 20
378.348
  0
VERTEX
  8
Layer1
 10
494.405
 20
378.325
  0
VERTEX
  8
Layer1
 10
494.428
 20
378.303
  0
VERTEX
  8
Layer1
 10
494.452
 20
378.282
  0
VERTEX
  8
Layer1
 10
494.477
 20
378.263
  0
VERTEX
  8
Layer1
 10
494.503
 20
378.245
  0
VERTEX
  8
Layer1
 10
494.53
 20
378.229
  0
VERTEX
  8
Layer1
 10
494.558
 20
378.214
  0
VERTEX
  8
Layer1
 10
494.587
 20
378.2
  0
VERTEX
  8
Layer1
 10
494.616
 20
378.189
  0
VERTEX
  8
Layer1
 10
494.647
 20
378.178
  0
VERTEX
  8
Layer1
 10
494.676
 20
378.17
  0
VERTEX
  8
Layer1
 10
494.707
 20
378.163
  0
VERTEX
  8
Layer1
 10
494.738
 20
378.158
  0
VERTEX
  8
Layer1
 10
494.77
 20
378.154
  0
VERTEX
  8
Layer1
 10
494.801
 20
378.153
  0
VERTEX
  8
Layer1
 10
494.833
 20
378.153
  0
VERTEX
  8
Layer1
 10
494.866
 20
378.154
  0
VERTEX
  8
Layer1
 10
494.897
 20
378.158
  0
VERTEX
  8
Layer1
 10
494.928
 20
378.163
  0
VERTEX
  8
Layer1
 10
494.958
 20
378.17
  0
VERTEX
  8
Layer1
 10
494.989
 20
378.178
  0
VERTEX
  8
Layer1
 10
495.019
 20
378.188
  0
VERTEX
  8
Layer1
 10
495.048
 20
378.2
  0
VERTEX
  8
Layer1
 10
495.077
 20
378.214
  0
VERTEX
  8
Layer1
 10
495.106
 20
378.228
  0
SEQEND
  0
POLYLINE
  8
Layer1
  6
CONTINUOUS
 62
7
 66
1
 10
0
 20
0
 30
0
  0
VERTEX
  8
Layer1
 10
503.322
 20
378.195
  0
VERTEX
  8
Layer1
 10
503.342
 20
378.189
  0
VERTEX
  8
Layer1
 10
503.363
 20
378.185
  0
VERTEX
  8
Layer1
 10
503.385
 20
378.181
  0
VERTEX
  8
Layer1
 10
503.406
 20
378.178
  0
VERTEX
  8
Layer1
 10
503.428
 20
378.176
  0
VERTEX
  8
Layer1
 10
503.448
 20
378.175
  0
VERTEX
  8
Layer1
 10
503.47
 20
378.175
  0
VERTEX
  8
Layer1
 10
503.491
 20
378.177
  0
VERTEX
  8
Layer1
 10
503.512
 20
378.179
  0
VERTEX
  8
Layer1
 10
503.534
 20
378.182
  0
VERTEX
  8
Layer1
 10
503.555
 20
378.186
  0
VERTEX
  8
Layer1
 10
503.575
 20
378.19
  0
VERTEX
  8
Layer1
 10
503.596
 20
378.196
  0
VERTEX
  8
Layer1
 10
503.616
 20
378.203
  0
VERTEX
  8
Layer1
 10
503.637
 20
378.211
  0
VERTEX
  8
Layer1
 10
503.656
 20
378.219
  0
VERTEX
  8
Layer1
 10
503.676
 20
378.229
  0
VERTEX
  8
Layer1
 10
503.695
 20
378.239
  0
VERTEX
  8
Layer1
 10
503.712
 20
378.25
  0
VERTEX
  8
Layer1
 10
503.731
 20
378.262
  0
VERTEX
  8
Layer1
 10
503.748
 20
378.275
  0
VERTEX
  8
Layer1
 10
503.765
 20
378.288
  0
VERTEX
  8
Layer1
 10
503.78
 20
378.303
  0
VERTEX
  8
Layer1
 10
503.796
 20
378.318
  0
VERTEX
  8
Layer1
 10
503.81
 20
378.333
  0
VERTEX
  8
Layer1
 10
503.823
 20
378.35
  0
VERTEX
  8
Layer1
 10
503.837
 20
378.367
  0
VERTEX
  8
Layer1
 10
503.849
 20
378.384
  0
VERTEX
  8
Layer1
 10
503.861
 20
378.402
  0
VERTEX
  8
Layer1
 10
503.871
 20
378.421
  0
VERTEX
  8
Layer1
 10
503.881
 20
378.44
  0
VERTEX
  8
Layer1
 10
503.89
 20
378.459
  0
VERTEX
  8
Layer1
 10
503.899
 20
378.479
  0
VERTEX
  8
Layer1
 10
503.905
 20
378.499
  0
VERTEX
  8
Layer1
 10
503.912
 20
378.519
  0
VERTEX
  8
Layer1
 10
503.917
 20
378.54
  0
VERTEX
  8
Layer1
 10
503.921
 20
378.561
  0
VERTEX
  8
Layer1
 10
503.926
 20
378.582
  0
VERTEX
  8
Layer1
 10
503.928
 20
378.603
  0
VERTEX
  8
Layer1
 10
503.929
 20
378.625
  0
VERTEX
  8
Layer1
 10
503.93
 20
378.646
  0
VERTEX
  8
Layer1
 10
503.929
 20
378.668
  0
VERTEX
  8
Layer1
 10
503.928
 20
378.689
  0
VERTEX
  8
Layer1
 10
503.926
 20
378.71
  0
VERTEX
  8
Layer1
 10
503.923
 20
378.731
  0
VERTEX
  8
Layer1
 10
503.918
 20
378.752
  0
VERTEX
  8
Layer1
 10
503.914
 20
378.773
  0
VERTEX
  8
Layer1
 10
503.907
 20
378.794
  0
SEQEND
  0
LINE
  8
Layer1
  6
CONTINUOUS
 62
7
 10
502.044
 20
378.529
 11
502.044
 21
376.626
  0
LINE
  8
Layer1
  6
CONTINUOUS
 62
7
 10
495.899
 20
378.573
 11
495.899
 21
376.626
  0
LINE
  8
Layer1
  6
CONTINUOUS
 62
7
 10
494.753
 20
376.626
 11
494.029
 21
375.902
  0
LINE
  8
Layer1
  6
CONTINUOUS
 62
7
 10
503.2
 20
376.626
 11
503.926
 21
375.902
  0
POLYLINE
  8
Layer1
  6
DASHED1
 62
7
 66
1
 10
0
 20
0
 30
0
  0
VERTEX
  8
Layer1
 10
510.698
 20
362.275
  0
VERTEX
  8
Layer1
 10
510.657
 20
362.666
  0
VERTEX
  8
Layer1
 10
510.606
 20
363.055
  0
VERTEX
  8
Layer1
 10
510.543
 20
363.442
  0
VERTEX
  8
Layer1
 10
510.47
 20
363.827
  0
VERTEX
  8
Layer1
 10
510.387
 20
364.21
  0
VERTEX
  8
Layer1
 10
510.293
 20
364.59
  0
VERTEX
  8
Layer1
 10
510.19
 20
364.967
  0
VERTEX
  8
Layer1
 10
510.075
 20
365.341
  0
VERTEX
  8
Layer1
 10
509.95
 20
365.711
  0
VERTEX
  8
Layer1
 10
509.816
 20
366.078
  0
VERTEX
  8
Layer1
 10
509.673
 20
366.44
  0
VERTEX
  8
Layer1
 10
509.517
 20
366.797
  0
VERTEX
  8
Layer1
 10
509.354
 20
367.15
  0
VERTEX
  8
Layer1
 10
509.18
 20
367.498
  0
VERTEX
  8
Layer1
 10
508.998
 20
367.84
  0
VERTEX
  8
Layer1
 10
508.805
 20
368.177
  0
VERTEX
  8
Layer1
 10
508.604
 20
368.508
  0
VERTEX
  8
Layer1
 10
508.393
 20
368.832
  0
VERTEX
  8
Layer1
 10
508.176
 20
369.15
  0
VERTEX
  8
Layer1
 10
507.947
 20
369.462
  0
VERTEX
  8
Layer1
 10
507.712
 20
369.766
  0
VERTEX
  8
Layer1
 10
507.467
 20
370.063
  0
VERTEX
  8
Layer1
 10
507.215
 20
370.353
  0
VERTEX
  8
Layer1
 10
506.955
 20
370.635
  0
VERTEX
  8
Layer1
 10
506.688
 20
370.908
  0
VERTEX
  8
Layer1
 10
506.414
 20
371.174
  0
VERTEX
  8
Layer1
 10
506.131
 20
371.431
  0
VERTEX
  8
Layer1
 10
505.842
 20
371.68
  0
VERTEX
  8
Layer1
 10
505.546
 20
371.92
  0
VERTEX
  8
Layer1
 10
505.244
 20
372.151
  0
VERTEX
  8
Layer1
 10
504.936
 20
372.372
  0
VERTEX
  8
Layer1
 10
504.623
 20
372.584
  0
VERTEX
  8
Layer1
 10
504.303
 20
372.787
  0
VERTEX
  8
Layer1
 10
503.977
 20
372.98
  0
VERTEX
  8
Layer1
 10
503.647
 20
373.163
  0
VERTEX
  8
Layer1
 10
503.313
 20
373.336
  0
VERTEX
  8
Layer1
 10
502.972
 20
373.498
  0
VERTEX
  8
Layer1
 10
502.628
 20
373.651
  0
VERTEX
  8
Layer1
 10
502.28
 20
373.793
  0
VERTEX
  8
Layer1
 10
501.929
 20
373.924
  0
VERTEX
  8
Layer1
 10
501.573
 20
374.045
  0
VERTEX
  8
Layer1
 10
501.215
 20
374.155
  0
VERTEX
  8
Layer1
 10
500.854
 20
374.254
  0
VERTEX
  8
Layer1
 10
500.491
 20
374.342
  0
VERTEX
  8
Layer1
 10
500.125
 20
374.419
  0
VERTEX
  8
Layer1
 10
499.757
 20
374.485
  0
VERTEX
  8
Layer1
 10
499.387
 20
374.54
  0
VERTEX
  8
Layer1
 10
499.017
 20
374.584
  0
SEQEND
  0
ARC
  8
Layer1
  6
DASHED1
 62
7
 10
501.647
 20
360.049
 40
14.7826
 50
100.239
 51
169.916
  0
LINE
  8
Layer1
  6
CENTER1
 62
7
 10
507.455
 20
343.045
 11
491.555
 21
343.045
  0
LINE
  8
Layer1
  6
DASHED1
 62
7
 10
502.018
 20
416.232
 11
502.018
 21
400.232
  0
LINE
  8
Layer1
  6
DASHED1
 62
7
 10
496.018
 20
416.232
 11
496.018
 21
400.232
  0
LINE
  8
Layer1
  6
DASHED1
 62
7
 10
502.018
 20
400.232
 11
496.018
 21
400.232
  0
LINE
  8
Layer1
  6
DASHED1
 62
7
 10
501.518
 20
399.232
 11
496.418
 21
399.232
  0
LINE
  8
Layer1
  6
DASHED1
 62
7
 10
502.018
 20
400.232
 11
501.518
 21
399.232
  0
LINE
  8
Layer1
  6
DASHED1
 62
7
 10
496.018
 20
400.232
 11
496.418
 21
399.232
  0
LINE
  8
Layer1
  6
DASHED1
 62
7
 10
501.518
 20
416.232
 11
501.518
 21
393.339
  0
LINE
  8
Layer1
  6
DASHED1
 62
7
 10
496.418
 20
416.232
 11
496.418
 21
393.339
  0
LINE
  8
Layer1
  6
DASHED1
 62
7
 10
496.418
 20
393.339
 11
501.518
 21
393.339
  0
LINE
  8
Layer1
  6
DASHED1
 62
7
 10
501.518
 20
393.339
 11
498.918
 21
391.838
  0
LINE
  8
Layer1
  6
DASHED1
 62
7
 10
499.018
 20
391.838
 11
496.418
 21
393.339
  0
LINE
  8
Layer1
  6
CONTINUOUS
 62
7
 10
483.62
 20
416.232
 11
483.12
 21
415.732
  0
LINE
  8
Layer1
  6
CONTINUOUS
 62
7
 10
514.092
 20
416.232
 11
514.592
 21
415.732
  0
LINE
  8
Layer1
  6
CONTINUOUS
 62
7
 10
514.592
 20
384.732
 11
514.092
 21
384.232
  0
LINE
  8
Layer1
  6
CONTINUOUS
 62
7
 10
483.62
 20
384.232
 11
483.12
 21
384.732
  0
LINE
  8
Layer1
  6
CONTINUOUS
 62
7
 10
483.12
 20
403.732
 11
483.62
 21
404.232
  0
LINE
  8
Layer1
  6
CONTINUOUS
 62
7
 10
514.092
 20
404.232
 11
514.592
 21
403.732
  0
LINE
  8
Layer1
  6
CONTINUOUS
 62
7
 10
514.092
 20
396.232
 11
514.592
 21
396.732
  0
LINE
  8
Layer1
  6
PHANTOM1
 62
7
 10
514.592
 20
395.946
 11
514.592
 21
384.732
  0
LINE
  8
Layer1
  6
DASHED1
 62
7
 10
488.014
 20
361.232
 11
509.698
 21
361.232
  0
CIRCLE
  8
Layer1
  6
CONTINUOUS
 62
7
 10
499.018
 20
343.045
 40
6
  0
POLYLINE
  8
Layer1
  6
CONTINUOUS
 62
7
 66
1
 10
0
 20
0
 30
0
 70
1
  0
VERTEX
  8
Layer1
 10
499.018
 20
348.045
  0
VERTEX
  8
Layer1
 10
494.688
 20
345.545
  0
VERTEX
  8
Layer1
 10
494.688
 20
340.545
  0
VERTEX
  8
Layer1
 10
499.018
 20
338.045
  0
VERTEX
  8
Layer1
 10
503.349
 20
340.545
  0
VERTEX
  8
Layer1
 10
503.349
 20
345.545
  0
SEQEND
  0
CIRCLE
  8
Layer1
  6
CONTINUOUS
 62
7
 10
499.018
 20
343.045
 40
5
  0
TEXT
  8
Layer1
 62
7
 10
498.856
 20
425.343
 72
1
 11
498.856
 21
425.343
 40
8
 41
1
  1
Φ32
  0
LINE
  8
Layer1
  6
CONTINUOUS
 62
7
 10
483.12
 20
415.062
 11
483.12
 21
427.343
  0
LINE
  8
Layer1
  6
CONTINUOUS
 62
7
 10
514.592
 20
415.062
 11
514.592
 21
427.343
  0
POLYLINE
  8
Layer1
  6
CONTINUOUS
 62
7
 66
1
 10
0
 20
0
 30
0
  0
VERTEX
  8
Layer1
 10
483.12
 20
425.343
  0
VERTEX
  8
Layer1
 10
514.592
 20
425.343
  0
SEQEND
  0
POLYLINE
  8
Layer1
  6
CONTINUOUS
 62
7
 66
1
 10
0
 20
0
 30
0
 70
1
  0
VERTEX
  8
Layer1
 10
486.983
 20
424.308
  0
VERTEX
  8
Layer1
 10
483.12
 20
425.343
  0
VERTEX
  8
Layer1
 10
486.983
 20
426.379
  0
SEQEND
  0
POLYLINE
  8
Layer1
  6
CONTINUOUS
 62
7
 66
1
 10
0
 20
0
 30
0
 70
1
  0
VERTEX
  8
Layer1
 10
510.729
 20
426.379
  0
VERTEX
  8
Layer1
 10
514.592
 20
425.343
  0
VERTEX
  8
Layer1
 10
510.729
 20
424.308
  0
SEQEND
  0
TEXT
  8
Layer1
 62
7
 10
524.755
 20
408.232
 72
1
 11
524.755
 21
408.232
 40
8
 41
1
 50
90
  1
16
  0
LINE
  8
Layer1
  6
CONTINUOUS
 62
7
 10
502.018
 20
400.232
 11
526.755
 21
400.232
  0
LINE
  8
Layer1
  6
CONTINUOUS
 62
7
 10
499.018
 20
416.232
 11
526.755
 21
416.232
  0
POLYLINE
  8
Layer1
  6
CONTINUOUS
 62
7
 66
1
 10
0
 20
0
 30
0
  0
VERTEX
  8
Layer1
 10
524.755
 20
400.232
  0
VERTEX
  8
Layer1
 10
524.755
 20
416.232
  0
SEQEND
  0
POLYLINE
  8
Layer1
  6
CONTINUOUS
 62
7
 66
1
 10
0
 20
0
 30
0
 70
1
  0
VERTEX
  8
Layer1
 10
525.789
 20
404.095
  0
VERTEX
  8
Layer1
 10
524.755
 20
400.232
  0
VERTEX
  8
Layer1
 10
523.719
 20
404.095
  0
SEQEND
  0
POLYLINE
  8
Layer1
  6
CONTINUOUS
 62
7
 66
1
 10
0
 20
0
 30
0
 70
1
  0
VERTEX
  8
Layer1
 10
523.719
 20
412.368
  0
VERTEX
  8
Layer1
 10
524.755
 20
416.232
  0
VERTEX
  8
Layer1
 10
525.789
 20
412.368
  0
SEQEND
  0
TEXT
  8
Layer1
 62
7
 10
534.255
 20
406.232
 72
1
 11
534.255
 21
406.232
 40
8
 41
1
 50
90
  1
20
  0
LINE
  8
Layer1
  6
CONTINUOUS
 62
7
 10
512.459
 20
416.232
 11
536.255
 21
416.232
  0
LINE
  8
Layer1
  6
CONTINUOUS
 62
7
 10
512.014
 20
396.232
 11
536.255
 21
396.232
  0
POLYLINE
  8
Layer1
  6
CONTINUOUS
 62
7
 66
1
 10
0
 20
0
 30
0
  0
VERTEX
  8
Layer1
 10
534.255
 20
416.232
  0
VERTEX
  8
Layer1
 10
534.255
 20
396.232
  0
SEQEND
  0
POLYLINE
  8
Layer1
  6
CONTINUOUS
 62
7
 66
1
 10
0
 20
0
 30
0
 70
1
  0
VERTEX
  8
Layer1
 10
533.219
 20
412.368
  0
VERTEX
  8
Layer1
 10
534.255
 20
416.232
  0
VERTEX
  8
Layer1
 10
535.291
 20
412.368
  0
SEQEND
  0
POLYLINE
  8
Layer1
  6
CONTINUOUS
 62
7
 66
1
 10
0
 20
0
 30
0
 70
1
  0
VERTEX
  8
Layer1
 10
535.291
 20
400.095
  0
VERTEX
  8
Layer1
 10
534.255
 20
396.232
  0
VERTEX
  8
Layer1
 10
533.219
 20
400.095
  0
SEQEND
  0
TEXT
  8
Layer1
 62
7
 10
460.452
 20
388.732
 72
1
 11
460.452
 21
388.732
 40
8
 41
1
 50
90
  1
55
  0
LINE
  8
Layer1
  6
CONTINUOUS
 62
7
 10
488.959
 20
361.232
 11
458.452
 21
361.232
  0
LINE
  8
Layer1
  6
CONTINUOUS
 62
7
 10
485.91
 20
416.232
 11
458.452
 21
416.232
  0
POLYLINE
  8
Layer1
  6
CONTINUOUS
 62
7
 66
1
 10
0
 20
0
 30
0
  0
VERTEX
  8
Layer1
 10
460.452
 20
361.232
  0
VERTEX
  8
Layer1
 10
460.452
 20
416.232
  0
SEQEND
  0
POLYLINE
  8
Layer1
  6
CONTINUOUS
 62
7
 66
1
 10
0
 20
0
 30
0
 70
1
  0
VERTEX
  8
Layer1
 10
461.487
 20
365.095
  0
VERTEX
  8
Layer1
 10
460.452
 20
361.232
  0
VERTEX
  8
Layer1
 10
459.416
 20
365.095
  0
SEQEND
  0
POLYLINE
  8
Layer1
  6
CONTINUOUS
 62
7
 66
1
 10
0
 20
0
 30
0
 70
1
  0
VERTEX
  8
Layer1
 10
459.416
 20
412.368
  0
VERTEX
  8
Layer1
 10
460.452
 20
416.232
  0
VERTEX
  8
Layer1
 10
461.487
 20
412.368
  0
SEQEND
  0
CIRCLE
  8
Layer1
  6
CONTINUOUS
 62
7
 10
499.018
 20
359.232
 40
9
  0
TEXT
  8
Layer1
 62
7
 10
499.018
 20
323.688
 72
1
 11
499.018
 21
323.688
 40
8
 41
1
  1
Φ18
  0
LINE
  8
Layer1
  6
CONTINUOUS
 62
7
 10
490.018
 20
359.187
 11
490.018
 21
321.688
  0
LINE
  8
Layer1
  6
CONTINUOUS
 62
7
 10
508.018
 20
359.187
 11
508.018
 21
321.688
  0
POLYLINE
  8
Layer1
  6
CONTINUOUS
 62
7
 66
1
 10
0
 20
0
 30
0
  0
VERTEX
  8
Layer1
 10
490.018
 20
323.688
  0
VERTEX
  8
Layer1
 10
508.018
 20
323.688
  0
SEQEND
  0
POLYLINE
  8
Layer1
  6
CONTINUOUS
 62
7
 66
1
 10
0
 20
0
 30
0
 70
1
  0
VERTEX
  8
Layer1
 10
493.881
 20
322.652
  0
VERTEX
  8
Layer1
 10
490.018
 20
323.688
  0
VERTEX
  8
Layer1
 10
493.881
 20
324.723
  0
SEQEND
  0
POLYLINE
  8
Layer1
  6
CONTINUOUS
 62
7
 66
1
 10
0
 20
0
 30
0
 70
1
  0
VERTEX
  8
Layer1
 10
504.154
 20
324.723
  0
VERTEX
  8
Layer1
 10
508.018
 20
323.688
  0
VERTEX
  8
Layer1
 10
504.154
 20
322.652
  0
SEQEND
  0
TEXT
  8
Layer1
 62
7
 10
537.966
 20
347.732
 72
1
 11
537.966
 21
347.732
 40
8
 41
1
 50
90
  1
 23 
  0
LINE
  8
Layer1
  6
CONTINUOUS
 62
7
 10
512.856
 20
359.232
 11
539.966
 21
359.232
  0
LINE
  8
Layer1
  6
CONTINUOUS
 62
7
 10
517.837
 20
336.232
 11
539.966
 21
336.232
  0
POLYLINE
  8
Layer1
  6
CONTINUOUS
 62
7
 66
1
 10
0
 20
0
 30
0
  0
VERTEX
  8
Layer1
 10
537.966
 20
359.232
  0
VERTEX
  8
Layer1
 10
537.966
 20
336.232
  0
SEQEND
  0
POLYLINE
  8
Layer1
  6
CONTINUOUS
 62
7
 66
1
 10
0
 20
0
 30
0
 70
1
  0
VERTEX
  8
Layer1
 10
536.93
 20
355.368
  0
VERTEX
  8
Layer1
 10
537.966
 20
359.232
  0
VERTEX
  8
Layer1
 10
539.001
 20
355.368
  0
SEQEND
  0
POLYLINE
  8
Layer1
  6
CONTINUOUS
 62
7
 66
1
 10
0
 20
0
 30
0
 70
1
  0
VERTEX
  8
Layer1
 10
539.001
 20
340.095
  0
VERTEX
  8
Layer1
 10
537.966
 20
336.232
  0
VERTEX
  8
Layer1
 10
536.93
 20
340.095
  0
SEQEND
  0
TEXT
  8
Layer1
 62
7
 10
541.293
 20
334.068
 73
3
 11
541.293
 21
334.068
 40
4
 41
1
 50
90
  1
センター間距離
  0
LINE
  8
Layer1
  6
CONTINUOUS
 62
7
 10
483.62
 20
396.232
 11
483.12
 21
396.732
  0
LINE
  8
Layer1
  6
PHANTOM1
 62
7
 10
483.12
 20
395.946
 11
483.12
 21
384.732
  0
LINE
  8
Layer1
  6
DASHED1
 62
7
 10
510.698
 20
362.232
 11
510.698
 21
374.031
  0
LINE
  8
Layer1
  6
DASHED1
 62
7
 10
487.014
 20
362.232
 11
487.014
 21
374.031
  0
ARC
  8
Layer1
  6
CONTINUOUS
 62
7
 10
510.698
 20
380.358
 40
1.13561
 50
90
 51
270
  0
ARC
  8
Layer1
  6
CONTINUOUS
 62
7
 10
487.014
 20
380.358
 40
1.13561
 50
270
 51
90
  0
LINE
  8
Layer1
  6
CONTINUOUS
 62
7
 10
487.014
 20
379.223
 11
487.014
 21
374.031
  0
LINE
  8
Layer1
  6
CONTINUOUS
 62
7
 10
510.698
 20
379.223
 11
510.698
 21
374.031
  0
LINE
  8
Layer1
  6
CONTINUOUS
 62
7
 10
503.75
 20
379.223
 11
510.698
 21
379.223
  0
LINE
  8
Layer1
  6
CONTINUOUS
 62
7
 10
480.519
 20
374.232
 11
480.019
 21
373.732
  0
LINE
  8
Layer1
  6
CONTINUOUS
 62
7
 10
517.518
 20
374.232
 11
518.018
 21
373.732
  0
LINE
  8
Layer1
  6
CONTINUOUS
 62
7
 10
518.018
 20
336.732
 11
517.518
 21
336.232
  0
LINE
  8
Layer1
  6
CONTINUOUS
 62
7
 10
480.519
 20
336.232
 11
480.019
 21
336.732
  0
LINE
  8
Layer1
  6
CONTINUOUS
 62
7
 10
510.698
 20
362.232
 11
509.698
 21
361.232
  0
LINE
  8
Layer1
  6
CONTINUOUS
 62
7
 10
488.014
 20
361.232
 11
487.014
 21
362.232
  0
TEXT
  8
Layer1
 62
7
 10
558.706
 20
355.232
 72
1
 11
558.706
 21
355.232
 40
8
 41
1
 50
90
  1
38
  0
LINE
  8
Layer1
  6
CONTINUOUS
 62
7
 10
517.337
 20
374.232
 11
560.706
 21
374.232
  0
LINE
  8
Layer1
  6
CONTINUOUS
 62
7
 10
517.518
 20
336.232
 11
560.706
 21
336.232
  0
POLYLINE
  8
Layer1
  6
CONTINUOUS
 62
7
 66
1
 10
0
 20
0
 30
0
  0
VERTEX
  8
Layer1
 10
558.706
 20
374.232
  0
VERTEX
  8
Layer1
 10
558.706
 20
336.232
  0
SEQEND
  0
POLYLINE
  8
Layer1
  6
CONTINUOUS
 62
7
 66
1
 10
0
 20
0
 30
0
 70
1
  0
VERTEX
  8
Layer1
 10
557.67
 20
370.368
  0
VERTEX
  8
Layer1
 10
558.706
 20
374.232
  0
VERTEX
  8
Layer1
 10
559.741
 20
370.368
  0
SEQEND
  0
POLYLINE
  8
Layer1
  6
CONTINUOUS
 62
7
 66
1
 10
0
 20
0
 30
0
 70
1
  0
VERTEX
  8
Layer1
 10
559.741
 20
340.095
  0
VERTEX
  8
Layer1
 10
558.706
 20
336.232
  0
VERTEX
  8
Layer1
 10
557.67
 20
340.095
  0
SEQEND
  0
CIRCLE
  8
Layer1
  6
CONTINUOUS
 62
7
 10
499.018
 20
359.232
 40
4
  0
CIRCLE
  8
Layer1
  6
CONTINUOUS
 62
7
 10
499.018
 20
359.232
 40
0.75
  0
LINE
  8
Layer1
  6
CONTINUOUS
 62
7
 10
494.974
 20
368.073
 11
503.061
 21
368.073
  0
LINE
  8
Layer1
  6
CONTINUOUS
 62
7
 10
503.061
 20
370.741
 11
503.061
 21
368.073
  0
LINE
  8
Layer1
  6
CONTINUOUS
 62
7
 10
497.13
 20
371.935
 11
497.13
 21
371.167
  0
LINE
  8
Layer1
  6
CONTINUOUS
 62
7
 10
500.888
 20
371.935
 11
500.888
 21
371.167
  0
LINE
  8
Layer1
  6
DASHED1
 62
7
 10
500.406
 20
362.486
 11
500.406
 21
368.073
  0
LINE
  8
Layer1
  6
DASHED1
 62
7
 10
497.63
 20
362.763
 11
497.63
 21
368.073
  0
LINE
  8
Layer1
  6
CONTINUOUS
 62
7
 10
500.406
 20
372.418
 11
497.613
 21
372.418
  0
LINE
  8
Layer1
  6
CONTINUOUS
 62
7
 10
497.613
 20
372.418
 11
497.13
 21
371.935
  0
LINE
  8
Layer1
  6
CONTINUOUS
 62
7
 10
500.406
 20
372.418
 11
500.888
 21
371.935
  0
LINE
  8
Layer1
  6
CONTINUOUS
 62
7
 10
494.974
 20
370.741
 11
494.974
 21
368.073
  0
LINE
  8
Layer1
  6
CONTINUOUS
 62
7
 10
494.974
 20
370.741
 11
495.712
 21
371.167
  0
LINE
  8
Layer1
  6
CONTINUOUS
 62
7
 10
495.712
 20
371.167
 11
502.323
 21
371.167
  0
LINE
  8
Layer1
  6
CONTINUOUS
 62
7
 10
502.323
 20
371.167
 11
503.061
 21
370.741
  0
POLYLINE
  8
Layer1
  6
CONTINUOUS
 62
7
 66
1
 10
0
 20
0
 30
0
  0
VERTEX
  8
Layer1
 10
501.003
 20
370.783
  0
VERTEX
  8
Layer1
 10
500.923
 20
370.808
  0
VERTEX
  8
Layer1
 10
500.842
 20
370.832
  0
VERTEX
  8
Layer1
 10
500.762
 20
370.855
  0
VERTEX
  8
Layer1
 10
500.68
 20
370.877
  0
VERTEX
  8
Layer1
 10
500.599
 20
370.897
  0
VERTEX
  8
Layer1
 10
500.517
 20
370.917
  0
VERTEX
  8
Layer1
 10
500.435
 20
370.936
  0
VERTEX
  8
Layer1
 10
500.354
 20
370.953
  0
VERTEX
  8
Layer1
 10
500.27
 20
370.97
  0
VERTEX
  8
Layer1
 10
500.188
 20
370.985
  0
VERTEX
  8
Layer1
 10
500.106
 20
371
  0
VERTEX
  8
Layer1
 10
500.022
 20
371.013
  0
VERTEX
  8
Layer1
 10
499.94
 20
371.025
  0
VERTEX
  8
Layer1
 10
499.856
 20
371.037
  0
VERTEX
  8
Layer1
 10
499.772
 20
371.047
  0
VERTEX
  8
Layer1
 10
499.69
 20
371.056
  0
VERTEX
  8
Layer1
 10
499.606
 20
371.064
  0
VERTEX
  8
Layer1
 10
499.522
 20
371.071
  0
VERTEX
  8
Layer1
 10
499.438
 20
371.077
  0
VERTEX
  8
Layer1
 10
499.354
 20
371.082
  0
VERTEX
  8
Layer1
 10
499.27
 20
371.086
  0
VERTEX
  8
Layer1
 10
499.186
 20
371.088
  0
VERTEX
  8
Layer1
 10
499.102
 20
371.09
  0
VERTEX
  8
Layer1
 10
499.018
 20
371.09
  0
VERTEX
  8
Layer1
 10
498.935
 20
371.09
  0
VERTEX
  8
Layer1
 10
498.851
 20
371.088
  0
VERTEX
  8
Layer1
 10
498.767
 20
371.086
  0
VERTEX
  8
Layer1
 10
498.683
 20
371.082
  0
VERTEX
  8
Layer1
 10
498.599
 20
371.077
  0
VERTEX
  8
Layer1
 10
498.515
 20
371.071
  0
VERTEX
  8
Layer1
 10
498.43
 20
371.064
  0
VERTEX
  8
Layer1
 10
498.347
 20
371.056
  0
VERTEX
  8
Layer1
 10
498.263
 20
371.047
  0
VERTEX
  8
Layer1
 10
498.18
 20
371.037
  0
VERTEX
  8
Layer1
 10
498.097
 20
371.025
  0
VERTEX
  8
Layer1
 10
498.015
 20
371.013
  0
VERTEX
  8
Layer1
 10
497.931
 20
371
  0
VERTEX
  8
Layer1
 10
497.849
 20
370.985
  0
VERTEX
  8
Layer1
 10
497.765
 20
370.97
  0
VERTEX
  8
Layer1
 10
497.683
 20
370.953
  0
VERTEX
  8
Layer1
 10
497.601
 20
370.936
  0
VERTEX
  8
Layer1
 10
497.519
 20
370.917
  0
VERTEX
  8
Layer1
 10
497.438
 20
370.897
  0
VERTEX
  8
Layer1
 10
497.356
 20
370.877
  0
VERTEX
  8
Layer1
 10
497.275
 20
370.855
  0
VERTEX
  8
Layer1
 10
497.195
 20
370.832
  0
VERTEX
  8
Layer1
 10
497.113
 20
370.808
  0
VERTEX
  8
Layer1
 10
497.034
 20
370.783
  0
SEQEND
  0
POLYLINE
  8
Layer1
  6
CONTINUOUS
 62
7
 66
1
 10
0
 20
0
 30
0
  0
VERTEX
  8
Layer1
 10
497.034
 20
370.783
  0
VERTEX
  8
Layer1
 10
496.996
 20
370.808
  0
VERTEX
  8
Layer1
 10
496.959
 20
370.831
  0
VERTEX
  8
Layer1
 10
496.921
 20
370.854
  0
VERTEX
  8
Layer1
 10
496.883
 20
370.875
  0
VERTEX
  8
Layer1
 10
496.844
 20
370.896
  0
VERTEX
  8
Layer1
 10
496.805
 20
370.915
  0
VERTEX
  8
Layer1
 10
496.765
 20
370.934
  0
VERTEX
  8
Layer1
 10
496.726
 20
370.952
  0
VERTEX
  8
Layer1
 10
496.685
 20
370.968
  0
VERTEX
  8
Layer1
 10
496.643
 20
370.984
  0
VERTEX
  8
Layer1
 10
496.602
 20
370.998
  0
VERTEX
  8
Layer1
 10
496.56
 20
371.012
  0
VERTEX
  8
Layer1
 10
496.518
 20
371.024
  0
VERTEX
  8
Layer1
 10
496.476
 20
371.036
  0
VERTEX
  8
Layer1
 10
496.433
 20
371.046
  0
VERTEX
  8
Layer1
 10
496.39
 20
371.055
  0
VERTEX
  8
Layer1
 10
496.346
 20
371.064
  0
VERTEX
  8
Layer1
 10
496.303
 20
371.071
  0
VERTEX
  8
Layer1
 10
496.26
 20
371.077
  0
VERTEX
  8
Layer1
 10
496.217
 20
371.082
  0
VERTEX
  8
Layer1
 10
496.173
 20
371.085
  0
VERTEX
  8
Layer1
 10
496.128
 20
371.088
  0
VERTEX
  8
Layer1
 10
496.084
 20
371.09
  0
VERTEX
  8
Layer1
 10
496.041
 20
371.09
  0
VERTEX
  8
Layer1
 10
495.996
 20
371.09
  0
VERTEX
  8
Layer1
 10
495.953
 20
371.088
  0
VERTEX
  8
Layer1
 10
495.909
 20
371.085
  0
VERTEX
  8
Layer1
 10
495.866
 20
371.082
  0
VERTEX
  8
Layer1
 10
495.821
 20
371.077
  0
VERTEX
  8
Layer1
 10
495.779
 20
371.071
  0
VERTEX
  8
Layer1
 10
495.734
 20
371.064
  0
VERTEX
  8
Layer1
 10
495.691
 20
371.055
  0
VERTEX
  8
Layer1
 10
495.649
 20
371.046
  0
VERTEX
  8
Layer1
 10
495.606
 20
371.036
  0
VERTEX
  8
Layer1
 10
495.563
 20
371.024
  0
VERTEX
  8
Layer1
 10
495.522
 20
371.012
  0
VERTEX
  8
Layer1
 10
495.479
 20
370.998
  0
VERTEX
  8
Layer1
 10
495.438
 20
370.984
  0
VERTEX
  8
Layer1
 10
495.397
 20
370.968
  0
VERTEX
  8
Layer1
 10
495.356
 20
370.952
  0
VERTEX
  8
Layer1
 10
495.316
 20
370.934
  0
VERTEX
  8
Layer1
 10
495.277
 20
370.915
  0
VERTEX
  8
Layer1
 10
495.238
 20
370.896
  0
VERTEX
  8
Layer1
 10
495.198
 20
370.875
  0
VERTEX
  8
Layer1
 10
495.159
 20
370.854
  0
VERTEX
  8
Layer1
 10
495.123
 20
370.831
  0
VERTEX
  8
Layer1
 10
495.084
 20
370.808
  0
VERTEX
  8
Layer1
 10
495.048
 20
370.783
  0
SEQEND
  0
POLYLINE
  8
Layer1
  6
CONTINUOUS
 62
7
 66
1
 10
0
 20
0
 30
0
  0
VERTEX
  8
Layer1
 10
502.988
 20
370.783
  0
VERTEX
  8
Layer1
 10
502.952
 20
370.808
  0
VERTEX
  8
Layer1
 10
502.914
 20
370.831
  0
VERTEX
  8
Layer1
 10
502.876
 20
370.854
  0
VERTEX
  8
Layer1
 10
502.839
 20
370.875
  0
VERTEX
  8
Layer1
 10
502.799
 20
370.896
  0
VERTEX
  8
Layer1
 10
502.76
 20
370.915
  0
VERTEX
  8
Layer1
 10
502.72
 20
370.934
  0
VERTEX
  8
Layer1
 10
502.68
 20
370.952
  0
VERTEX
  8
Layer1
 10
502.64
 20
370.968
  0
VERTEX
  8
Layer1
 10
502.599
 20
370.984
  0
VERTEX
  8
Layer1
 10
502.556
 20
370.998
  0
VERTEX
  8
Layer1
 10
502.515
 20
371.012
  0
VERTEX
  8
Layer1
 10
502.472
 20
371.024
  0
VERTEX
  8
Layer1
 10
502.43
 20
371.036
  0
VERTEX
  8
Layer1
 10
502.387
 20
371.046
  0
VERTEX
  8
Layer1
 10
502.344
 20
371.055
  0
VERTEX
  8
Layer1
 10
502.301
 20
371.064
  0
VERTEX
  8
Layer1
 10
502.258
 20
371.071
  0
VERTEX
  8
Layer1
 10
502.214
 20
371.077
  0
VERTEX
  8
Layer1
 10
502.171
 20
371.082
  0
VERTEX
  8
Layer1
 10
502.128
 20
371.085
  0
VERTEX
  8
Layer1
 10
502.083
 20
371.088
  0
VERTEX
  8
Layer1
 10
502.039
 20
371.09
  0
VERTEX
  8
Layer1
 10
501.995
 20
371.09
  0
VERTEX
  8
Layer1
 10
501.952
 20
371.09
  0
VERTEX
  8
Layer1
 10
501.907
 20
371.088
  0
VERTEX
  8
Layer1
 10
501.863
 20
371.085
  0
VERTEX
  8
Layer1
 10
501.82
 20
371.082
  0
VERTEX
  8
Layer1
 10
501.777
 20
371.077
  0
VERTEX
  8
Layer1
 10
501.732
 20
371.071
  0
VERTEX
  8
Layer1
 10
501.69
 20
371.064
  0
VERTEX
  8
Layer1
 10
501.647
 20
371.055
  0
VERTEX
  8
Layer1
 10
501.604
 20
371.046
  0
VERTEX
  8
Layer1
 10
501.56
 20
371.036
  0
VERTEX
  8
Layer1
 10
501.518
 20
371.024
  0
VERTEX
  8
Layer1
 10
501.476
 20
371.012
  0
VERTEX
  8
Layer1
 10
501.435
 20
370.998
  0
VERTEX
  8
Layer1
 10
501.392
 20
370.984
  0
VERTEX
  8
Layer1
 10
501.351
 20
370.968
  0
VERTEX
  8
Layer1
 10
501.31
 20
370.952
  0
VERTEX
  8
Layer1
 10
501.27
 20
370.934
  0
VERTEX
  8
Layer1
 10
501.231
 20
370.915
  0
VERTEX
  8
Layer1
 10
501.191
 20
370.896
  0
VERTEX
  8
Layer1
 10
501.152
 20
370.875
  0
VERTEX
  8
Layer1
 10
501.114
 20
370.854
  0
VERTEX
  8
Layer1
 10
501.077
 20
370.831
  0
VERTEX
  8
Layer1
 10
501.039
 20
370.808
  0
VERTEX
  8
Layer1
 10
501.003
 20
370.783
  0
SEQEND
  0
LINE
  8
Layer1
  6
CONTINUOUS
 62
7
 10
501.003
 20
370.783
 11
501.003
 21
368.073
  0
LINE
  8
Layer1
  6
CONTINUOUS
 62
7
 10
497.034
 20
370.783
 11
497.034
 21
368.073
  0
LINE
  8
Layer1
  6
CONTINUOUS
 62
7
 10
500.406
 20
371.167
 11
500.406
 21
372.418
  0
LINE
  8
Layer1
  6
CONTINUOUS
 62
7
 10
497.63
 20
371.167
 11
497.63
 21
372.418
  0
LINE
  8
Layer1
  6
DASHED1
 62
7
 10
501.003
 20
363.281
 11
501.003
 21
368.073
  0
LINE
  8
Layer1
  6
DASHED1
 62
7
 10
497.034
 20
363.281
 11
497.034
 21
368.073
  0
LINE
  8
Layer1
  6
DASHED1
 62
7
 10
497.034
 20
363.281
 11
501.003
 21
363.281
  0
LINE
  8
Layer1
  6
DASHED1
 62
7
 10
500.484
 20
362.763
 11
497.551
 21
362.763
  0
LINE
  8
Layer1
  6
DASHED1
 62
7
 10
497.551
 20
362.763
 11
497.034
 21
363.281
  0
LINE
  8
Layer1
  6
DASHED1
 62
7
 10
500.484
 20
362.763
 11
501.003
 21
363.281
  0
LINE
  8
Layer1
  6
CONTINUOUS
 62
7
 10
497.13
 20
371.935
 11
500.888
 21
371.935
  0
LINE
  8
Layer1
  6
CENTER1
 62
7
 10
477.036
 20
359.232
 11
522.135
 21
359.232
  0
LINE
  8
Layer1
  6
CENTER1
 62
7
 10
513.018
 20
332.749
 11
513.018
 21
376.831
  0
LINE
  8
Layer1
  6
CENTER1
 62
7
 10
485.019
 20
332.551
 11
485.019
 21
376.633
  0
TEXT
  8
Layer1
 62
7
 10
665.236
 20
541.078
 72
1
 11
665.236
 21
541.078
 40
7
 41
1
  1
 66 
  0
LINE
  8
Layer1
  6
CONTINUOUS
 62
7
 10
632.236
 20
507.592
 11
632.236
 21
542.078
  0
LINE
  8
Layer1
  6
CONTINUOUS
 62
7
 10
698.236
 20
508.937
 11
698.236
 21
542.078
  0
POLYLINE
  8
Layer1
  6
CONTINUOUS
 62
7
 66
1
 10
0
 20
0
 30
0
  0
VERTEX
  8
Layer1
 10
632.236
 20
540.078
  0
VERTEX
  8
Layer1
 10
698.236
 20
540.078
  0
SEQEND
  0
POLYLINE
  8
Layer1
  6
CONTINUOUS
 62
7
 66
1
 10
0
 20
0
 30
0
  0
VERTEX
  8
Layer1
 10
635.133
 20
539.302
  0
VERTEX
  8
Layer1
 10
632.236
 20
540.078
  0
VERTEX
  8
Layer1
 10
635.133
 20
540.854
  0
SEQEND
  0
POLYLINE
  8
Layer1
  6
CONTINUOUS
 62
7
 66
1
 10
0
 20
0
 30
0
  0
VERTEX
  8
Layer1
 10
695.338
 20
540.854
  0
VERTEX
  8
Layer1
 10
698.236
 20
540.078
  0
VERTEX
  8
Layer1
 10
695.338
 20
539.302
  0
SEQEND
  0
TEXT
  8
Layer1
 62
7
 10
649.736
 20
461.197
 72
1
 11
649.736
 21
461.197
 40
7
 41
1
  1
 25 
  0
LINE
  8
Layer1
  6
CONTINUOUS
 62
7
 10
637.236
 20
493.409
 11
637.236
 21
458.197
  0
LINE
  8
Layer1
  6
CONTINUOUS
 62
7
 10
662.236
 20
467.578
 11
662.236
 21
458.197
  0
POLYLINE
  8
Layer1
  6
CONTINUOUS
 62
7
 66
1
 10
0
 20
0
 30
0
  0
VERTEX
  8
Layer1
 10
637.236
 20
460.197
  0
VERTEX
  8
Layer1
 10
662.236
 20
460.197
  0
SEQEND
  0
POLYLINE
  8
Layer1
  6
CONTINUOUS
 62
7
 66
1
 10
0
 20
0
 30
0
  0
VERTEX
  8
Layer1
 10
640.133
 20
459.42
  0
VERTEX
  8
Layer1
 10
637.236
 20
460.197
  0
VERTEX
  8
Layer1
 10
640.133
 20
460.973
  0
SEQEND
  0
POLYLINE
  8
Layer1
  6
CONTINUOUS
 62
7
 66
1
 10
0
 20
0
 30
0
  0
VERTEX
  8
Layer1
 10
659.338
 20
460.973
  0
VERTEX
  8
Layer1
 10
662.236
 20
460.197
  0
VERTEX
  8
Layer1
 10
659.338
 20
459.42
  0
SEQEND
  0
ENDSEC
  0
EOF
