  0
SECTION
  2
HEADER
  9
$EXTMIN
 10
0
 20
0
  9
$EXTMAX
 10
1189
 20
841
  9
$LTSCALE
 40
1
  9
$LIMMIN
 10
0
 20
0
  9
$LIMMAX
 10
1189
 20
841
  9
$DIMSCALE
 40
1
  0
ENDSEC
  0
SECTION
  2
TABLES
  0
TABLE
  2
LTYPE
 70
9
  0
LTYPE
  2
CONTINUOUS
 70
64
  3
----------
 72
65
 73
0
 40
0
  0
LTYPE
  2
DASHED1
 70
64
  3
--  --  --  --  --  --  --  --  
 72
65
 73
2
 40
2.5
 49
1.25
 49
-1.25
  0
LTYPE
  2
DASHED2
 70
64
  3
----    ----    ----    ----    
 72
65
 73
2
 40
5
 49
2.5
 49
-2.5
  0
LTYPE
  2
DASHED3
 70
64
  3
------  ------  ------  ------  
 72
65
 73
2
 40
5
 49
3.75
 49
-1.25
  0
LTYPE
  2
CENTER1
 70
64
  3
----- - ----- - ----- - ----- - 
 72
65
 73
4
 40
7.5
 49
3.75
 49
-1.25
 49
1.25
 49
-1.25
  0
LTYPE
  2
CENTER2
 70
64
  3
----------  --  ----------  --  
 72
65
 73
4
 40
13.75
 49
6.25
 49
-2.5
 49
2.5
 49
-2.5
  0
LTYPE
  2
PHANTOM1
 70
64
  3
--- - - --- - - --- - - --- - - 
 72
65
 73
6
 40
9.5
 49
3.25
 49
-1.25
 49
1.25
 49
-1.25
 49
1.25
 49
-1.25
  0
LTYPE
  2
PHANTOM2
 70
64
  3
--------  -  -  --------  -  -  
 72
65
 73
6
 40
18
 49
8
 49
-2.5
 49
1.25
 49
-2.5
 49
1.25
 49
-2.5
  0
LTYPE
  2
DOT
 70
64
  3
-   -   -   -   -   -   -   -   
 72
65
 73
2
 40
2.5
 49
0.625
 49
-1.875
  0
LTYPE
  2
HOJO
 70
64
  3
-   -   -   -   -   -   -   -   
 72
65
 73
2
 40
2.5
 49
0.625
 49
-1.875
  0
ENDTAB
  0
TABLE
  2
STYLE
 70
2
  0
STYLE
  2
STANDARD
 70
64
 40
0
 41
1
 42
0
 50
0
 71
0
  3
TXT
  4
BIGFONT
  0
STYLE
  2
TATEGAKI
 70
68
 40
0
 41
1
 42
0
 50
0
 71
0
  3
TXT
  4
EXTFONT
  0
ENDTAB
  0
TABLE
  2
LAYER
 70
1
  0
LAYER
  2
Layer1
 70
64
 62
7
  6
CONTINUOUS
  0
ENDTAB
  0
ENDSEC
  0
SECTION
  2
ENTITIES
  0
LINE
  8
Layer1
  6
CONTINUOUS
 62
7
 10
729.067
 20
311.66
 11
729.094
 21
320.961
  0
LINE
  8
Layer1
  6
DASHED1
 62
7
 10
627.149
 20
310.735
 11
666.789
 21
310.735
  0
LINE
  8
Layer1
  6
DASHED1
 62
7
 10
659.066
 20
310.66
 11
659.066
 21
340.66
  0
LINE
  8
Layer1
  6
DASHED1
 62
7
 10
657.066
 20
310.66
 11
657.066
 21
340.66
  0
LINE
  8
Layer1
  6
CONTINUOUS
 62
7
 10
625.149
 20
331.16
 11
625.149
 21
339.66
  0
LINE
  8
Layer1
  6
DASHED1
 62
7
 10
657.066
 20
471.51
 11
657.066
 21
536.51
  0
LINE
  8
Layer1
  6
DASHED1
 62
7
 10
659.066
 20
471.51
 11
659.066
 21
536.51
  0
LINE
  8
Layer1
  6
DASHED1
 62
7
 10
657.066
 20
339.16
 11
659.066
 21
339.16
  0
LINE
  8
Layer1
  6
CONTINUOUS
 62
7
 10
713.067
 20
310.735
 11
666.707
 21
310.735
  0
LINE
  8
Layer1
  6
DASHED1
 62
7
 10
657.066
 20
312.16
 11
659.066
 21
312.16
  0
LINE
  8
Layer1
  6
CONTINUOUS
 62
7
 10
625.149
 20
339.66
 11
626.225
 21
340.735
  0
LINE
  8
Layer1
  6
CONTINUOUS
 62
7
 10
625.149
 20
311.735
 11
626.149
 21
310.735
  0
LINE
  8
Layer1
  6
CONTINUOUS
 62
7
 10
728.067
 20
310.755
 11
729.067
 21
311.755
  0
ARC
  8
Layer1
  6
CONTINUOUS
 62
7
 10
727.094
 20
320.961
 40
2
 50
0
 51
45
  0
LINE
  8
Layer1
  6
CENTER1
 62
7
 10
596.752
 20
334.235
 11
650.34
 21
334.235
  0
LINE
  8
Layer1
  6
CENTER1
 62
7
 10
603.154
 20
317.235
 11
632.056
 21
317.235
  0
LINE
  8
Layer1
  6
CONTINUOUS
 62
7
 10
612.149
 20
336.66
 11
625.149
 21
336.66
  0
LINE
  8
Layer1
  6
CENTER1
 62
7
 10
723.067
 20
300.13
 11
723.067
 21
315.678
  0
LINE
  8
Layer1
  6
CONTINUOUS
 62
7
 10
505.395
 20
340.735
 11
401.395
 21
340.735
  0
LINE
  8
Layer1
  6
CONTINUOUS
 62
7
 10
689.149
 20
452.182
 11
689.149
 21
555.839
  0
LINE
  8
Layer1
  6
DASHED1
 62
7
 10
667.88
 20
498.624
 11
667.88
 21
509.606
  0
LINE
  8
Layer1
  6
DASHED1
 62
7
 10
647.88
 20
509.606
 11
647.88
 21
498.624
  0
LINE
  8
Layer1
  6
DASHED1
 62
7
 10
666.88
 20
497.624
 11
648.88
 21
497.624
  0
LINE
  8
Layer1
  6
DASHED1
 62
7
 10
666.88
 20
510.606
 11
648.88
 21
510.606
  0
LINE
  8
Layer1
  6
CENTER1
 62
7
 10
626.885
 20
547.01
 11
692.563
 21
547.01
  0
LINE
  8
Layer1
  6
CENTER1
 62
7
 10
688.977
 20
461.01
 11
626.977
 21
461.01
  0
LINE
  8
Layer1
  6
CENTER1
 62
7
 10
635.149
 20
470.073
 11
635.149
 21
450.213
  0
LINE
  8
Layer1
  6
DASHED1
 62
7
 10
648.88
 20
497.624
 11
647.88
 21
498.624
  0
LINE
  8
Layer1
  6
DASHED1
 62
7
 10
647.88
 20
509.606
 11
648.88
 21
510.606
  0
LINE
  8
Layer1
  6
DASHED1
 62
7
 10
667.88
 20
509.606
 11
666.88
 21
510.606
  0
LINE
  8
Layer1
  6
DASHED1
 62
7
 10
666.88
 20
497.624
 11
667.88
 21
498.624
  0
LINE
  8
Layer1
  6
CENTER1
 62
7
 10
681.149
 20
553.468
 11
681.149
 21
539.808
  0
LINE
  8
Layer1
  6
CENTER1
 62
7
 10
681.149
 20
468.02
 11
681.149
 21
450.425
  0
LINE
  8
Layer1
  6
CONTINUOUS
 62
7
 10
691.149
 20
397.735
 11
729.092
 21
397.735
  0
LINE
  8
Layer1
  6
CONTINUOUS
 62
7
 10
628.149
 20
287.735
 11
729.067
 21
287.735
  0
LINE
  8
Layer1
  6
CONTINUOUS
 62
7
 10
627.149
 20
339.735
 11
627.149
 21
288.735
  0
LINE
  8
Layer1
  6
CENTER1
 62
7
 10
752.947
 20
330.735
 11
724.575
 21
330.735
  0
LINE
  8
Layer1
  6
CENTER1
 62
7
 10
749.263
 20
307.735
 11
720.058
 21
307.735
  0
LINE
  8
Layer1
  6
CENTER1
 62
7
 10
700.149
 20
286.021
 11
700.149
 21
347.183
  0
LINE
  8
Layer1
  6
CONTINUOUS
 62
7
 10
688.977
 20
292.305
 11
688.977
 21
287.735
  0
LINE
  8
Layer1
  6
CENTER1
 62
7
 10
638.677
 20
299.247
 11
696.098
 21
299.235
  0
LINE
  8
Layer1
  6
CONTINUOUS
 62
7
 10
627.149
 20
556.01
 11
627.149
 21
452.01
  0
LINE
  8
Layer1
  6
CENTER1
 62
7
 10
599.231
 20
504.01
 11
751.775
 21
504.01
  0
LINE
  8
Layer1
  6
CONTINUOUS
 62
7
 10
730.149
 20
288.818
 11
729.067
 21
287.735
  0
LINE
  8
Layer1
  6
CONTINUOUS
 62
7
 10
627.149
 20
288.735
 11
628.149
 21
287.735
  0
LINE
  8
Layer1
  6
CONTINUOUS
 62
7
 10
627.149
 20
339.735
 11
628.149
 21
340.735
  0
ARC
  8
Layer1
  6
CONTINUOUS
 62
7
 10
709.652
 20
339.66
 40
1
 50
45
 51
90
  0
LINE
  8
Layer1
  6
CENTER1
 62
7
 10
666.149
 20
355.51
 11
666.149
 21
278.483
  0
LINE
  8
Layer1
  6
CONTINUOUS
 62
7
 10
665.814
 20
307.281
 11
689.478
 21
307.281
  0
LINE
  8
Layer1
  6
CONTINUOUS
 62
7
 10
713.067
 20
310.66
 11
713.067
 21
292.155
  0
LINE
  8
Layer1
  6
CONTINUOUS
 62
7
 10
713.067
 20
292.155
 11
716.067
 21
292.155
  0
LINE
  8
Layer1
  6
CONTINUOUS
 62
7
 10
716.067
 20
307.66
 11
729.067
 21
307.66
  0
LINE
  8
Layer1
  6
CONTINUOUS
 62
7
 10
729.067
 20
310.66
 11
729.067
 21
307.66
  0
LINE
  8
Layer1
  6
CONTINUOUS
 62
7
 10
716.067
 20
307.66
 11
716.067
 21
292.155
  0
LINE
  8
Layer1
  6
CONTINUOUS
 62
7
 10
727.317
 20
307.66
 11
727.317
 21
303.06
  0
LINE
  8
Layer1
  6
CONTINUOUS
 62
7
 10
718.817
 20
307.66
 11
718.817
 21
303.06
  0
LINE
  8
Layer1
  6
CONTINUOUS
 62
7
 10
727.317
 20
303.06
 11
718.817
 21
303.06
  0
LINE
  8
Layer1
  6
CONTINUOUS
 62
7
 10
726.916
 20
302.66
 11
719.217
 21
302.66
  0
LINE
  8
Layer1
  6
CONTINUOUS
 62
7
 10
727.317
 20
303.06
 11
726.916
 21
302.66
  0
LINE
  8
Layer1
  6
CONTINUOUS
 62
7
 10
718.817
 20
303.06
 11
719.217
 21
302.66
  0
LINE
  8
Layer1
  6
CONTINUOUS
 62
7
 10
718.067
 20
307.66
 11
728.067
 21
307.66
  0
LINE
  8
Layer1
  6
CONTINUOUS
 62
7
 10
720.067
 20
303.454
 11
720.067
 21
306.983
  0
LINE
  8
Layer1
  6
CONTINUOUS
 62
7
 10
721.067
 20
304.089
 11
721.067
 21
306.442
  0
LINE
  8
Layer1
  6
CONTINUOUS
 62
7
 10
722.067
 20
304.724
 11
722.067
 21
305.901
  0
LINE
  8
Layer1
  6
CONTINUOUS
 62
7
 10
718.817
 20
307.66
 11
727.317
 21
307.66
  0
LINE
  8
Layer1
  6
CONTINUOUS
 62
7
 10
729.067
 20
310.735
 11
713.067
 21
310.735
  0
LINE
  8
Layer1
  6
CONTINUOUS
 62
7
 10
745.149
 20
298.735
 11
745.149
 21
344.735
  0
LINE
  8
Layer1
  6
CONTINUOUS
 62
7
 10
731.067
 20
297.735
 11
744.149
 21
297.735
  0
LINE
  8
Layer1
  6
CENTER1
 62
7
 10
726.16
 20
316.735
 11
757.279
 21
316.735
  0
LINE
  8
Layer1
  6
CONTINUOUS
 62
7
 10
731.067
 20
345.735
 11
744.149
 21
345.735
  0
LINE
  8
Layer1
  6
CONTINUOUS
 62
7
 10
744.149
 20
345.735
 11
745.149
 21
344.735
  0
LINE
  8
Layer1
  6
CONTINUOUS
 62
7
 10
745.149
 20
298.735
 11
744.149
 21
297.735
  0
LINE
  8
Layer1
  6
CONTINUOUS
 62
7
 10
730.149
 20
344.818
 11
731.067
 21
345.735
  0
LINE
  8
Layer1
  6
CONTINUOUS
 62
7
 10
730.067
 20
298.735
 11
731.067
 21
297.735
  0
LINE
  8
Layer1
  6
CONTINUOUS
 62
7
 10
745.149
 20
539.01
 11
754.38
 21
539.01
  0
LINE
  8
Layer1
  6
CONTINUOUS
 62
7
 10
745.149
 20
555.01
 11
754.38
 21
555.01
  0
LINE
  8
Layer1
  6
CONTINUOUS
 62
7
 10
754.38
 20
539.01
 11
754.38
 21
555.01
  0
LINE
  8
Layer1
  6
CONTINUOUS
 62
7
 10
754.995
 20
539.626
 11
754.995
 21
554.395
  0
LINE
  8
Layer1
  6
CONTINUOUS
 62
7
 10
754.38
 20
539.01
 11
754.995
 21
539.626
  0
LINE
  8
Layer1
  6
CONTINUOUS
 62
7
 10
754.38
 20
555.01
 11
754.995
 21
554.395
  0
LINE
  8
Layer1
  6
CONTINUOUS
 62
7
 10
745.149
 20
555.01
 11
745.149
 21
539.01
  0
LINE
  8
Layer1
  6
CONTINUOUS
 62
7
 10
745.859
 20
553.779
 11
753.67
 21
553.779
  0
LINE
  8
Layer1
  6
CONTINUOUS
 62
7
 10
746.569
 20
552.549
 11
752.96
 21
552.549
  0
LINE
  8
Layer1
  6
CONTINUOUS
 62
7
 10
747.279
 20
551.318
 11
752.25
 21
551.318
  0
LINE
  8
Layer1
  6
CONTINUOUS
 62
7
 10
747.989
 20
550.087
 11
751.539
 21
550.087
  0
LINE
  8
Layer1
  6
CONTINUOUS
 62
7
 10
729.092
 20
385.735
 11
691.149
 21
385.735
  0
LINE
  8
Layer1
  6
CONTINUOUS
 62
7
 10
729.092
 20
397.735
 11
730.149
 21
396.678
  0
LINE
  8
Layer1
  6
CONTINUOUS
 62
7
 10
690.149
 20
396.735
 11
691.149
 21
397.735
  0
LINE
  8
Layer1
  6
CONTINUOUS
 62
7
 10
730.149
 20
333.791
 11
729.092
 21
332.735
  0
LINE
  8
Layer1
  6
DASHED1
 62
7
 10
699.887
 20
362.235
 11
690.092
 21
362.235
  0
LINE
  8
Layer1
  6
DASHED1
 62
7
 10
699.887
 20
365.235
 11
690.092
 21
365.235
  0
LINE
  8
Layer1
  6
DASHED1
 62
7
 10
719.887
 20
362.235
 11
730.092
 21
362.235
  0
LINE
  8
Layer1
  6
DASHED1
 62
7
 10
719.887
 20
365.235
 11
730.092
 21
365.235
  0
LINE
  8
Layer1
  6
DASHED1
 62
7
 10
699.887
 20
391.735
 11
690.092
 21
391.735
  0
LINE
  8
Layer1
  6
DASHED1
 62
7
 10
699.887
 20
383.735
 11
690.092
 21
383.735
  0
LINE
  8
Layer1
  6
CONTINUOUS
 62
7
 10
706.231
 20
344.653
 11
730.092
 21
344.664
  0
LINE
  8
Layer1
  6
CONTINUOUS
 62
7
 10
718.563
 20
332.735
 11
729.092
 21
332.735
  0
LINE
  8
Layer1
  6
CONTINUOUS
 62
7
 10
690.149
 20
360.735
 11
728.51
 21
322.375
  0
LINE
  8
Layer1
  6
CONTINUOUS
 62
7
 10
690.149
 20
360.678
 11
690.149
 21
396.735
  0
LINE
  8
Layer1
  6
CONTINUOUS
 62
7
 10
690.149
 20
386.735
 11
691.149
 21
385.735
  0
LINE
  8
Layer1
  6
CONTINUOUS
 62
7
 10
729.092
 20
385.735
 11
730.092
 21
386.735
  0
LINE
  8
Layer1
  6
CONTINUOUS
 62
7
 10
665.89
 20
307.281
 11
689.478
 21
307.281
  0
LINE
  8
Layer1
  6
CONTINUOUS
 62
7
 10
688.092
 20
354.735
 11
628.066
 21
354.735
  0
LINE
  8
Layer1
  6
CONTINUOUS
 62
7
 10
627.149
 20
341.735
 11
627.149
 21
353.753
  0
LINE
  8
Layer1
  6
CONTINUOUS
 62
7
 10
689.092
 20
341.735
 11
689.092
 21
353.753
  0
LINE
  8
Layer1
  6
CONTINUOUS
 62
7
 10
627.149
 20
353.735
 11
628.149
 21
354.735
  0
LINE
  8
Layer1
  6
CONTINUOUS
 62
7
 10
688.092
 20
354.735
 11
689.092
 21
353.735
  0
LINE
  8
Layer1
  6
CONTINUOUS
 62
7
 10
657.066
 20
340.735
 11
709.991
 21
340.735
  0
LINE
  8
Layer1
  6
CONTINUOUS
 62
7
 10
628.149
 20
340.735
 11
627.149
 21
341.735
  0
LINE
  8
Layer1
  6
CONTINUOUS
 62
7
 10
688.092
 20
340.735
 11
689.092
 21
341.735
  0
LINE
  8
Layer1
  6
CONTINUOUS
 62
7
 10
730.149
 20
452.01
 11
730.149
 21
556.01
  0
LINE
  8
Layer1
  6
CONTINUOUS
 62
7
 10
690.149
 20
455.01
 11
690.149
 21
529.31
  0
LINE
  8
Layer1
  6
CENTER1
 62
7
 10
690.311
 20
463.01
 11
707.147
 21
463.01
  0
LINE
  8
Layer1
  6
CENTER1
 62
7
 10
697.852
 20
552.878
 11
697.852
 21
537.597
  0
LINE
  8
Layer1
  6
CENTER1
 62
7
 10
722.149
 20
553.135
 11
722.149
 21
536.886
  0
LINE
  8
Layer1
  6
CENTER1
 62
7
 10
713.662
 20
545.01
 11
732.241
 21
545.01
  0
LINE
  8
Layer1
  6
CENTER1
 62
7
 10
713.469
 20
463.01
 11
730.149
 21
462.945
  0
LINE
  8
Layer1
  6
CENTER1
 62
7
 10
698.149
 20
469.938
 11
698.149
 21
451.167
  0
LINE
  8
Layer1
  6
CENTER1
 62
7
 10
722.149
 20
474.392
 11
722.149
 21
455.427
  0
LINE
  8
Layer1
  6
DASHED1
 62
7
 10
627.066
 20
536.51
 11
730.149
 21
536.51
  0
CIRCLE
  8
Layer1
  6
CONTINUOUS
 62
7
 10
657.865
 20
504.01
 40
3.76681
  0
ARC
  8
Layer1
  6
CONTINUOUS
 62
7
 10
653.393
 20
504.045
 40
1
 50
140.711
 51
225
  0
LINE
  8
Layer1
  6
CONTINUOUS
 62
7
 10
662.376
 20
505.654
 11
664.64
 21
505.654
  0
LINE
  8
Layer1
  6
CONTINUOUS
 62
7
 10
662.376
 20
502.169
 11
664.64
 21
502.169
  0
LINE
  8
Layer1
  6
CONTINUOUS
 62
7
 10
664.64
 20
505.654
 11
664.64
 21
502.169
  0
ARC
  8
Layer1
  6
CONTINUOUS
 62
7
 10
657.865
 20
504.01
 40
4.80058
 50
20.031
 51
140.098
  0
ARC
  8
Layer1
  6
CONTINUOUS
 62
7
 10
657.865
 20
504.01
 40
4.80058
 50
218.056
 51
337.793
  0
ARC
  8
Layer1
  6
CONTINUOUS
 62
7
 10
644.973
 20
496.76
 40
10.1292
 50
24.1178
 51
40.4581
  0
ARC
  8
Layer1
  6
CONTINUOUS
 62
7
 10
644.911
 20
511.25
 40
10.1292
 50
319.542
 51
335.882
  0
ARC
  8
Layer1
  6
CONTINUOUS
 62
7
 10
663.507
 20
505.654
 40
0.542282
 50
0
 51
180
  0
ARC
  8
Layer1
  6
CONTINUOUS
 62
7
 10
663.507
 20
502.169
 40
0.657613
 50
180
 51
2.03555e-013
  0
LINE
  8
Layer1
  6
CENTER1
 62
7
 10
658.066
 20
339.16
 11
658.066
 21
363.021
  0
LINE
  8
Layer1
  6
CONTINUOUS
 62
7
 10
653.704
 20
363.923
 11
662.606
 21
363.923
  0
LINE
  8
Layer1
  6
CONTINUOUS
 62
7
 10
653.704
 20
361.608
 11
661.539
 21
361.608
  0
LINE
  8
Layer1
  6
CONTINUOUS
 62
7
 10
662.606
 20
363.923
 11
664.031
 21
362.261
  0
LINE
  8
Layer1
  6
CONTINUOUS
 62
7
 10
664.031
 20
361.608
 11
664.031
 21
362.261
  0
POLYLINE
  8
Layer1
  6
CONTINUOUS
 62
7
 66
1
 10
0
 20
0
 30
0
  0
VERTEX
  8
Layer1
 10
661.539
 20
361.608
  0
VERTEX
  8
Layer1
 10
661.54
 20
361.526
  0
VERTEX
  8
Layer1
 10
661.548
 20
361.444
  0
VERTEX
  8
Layer1
 10
661.56
 20
361.363
  0
VERTEX
  8
Layer1
 10
661.578
 20
361.283
  0
VERTEX
  8
Layer1
 10
661.601
 20
361.204
  0
VERTEX
  8
Layer1
 10
661.63
 20
361.127
  0
VERTEX
  8
Layer1
 10
661.664
 20
361.052
  0
VERTEX
  8
Layer1
 10
661.702
 20
360.98
  0
VERTEX
  8
Layer1
 10
661.745
 20
360.91
  0
VERTEX
  8
Layer1
 10
661.791
 20
360.843
  0
VERTEX
  8
Layer1
 10
661.843
 20
360.779
  0
VERTEX
  8
Layer1
 10
661.899
 20
360.719
  0
VERTEX
  8
Layer1
 10
661.958
 20
360.662
  0
VERTEX
  8
Layer1
 10
662.021
 20
360.61
  0
VERTEX
  8
Layer1
 10
662.088
 20
360.562
  0
VERTEX
  8
Layer1
 10
662.159
 20
360.518
  0
VERTEX
  8
Layer1
 10
662.231
 20
360.479
  0
VERTEX
  8
Layer1
 10
662.305
 20
360.445
  0
VERTEX
  8
Layer1
 10
662.381
 20
360.416
  0
VERTEX
  8
Layer1
 10
662.46
 20
360.392
  0
VERTEX
  8
Layer1
 10
662.54
 20
360.373
  0
VERTEX
  8
Layer1
 10
662.621
 20
360.36
  0
VERTEX
  8
Layer1
 10
662.702
 20
360.352
  0
VERTEX
  8
Layer1
 10
662.784
 20
360.349
  0
VERTEX
  8
Layer1
 10
662.867
 20
360.352
  0
VERTEX
  8
Layer1
 10
662.948
 20
360.36
  0
VERTEX
  8
Layer1
 10
663.029
 20
360.373
  0
VERTEX
  8
Layer1
 10
663.109
 20
360.392
  0
VERTEX
  8
Layer1
 10
663.188
 20
360.416
  0
VERTEX
  8
Layer1
 10
663.265
 20
360.445
  0
VERTEX
  8
Layer1
 10
663.339
 20
360.479
  0
VERTEX
  8
Layer1
 10
663.411
 20
360.518
  0
VERTEX
  8
Layer1
 10
663.481
 20
360.562
  0
VERTEX
  8
Layer1
 10
663.548
 20
360.61
  0
VERTEX
  8
Layer1
 10
663.611
 20
360.662
  0
VERTEX
  8
Layer1
 10
663.67
 20
360.719
  0
VERTEX
  8
Layer1
 10
663.726
 20
360.779
  0
VERTEX
  8
Layer1
 10
663.779
 20
360.843
  0
VERTEX
  8
Layer1
 10
663.825
 20
360.91
  0
VERTEX
  8
Layer1
 10
663.868
 20
360.98
  0
VERTEX
  8
Layer1
 10
663.906
 20
361.052
  0
VERTEX
  8
Layer1
 10
663.94
 20
361.127
  0
VERTEX
  8
Layer1
 10
663.968
 20
361.204
  0
VERTEX
  8
Layer1
 10
663.991
 20
361.283
  0
VERTEX
  8
Layer1
 10
664.01
 20
361.363
  0
VERTEX
  8
Layer1
 10
664.022
 20
361.444
  0
VERTEX
  8
Layer1
 10
664.029
 20
361.526
  0
VERTEX
  8
Layer1
 10
664.031
 20
361.608
  0
SEQEND
  0
LINE
  8
Layer1
  6
CONTINUOUS
 62
7
 10
653.704
 20
363.923
 11
651.29
 21
361.395
  0
LINE
  8
Layer1
  6
CONTINUOUS
 62
7
 10
653.704
 20
361.608
 11
652.279
 21
360.362
  0
POLYLINE
  8
Layer1
  6
CONTINUOUS
 62
7
 66
1
 10
0
 20
0
 30
0
  0
VERTEX
  8
Layer1
 10
651.29
 20
361.395
  0
VERTEX
  8
Layer1
 10
651.26
 20
361.361
  0
VERTEX
  8
Layer1
 10
651.232
 20
361.325
  0
VERTEX
  8
Layer1
 10
651.207
 20
361.287
  0
VERTEX
  8
Layer1
 10
651.183
 20
361.248
  0
VERTEX
  8
Layer1
 10
651.162
 20
361.208
  0
VERTEX
  8
Layer1
 10
651.143
 20
361.166
  0
VERTEX
  8
Layer1
 10
651.129
 20
361.124
  0
VERTEX
  8
Layer1
 10
651.115
 20
361.08
  0
VERTEX
  8
Layer1
 10
651.105
 20
361.036
  0
VERTEX
  8
Layer1
 10
651.098
 20
360.991
  0
VERTEX
  8
Layer1
 10
651.094
 20
360.945
  0
VERTEX
  8
Layer1
 10
651.092
 20
360.9
  0
VERTEX
  8
Layer1
 10
651.094
 20
360.854
  0
VERTEX
  8
Layer1
 10
651.098
 20
360.809
  0
VERTEX
  8
Layer1
 10
651.105
 20
360.764
  0
VERTEX
  8
Layer1
 10
651.115
 20
360.72
  0
VERTEX
  8
Layer1
 10
651.129
 20
360.676
  0
VERTEX
  8
Layer1
 10
651.144
 20
360.633
  0
VERTEX
  8
Layer1
 10
651.162
 20
360.592
  0
VERTEX
  8
Layer1
 10
651.183
 20
360.551
  0
VERTEX
  8
Layer1
 10
651.207
 20
360.512
  0
VERTEX
  8
Layer1
 10
651.232
 20
360.475
  0
VERTEX
  8
Layer1
 10
651.261
 20
360.439
  0
VERTEX
  8
Layer1
 10
651.292
 20
360.405
  0
VERTEX
  8
Layer1
 10
651.323
 20
360.374
  0
VERTEX
  8
Layer1
 10
651.358
 20
360.344
  0
VERTEX
  8
Layer1
 10
651.394
 20
360.316
  0
VERTEX
  8
Layer1
 10
651.432
 20
360.291
  0
VERTEX
  8
Layer1
 10
651.472
 20
360.269
  0
VERTEX
  8
Layer1
 10
651.513
 20
360.249
  0
VERTEX
  8
Layer1
 10
651.554
 20
360.231
  0
VERTEX
  8
Layer1
 10
651.597
 20
360.216
  0
VERTEX
  8
Layer1
 10
651.641
 20
360.204
  0
VERTEX
  8
Layer1
 10
651.687
 20
360.195
  0
VERTEX
  8
Layer1
 10
651.731
 20
360.189
  0
VERTEX
  8
Layer1
 10
651.776
 20
360.185
  0
VERTEX
  8
Layer1
 10
651.822
 20
360.185
  0
VERTEX
  8
Layer1
 10
651.867
 20
360.187
  0
VERTEX
  8
Layer1
 10
651.912
 20
360.192
  0
VERTEX
  8
Layer1
 10
651.957
 20
360.2
  0
VERTEX
  8
Layer1
 10
652.001
 20
360.211
  0
VERTEX
  8
Layer1
 10
652.045
 20
360.225
  0
VERTEX
  8
Layer1
 10
652.087
 20
360.241
  0
VERTEX
  8
Layer1
 10
652.13
 20
360.261
  0
VERTEX
  8
Layer1
 10
652.169
 20
360.282
  0
VERTEX
  8
Layer1
 10
652.207
 20
360.306
  0
VERTEX
  8
Layer1
 10
652.245
 20
360.333
  0
VERTEX
  8
Layer1
 10
652.279
 20
360.362
  0
SEQEND
  0
LINE
  8
Layer1
  6
CONTINUOUS
 62
7
 10
655.024
 20
361.608
 11
655.024
 21
358.485
  0
LINE
  8
Layer1
  6
CONTINUOUS
 62
7
 10
660.935
 20
361.608
 11
660.935
 21
358.485
  0
LINE
  8
Layer1
  6
CONTINUOUS
 62
7
 10
663.136
 20
354.753
 11
663.136
 21
357.84
  0
LINE
  8
Layer1
  6
CONTINUOUS
 62
7
 10
663.136
 20
357.84
 11
662.017
 21
358.485
  0
LINE
  8
Layer1
  6
CONTINUOUS
 62
7
 10
662.017
 20
358.485
 11
654.115
 21
358.485
  0
LINE
  8
Layer1
  6
CONTINUOUS
 62
7
 10
654.115
 20
358.485
 11
652.996
 21
357.84
  0
LINE
  8
Layer1
  6
CONTINUOUS
 62
7
 10
652.996
 20
357.84
 11
652.996
 21
354.753
  0
LINE
  8
Layer1
  6
CONTINUOUS
 62
7
 10
660.601
 20
354.753
 11
660.601
 21
357.84
  0
LINE
  8
Layer1
  6
CONTINUOUS
 62
7
 10
655.533
 20
354.753
 11
655.533
 21
357.84
  0
POLYLINE
  8
Layer1
  6
CONTINUOUS
 62
7
 66
1
 10
0
 20
0
 30
0
  0
VERTEX
  8
Layer1
 10
660.601
 20
357.84
  0
VERTEX
  8
Layer1
 10
660.498
 20
357.871
  0
VERTEX
  8
Layer1
 10
660.395
 20
357.902
  0
VERTEX
  8
Layer1
 10
660.293
 20
357.931
  0
VERTEX
  8
Layer1
 10
660.189
 20
357.959
  0
VERTEX
  8
Layer1
 10
660.085
 20
357.985
  0
VERTEX
  8
Layer1
 10
659.98
 20
358.01
  0
VERTEX
  8
Layer1
 10
659.876
 20
358.034
  0
VERTEX
  8
Layer1
 10
659.771
 20
358.057
  0
VERTEX
  8
Layer1
 10
659.667
 20
358.078
  0
VERTEX
  8
Layer1
 10
659.561
 20
358.098
  0
VERTEX
  8
Layer1
 10
659.454
 20
358.116
  0
VERTEX
  8
Layer1
 10
659.348
 20
358.133
  0
VERTEX
  8
Layer1
 10
659.242
 20
358.149
  0
VERTEX
  8
Layer1
 10
659.136
 20
358.163
  0
VERTEX
  8
Layer1
 10
659.029
 20
358.176
  0
VERTEX
  8
Layer1
 10
658.923
 20
358.188
  0
VERTEX
  8
Layer1
 10
658.816
 20
358.198
  0
VERTEX
  8
Layer1
 10
658.709
 20
358.207
  0
VERTEX
  8
Layer1
 10
658.602
 20
358.215
  0
VERTEX
  8
Layer1
 10
658.495
 20
358.221
  0
VERTEX
  8
Layer1
 10
658.389
 20
358.226
  0
VERTEX
  8
Layer1
 10
658.281
 20
358.229
  0
VERTEX
  8
Layer1
 10
658.173
 20
358.231
  0
VERTEX
  8
Layer1
 10
658.066
 20
358.232
  0
VERTEX
  8
Layer1
 10
657.959
 20
358.231
  0
VERTEX
  8
Layer1
 10
657.851
 20
358.229
  0
VERTEX
  8
Layer1
 10
657.745
 20
358.226
  0
VERTEX
  8
Layer1
 10
657.638
 20
358.221
  0
VERTEX
  8
Layer1
 10
657.53
 20
358.215
  0
VERTEX
  8
Layer1
 10
657.423
 20
358.207
  0
VERTEX
  8
Layer1
 10
657.316
 20
358.198
  0
VERTEX
  8
Layer1
 10
657.209
 20
358.188
  0
VERTEX
  8
Layer1
 10
657.102
 20
358.176
  0
VERTEX
  8
Layer1
 10
656.996
 20
358.163
  0
VERTEX
  8
Layer1
 10
656.89
 20
358.149
  0
VERTEX
  8
Layer1
 10
656.784
 20
358.133
  0
VERTEX
  8
Layer1
 10
656.678
 20
358.116
  0
VERTEX
  8
Layer1
 10
656.572
 20
358.098
  0
VERTEX
  8
Layer1
 10
656.467
 20
358.078
  0
VERTEX
  8
Layer1
 10
656.361
 20
358.057
  0
VERTEX
  8
Layer1
 10
656.256
 20
358.034
  0
VERTEX
  8
Layer1
 10
656.152
 20
358.01
  0
VERTEX
  8
Layer1
 10
656.047
 20
357.985
  0
VERTEX
  8
Layer1
 10
655.943
 20
357.959
  0
VERTEX
  8
Layer1
 10
655.841
 20
357.931
  0
VERTEX
  8
Layer1
 10
655.737
 20
357.902
  0
VERTEX
  8
Layer1
 10
655.634
 20
357.871
  0
VERTEX
  8
Layer1
 10
655.531
 20
357.84
  0
SEQEND
  0
POLYLINE
  8
Layer1
  6
CONTINUOUS
 62
7
 66
1
 10
0
 20
0
 30
0
  0
VERTEX
  8
Layer1
 10
663.135
 20
357.84
  0
VERTEX
  8
Layer1
 10
663.089
 20
357.871
  0
VERTEX
  8
Layer1
 10
663.041
 20
357.901
  0
VERTEX
  8
Layer1
 10
662.993
 20
357.929
  0
VERTEX
  8
Layer1
 10
662.944
 20
357.957
  0
VERTEX
  8
Layer1
 10
662.895
 20
357.983
  0
VERTEX
  8
Layer1
 10
662.844
 20
358.008
  0
VERTEX
  8
Layer1
 10
662.794
 20
358.032
  0
VERTEX
  8
Layer1
 10
662.742
 20
358.054
  0
VERTEX
  8
Layer1
 10
662.69
 20
358.076
  0
VERTEX
  8
Layer1
 10
662.638
 20
358.096
  0
VERTEX
  8
Layer1
 10
662.585
 20
358.114
  0
VERTEX
  8
Layer1
 10
662.531
 20
358.131
  0
VERTEX
  8
Layer1
 10
662.478
 20
358.147
  0
VERTEX
  8
Layer1
 10
662.423
 20
358.162
  0
VERTEX
  8
Layer1
 10
662.37
 20
358.175
  0
VERTEX
  8
Layer1
 10
662.314
 20
358.187
  0
VERTEX
  8
Layer1
 10
662.26
 20
358.197
  0
VERTEX
  8
Layer1
 10
662.203
 20
358.207
  0
VERTEX
  8
Layer1
 10
662.149
 20
358.214
  0
VERTEX
  8
Layer1
 10
662.092
 20
358.22
  0
VERTEX
  8
Layer1
 10
662.036
 20
358.225
  0
VERTEX
  8
Layer1
 10
661.981
 20
358.229
  0
VERTEX
  8
Layer1
 10
661.924
 20
358.231
  0
VERTEX
  8
Layer1
 10
661.868
 20
358.232
  0
VERTEX
  8
Layer1
 10
661.813
 20
358.231
  0
VERTEX
  8
Layer1
 10
661.756
 20
358.229
  0
VERTEX
  8
Layer1
 10
661.7
 20
358.225
  0
VERTEX
  8
Layer1
 10
661.644
 20
358.22
  0
VERTEX
  8
Layer1
 10
661.588
 20
358.214
  0
VERTEX
  8
Layer1
 10
661.532
 20
358.207
  0
VERTEX
  8
Layer1
 10
661.477
 20
358.197
  0
VERTEX
  8
Layer1
 10
661.423
 20
358.187
  0
VERTEX
  8
Layer1
 10
661.367
 20
358.175
  0
VERTEX
  8
Layer1
 10
661.313
 20
358.162
  0
VERTEX
  8
Layer1
 10
661.258
 20
358.147
  0
VERTEX
  8
Layer1
 10
661.204
 20
358.131
  0
VERTEX
  8
Layer1
 10
661.151
 20
358.114
  0
VERTEX
  8
Layer1
 10
661.098
 20
358.096
  0
VERTEX
  8
Layer1
 10
661.046
 20
358.076
  0
VERTEX
  8
Layer1
 10
660.995
 20
358.054
  0
VERTEX
  8
Layer1
 10
660.943
 20
358.032
  0
VERTEX
  8
Layer1
 10
660.891
 20
358.008
  0
VERTEX
  8
Layer1
 10
660.842
 20
357.983
  0
VERTEX
  8
Layer1
 10
660.793
 20
357.957
  0
VERTEX
  8
Layer1
 10
660.743
 20
357.929
  0
VERTEX
  8
Layer1
 10
660.695
 20
357.901
  0
VERTEX
  8
Layer1
 10
660.647
 20
357.871
  0
VERTEX
  8
Layer1
 10
660.601
 20
357.84
  0
SEQEND
  0
POLYLINE
  8
Layer1
  6
CONTINUOUS
 62
7
 66
1
 10
0
 20
0
 30
0
  0
VERTEX
  8
Layer1
 10
655.533
 20
357.84
  0
VERTEX
  8
Layer1
 10
655.486
 20
357.871
  0
VERTEX
  8
Layer1
 10
655.438
 20
357.901
  0
VERTEX
  8
Layer1
 10
655.39
 20
357.929
  0
VERTEX
  8
Layer1
 10
655.341
 20
357.957
  0
VERTEX
  8
Layer1
 10
655.292
 20
357.983
  0
VERTEX
  8
Layer1
 10
655.241
 20
358.008
  0
VERTEX
  8
Layer1
 10
655.19
 20
358.032
  0
VERTEX
  8
Layer1
 10
655.139
 20
358.054
  0
VERTEX
  8
Layer1
 10
655.086
 20
358.076
  0
VERTEX
  8
Layer1
 10
655.034
 20
358.096
  0
VERTEX
  8
Layer1
 10
654.981
 20
358.114
  0
VERTEX
  8
Layer1
 10
654.928
 20
358.131
  0
VERTEX
  8
Layer1
 10
654.874
 20
358.147
  0
VERTEX
  8
Layer1
 10
654.819
 20
358.162
  0
VERTEX
  8
Layer1
 10
654.765
 20
358.175
  0
VERTEX
  8
Layer1
 10
654.71
 20
358.187
  0
VERTEX
  8
Layer1
 10
654.655
 20
358.197
  0
VERTEX
  8
Layer1
 10
654.601
 20
358.207
  0
VERTEX
  8
Layer1
 10
654.544
 20
358.214
  0
VERTEX
  8
Layer1
 10
654.488
 20
358.22
  0
VERTEX
  8
Layer1
 10
654.432
 20
358.225
  0
VERTEX
  8
Layer1
 10
654.376
 20
358.229
  0
VERTEX
  8
Layer1
 10
654.321
 20
358.231
  0
VERTEX
  8
Layer1
 10
654.265
 20
358.232
  0
VERTEX
  8
Layer1
 10
654.208
 20
358.231
  0
VERTEX
  8
Layer1
 10
654.152
 20
358.229
  0
VERTEX
  8
Layer1
 10
654.096
 20
358.225
  0
VERTEX
  8
Layer1
 10
654.04
 20
358.22
  0
VERTEX
  8
Layer1
 10
653.985
 20
358.214
  0
VERTEX
  8
Layer1
 10
653.929
 20
358.207
  0
VERTEX
  8
Layer1
 10
653.873
 20
358.197
  0
VERTEX
  8
Layer1
 10
653.818
 20
358.187
  0
VERTEX
  8
Layer1
 10
653.764
 20
358.175
  0
VERTEX
  8
Layer1
 10
653.709
 20
358.162
  0
VERTEX
  8
Layer1
 10
653.654
 20
358.147
  0
VERTEX
  8
Layer1
 10
653.601
 20
358.131
  0
VERTEX
  8
Layer1
 10
653.547
 20
358.114
  0
VERTEX
  8
Layer1
 10
653.495
 20
358.096
  0
VERTEX
  8
Layer1
 10
653.442
 20
358.076
  0
VERTEX
  8
Layer1
 10
653.39
 20
358.054
  0
VERTEX
  8
Layer1
 10
653.338
 20
358.032
  0
VERTEX
  8
Layer1
 10
653.288
 20
358.008
  0
VERTEX
  8
Layer1
 10
653.237
 20
357.983
  0
VERTEX
  8
Layer1
 10
653.188
 20
357.957
  0
VERTEX
  8
Layer1
 10
653.14
 20
357.929
  0
VERTEX
  8
Layer1
 10
653.092
 20
357.901
  0
VERTEX
  8
Layer1
 10
653.043
 20
357.871
  0
VERTEX
  8
Layer1
 10
652.997
 20
357.84
  0
SEQEND
  0
POLYLINE
  8
Layer1
  6
CONTINUOUS
 62
7
 66
1
 10
0
 20
0
 30
0
 70
1
  0
VERTEX
  8
Layer1
 10
663.33
 20
361.595
  0
VERTEX
  8
Layer1
 10
663.327
 20
361.667
  0
VERTEX
  8
Layer1
 10
663.313
 20
361.737
  0
VERTEX
  8
Layer1
 10
663.289
 20
361.804
  0
VERTEX
  8
Layer1
 10
663.257
 20
361.868
  0
VERTEX
  8
Layer1
 10
663.218
 20
361.928
  0
VERTEX
  8
Layer1
 10
663.171
 20
361.982
  0
VERTEX
  8
Layer1
 10
663.117
 20
362.029
  0
VERTEX
  8
Layer1
 10
663.058
 20
362.068
  0
VERTEX
  8
Layer1
 10
662.993
 20
362.1
  0
VERTEX
  8
Layer1
 10
662.926
 20
362.123
  0
VERTEX
  8
Layer1
 10
662.856
 20
362.137
  0
VERTEX
  8
Layer1
 10
662.784
 20
362.141
  0
VERTEX
  8
Layer1
 10
662.713
 20
362.137
  0
VERTEX
  8
Layer1
 10
662.644
 20
362.123
  0
VERTEX
  8
Layer1
 10
662.577
 20
362.1
  0
VERTEX
  8
Layer1
 10
662.511
 20
362.068
  0
VERTEX
  8
Layer1
 10
662.452
 20
362.029
  0
VERTEX
  8
Layer1
 10
662.399
 20
361.982
  0
VERTEX
  8
Layer1
 10
662.351
 20
361.928
  0
VERTEX
  8
Layer1
 10
662.313
 20
361.868
  0
VERTEX
  8
Layer1
 10
662.28
 20
361.804
  0
VERTEX
  8
Layer1
 10
662.257
 20
361.737
  0
VERTEX
  8
Layer1
 10
662.243
 20
361.667
  0
VERTEX
  8
Layer1
 10
662.238
 20
361.595
  0
VERTEX
  8
Layer1
 10
662.243
 20
361.524
  0
VERTEX
  8
Layer1
 10
662.257
 20
361.454
  0
VERTEX
  8
Layer1
 10
662.28
 20
361.387
  0
VERTEX
  8
Layer1
 10
662.313
 20
361.322
  0
VERTEX
  8
Layer1
 10
662.351
 20
361.263
  0
VERTEX
  8
Layer1
 10
662.399
 20
361.209
  0
VERTEX
  8
Layer1
 10
662.452
 20
361.162
  0
VERTEX
  8
Layer1
 10
662.511
 20
361.123
  0
VERTEX
  8
Layer1
 10
662.577
 20
361.091
  0
VERTEX
  8
Layer1
 10
662.644
 20
361.068
  0
VERTEX
  8
Layer1
 10
662.713
 20
361.054
  0
VERTEX
  8
Layer1
 10
662.784
 20
361.049
  0
VERTEX
  8
Layer1
 10
662.856
 20
361.054
  0
VERTEX
  8
Layer1
 10
662.926
 20
361.068
  0
VERTEX
  8
Layer1
 10
662.993
 20
361.091
  0
VERTEX
  8
Layer1
 10
663.058
 20
361.123
  0
VERTEX
  8
Layer1
 10
663.117
 20
361.162
  0
VERTEX
  8
Layer1
 10
663.171
 20
361.209
  0
VERTEX
  8
Layer1
 10
663.218
 20
361.263
  0
VERTEX
  8
Layer1
 10
663.257
 20
361.322
  0
VERTEX
  8
Layer1
 10
663.289
 20
361.387
  0
VERTEX
  8
Layer1
 10
663.313
 20
361.454
  0
VERTEX
  8
Layer1
 10
663.327
 20
361.524
  0
SEQEND
  0
LINE
  8
Layer1
  6
CONTINUOUS
 62
7
 10
661.409
 20
354.753
 11
654.566
 21
354.753
  0
POLYLINE
  8
Layer1
  6
CONTINUOUS
 62
7
 66
1
 10
0
 20
0
 30
0
  0
VERTEX
  8
Layer1
 10
640.373
 20
354.735
  0
VERTEX
  8
Layer1
 10
641.075
 20
354.463
  0
VERTEX
  8
Layer1
 10
641.77
 20
354.188
  0
VERTEX
  8
Layer1
 10
642.452
 20
353.907
  0
VERTEX
  8
Layer1
 10
643.112
 20
353.618
  0
VERTEX
  8
Layer1
 10
643.745
 20
353.317
  0
VERTEX
  8
Layer1
 10
644.342
 20
353.003
  0
VERTEX
  8
Layer1
 10
644.895
 20
352.671
  0
VERTEX
  8
Layer1
 10
645.401
 20
352.319
  0
VERTEX
  8
Layer1
 10
645.851
 20
351.945
  0
VERTEX
  8
Layer1
 10
646.237
 20
351.546
  0
VERTEX
  8
Layer1
 10
646.553
 20
351.118
  0
VERTEX
  8
Layer1
 10
646.793
 20
350.658
  0
VERTEX
  8
Layer1
 10
646.947
 20
350.165
  0
VERTEX
  8
Layer1
 10
647.011
 20
349.635
  0
VERTEX
  8
Layer1
 10
646.989
 20
349.07
  0
VERTEX
  8
Layer1
 10
646.904
 20
348.479
  0
VERTEX
  8
Layer1
 10
646.779
 20
347.871
  0
VERTEX
  8
Layer1
 10
646.64
 20
347.254
  0
VERTEX
  8
Layer1
 10
646.509
 20
346.639
  0
VERTEX
  8
Layer1
 10
646.411
 20
346.033
  0
VERTEX
  8
Layer1
 10
646.367
 20
345.446
  0
VERTEX
  8
Layer1
 10
646.384
 20
344.879
  0
VERTEX
  8
Layer1
 10
646.457
 20
344.33
  0
VERTEX
  8
Layer1
 10
646.583
 20
343.8
  0
VERTEX
  8
Layer1
 10
646.759
 20
343.286
  0
VERTEX
  8
Layer1
 10
646.983
 20
342.788
  0
VERTEX
  8
Layer1
 10
647.251
 20
342.304
  0
VERTEX
  8
Layer1
 10
647.561
 20
341.833
  0
VERTEX
  8
Layer1
 10
647.909
 20
341.374
  0
VERTEX
  8
Layer1
 10
648.292
 20
340.926
  0
VERTEX
  8
Layer1
 10
648.707
 20
340.487
  0
VERTEX
  8
Layer1
 10
649.151
 20
340.057
  0
VERTEX
  8
Layer1
 10
649.622
 20
339.635
  0
VERTEX
  8
Layer1
 10
650.116
 20
339.218
  0
VERTEX
  8
Layer1
 10
650.63
 20
338.807
  0
VERTEX
  8
Layer1
 10
651.161
 20
338.4
  0
VERTEX
  8
Layer1
 10
651.707
 20
337.995
  0
VERTEX
  8
Layer1
 10
652.264
 20
337.592
  0
VERTEX
  8
Layer1
 10
652.828
 20
337.19
  0
VERTEX
  8
Layer1
 10
653.399
 20
336.787
  0
VERTEX
  8
Layer1
 10
653.97
 20
336.382
  0
VERTEX
  8
Layer1
 10
654.542
 20
335.973
  0
VERTEX
  8
Layer1
 10
655.108
 20
335.561
  0
VERTEX
  8
Layer1
 10
655.668
 20
335.143
  0
VERTEX
  8
Layer1
 10
656.217
 20
334.719
  0
VERTEX
  8
Layer1
 10
656.755
 20
334.288
  0
VERTEX
  8
Layer1
 10
657.275
 20
333.847
  0
VERTEX
  8
Layer1
 10
657.779
 20
333.397
  0
VERTEX
  8
Layer1
 10
658.265
 20
332.939
  0
VERTEX
  8
Layer1
 10
658.729
 20
332.472
  0
VERTEX
  8
Layer1
 10
659.174
 20
331.995
  0
VERTEX
  8
Layer1
 10
659.597
 20
331.51
  0
VERTEX
  8
Layer1
 10
659.997
 20
331.016
  0
VERTEX
  8
Layer1
 10
660.374
 20
330.514
  0
VERTEX
  8
Layer1
 10
660.726
 20
330.003
  0
VERTEX
  8
Layer1
 10
661.053
 20
329.483
  0
VERTEX
  8
Layer1
 10
661.351
 20
328.955
  0
VERTEX
  8
Layer1
 10
661.623
 20
328.418
  0
VERTEX
  8
Layer1
 10
661.866
 20
327.873
  0
VERTEX
  8
Layer1
 10
662.079
 20
327.32
  0
VERTEX
  8
Layer1
 10
662.261
 20
326.758
  0
VERTEX
  8
Layer1
 10
662.412
 20
326.188
  0
VERTEX
  8
Layer1
 10
662.529
 20
325.61
  0
VERTEX
  8
Layer1
 10
662.613
 20
325.024
  0
VERTEX
  8
Layer1
 10
662.661
 20
324.43
  0
VERTEX
  8
Layer1
 10
662.675
 20
323.828
  0
VERTEX
  8
Layer1
 10
662.662
 20
323.22
  0
VERTEX
  8
Layer1
 10
662.63
 20
322.607
  0
VERTEX
  8
Layer1
 10
662.588
 20
321.992
  0
VERTEX
  8
Layer1
 10
662.544
 20
321.375
  0
VERTEX
  8
Layer1
 10
662.51
 20
320.76
  0
VERTEX
  8
Layer1
 10
662.491
 20
320.147
  0
VERTEX
  8
Layer1
 10
662.496
 20
319.539
  0
VERTEX
  8
Layer1
 10
662.536
 20
318.936
  0
VERTEX
  8
Layer1
 10
662.62
 20
318.342
  0
VERTEX
  8
Layer1
 10
662.753
 20
317.757
  0
VERTEX
  8
Layer1
 10
662.949
 20
317.184
  0
VERTEX
  8
Layer1
 10
663.21
 20
316.623
  0
VERTEX
  8
Layer1
 10
663.527
 20
316.075
  0
VERTEX
  8
Layer1
 10
663.888
 20
315.535
  0
VERTEX
  8
Layer1
 10
664.276
 20
315.004
  0
VERTEX
  8
Layer1
 10
664.679
 20
314.479
  0
VERTEX
  8
Layer1
 10
665.082
 20
313.958
  0
VERTEX
  8
Layer1
 10
665.471
 20
313.438
  0
VERTEX
  8
Layer1
 10
665.832
 20
312.92
  0
VERTEX
  8
Layer1
 10
666.149
 20
312.399
  0
VERTEX
  8
Layer1
 10
666.411
 20
311.875
  0
VERTEX
  8
Layer1
 10
666.602
 20
311.345
  0
VERTEX
  8
Layer1
 10
666.708
 20
310.808
  0
VERTEX
  8
Layer1
 10
666.717
 20
310.262
  0
VERTEX
  8
Layer1
 10
666.616
 20
309.706
  0
VERTEX
  8
Layer1
 10
666.429
 20
309.139
  0
VERTEX
  8
Layer1
 10
666.193
 20
308.566
  0
VERTEX
  8
Layer1
 10
665.944
 20
307.989
  0
VERTEX
  8
Layer1
 10
665.715
 20
307.409
  0
VERTEX
  8
Layer1
 10
665.515
 20
306.828
  0
VERTEX
  8
Layer1
 10
665.344
 20
306.245
  0
VERTEX
  8
Layer1
 10
665.2
 20
305.661
  0
VERTEX
  8
Layer1
 10
665.082
 20
305.076
  0
VERTEX
  8
Layer1
 10
664.991
 20
304.49
  0
VERTEX
  8
Layer1
 10
664.925
 20
303.902
  0
VERTEX
  8
Layer1
 10
664.882
 20
303.313
  0
VERTEX
  8
Layer1
 10
664.863
 20
302.723
  0
VERTEX
  8
Layer1
 10
664.866
 20
302.132
  0
VERTEX
  8
Layer1
 10
664.89
 20
301.54
  0
VERTEX
  8
Layer1
 10
664.934
 20
300.947
  0
VERTEX
  8
Layer1
 10
664.998
 20
300.353
  0
VERTEX
  8
Layer1
 10
665.082
 20
299.758
  0
VERTEX
  8
Layer1
 10
665.183
 20
299.162
  0
VERTEX
  8
Layer1
 10
665.299
 20
298.566
  0
VERTEX
  8
Layer1
 10
665.433
 20
297.968
  0
VERTEX
  8
Layer1
 10
665.582
 20
297.37
  0
VERTEX
  8
Layer1
 10
665.745
 20
296.771
  0
VERTEX
  8
Layer1
 10
665.92
 20
296.172
  0
VERTEX
  8
Layer1
 10
666.109
 20
295.572
  0
VERTEX
  8
Layer1
 10
666.309
 20
294.971
  0
VERTEX
  8
Layer1
 10
666.52
 20
294.37
  0
VERTEX
  8
Layer1
 10
666.741
 20
293.768
  0
VERTEX
  8
Layer1
 10
666.971
 20
293.166
  0
VERTEX
  8
Layer1
 10
667.208
 20
292.564
  0
VERTEX
  8
Layer1
 10
667.452
 20
291.961
  0
VERTEX
  8
Layer1
 10
667.703
 20
291.358
  0
VERTEX
  8
Layer1
 10
667.959
 20
290.754
  0
VERTEX
  8
Layer1
 10
668.221
 20
290.151
  0
VERTEX
  8
Layer1
 10
668.484
 20
289.547
  0
VERTEX
  8
Layer1
 10
668.751
 20
288.943
  0
VERTEX
  8
Layer1
 10
669.019
 20
288.339
  0
VERTEX
  8
Layer1
 10
669.289
 20
287.735
  0
SEQEND
  0
LINE
  8
Layer1
  6
CONTINUOUS
 62
7
 10
669.649
 20
353.753
 11
669.649
 21
341.66
  0
LINE
  8
Layer1
  6
CONTINUOUS
 62
7
 10
653.649
 20
353.735
 11
646.649
 21
353.735
  0
LINE
  8
Layer1
  6
CONTINUOUS
 62
7
 10
662.409
 20
354.753
 11
660.601
 21
354.753
  0
LINE
  8
Layer1
  6
CONTINUOUS
 62
7
 10
653.566
 20
354.753
 11
655.533
 21
354.753
  0
LINE
  8
Layer1
  6
CONTINUOUS
 62
7
 10
646.649
 20
353.735
 11
645.649
 21
354.735
  0
LINE
  8
Layer1
  6
CONTINUOUS
 62
7
 10
653.649
 20
353.735
 11
654.649
 21
354.735
  0
LINE
  8
Layer1
  6
CONTINUOUS
 62
7
 10
653.566
 20
341.66
 11
654.566
 21
340.66
  0
LINE
  8
Layer1
  6
CONTINUOUS
 62
7
 10
688.175
 20
340.735
 11
626.225
 21
340.735
  0
LINE
  8
Layer1
  6
CONTINUOUS
 62
7
 10
647.988
 20
341.66
 11
653.649
 21
341.66
  0
LINE
  8
Layer1
  6
CENTER1
 62
7
 10
650.149
 20
354.87
 11
650.149
 21
277.294
  0
LINE
  8
Layer1
  6
CONTINUOUS
 62
7
 10
626.149
 20
310.735
 11
627.149
 21
310.735
  0
LINE
  8
Layer1
  6
CENTER1
 62
7
 10
681.149
 20
362.141
 11
681.149
 21
329.819
  0
LINE
  8
Layer1
  6
CENTER1
 62
7
 10
635.149
 20
334.16
 11
635.149
 21
360.591
  0
LINE
  8
Layer1
  6
CONTINUOUS
 62
7
 10
605.149
 20
311.755
 11
605.149
 21
339.735
  0
LINE
  8
Layer1
  6
CONTINUOUS
 62
7
 10
624.149
 20
340.735
 11
606.149
 21
340.735
  0
LINE
  8
Layer1
  6
CONTINUOUS
 62
7
 10
625.149
 20
311.735
 11
625.149
 21
331.16
  0
LINE
  8
Layer1
  6
CONTINUOUS
 62
7
 10
606.169
 20
310.735
 11
624.149
 21
310.735
  0
LINE
  8
Layer1
  6
CONTINUOUS
 62
7
 10
605.149
 20
339.735
 11
606.149
 21
340.735
  0
LINE
  8
Layer1
  6
CONTINUOUS
 62
7
 10
625.149
 20
339.735
 11
624.149
 21
340.735
  0
LINE
  8
Layer1
  6
CONTINUOUS
 62
7
 10
625.149
 20
311.735
 11
624.149
 21
310.735
  0
LINE
  8
Layer1
  6
CONTINUOUS
 62
7
 10
606.169
 20
310.735
 11
605.149
 21
311.755
  0
LINE
  8
Layer1
  6
CONTINUOUS
 62
7
 10
685.149
 20
340.735
 11
685.149
 21
345.642
  0
LINE
  8
Layer1
  6
CONTINUOUS
 62
7
 10
606.149
 20
330.16
 11
606.149
 21
338.16
  0
LINE
  8
Layer1
  6
CONTINUOUS
 62
7
 10
612.149
 20
331.66
 11
625.149
 21
331.66
  0
LINE
  8
Layer1
  6
CONTINUOUS
 62
7
 10
607.149
 20
339.16
 11
612.149
 21
339.16
  0
LINE
  8
Layer1
  6
CONTINUOUS
 62
7
 10
607.149
 20
329.16
 11
612.149
 21
329.16
  0
LINE
  8
Layer1
  6
CONTINUOUS
 62
7
 10
612.149
 20
339.66
 11
612.149
 21
328.66
  0
LINE
  8
Layer1
  6
CONTINUOUS
 62
7
 10
606.149
 20
330.16
 11
607.149
 21
329.16
  0
LINE
  8
Layer1
  6
CONTINUOUS
 62
7
 10
612.149
 20
339.66
 11
605.149
 21
339.66
  0
LINE
  8
Layer1
  6
CONTINUOUS
 62
7
 10
612.149
 20
328.66
 11
605.149
 21
328.66
  0
LINE
  8
Layer1
  6
CONTINUOUS
 62
7
 10
607.149
 20
339.16
 11
607.149
 21
329.16
  0
LINE
  8
Layer1
  6
CONTINUOUS
 62
7
 10
607.149
 20
339.16
 11
612.149
 21
339.16
  0
LINE
  8
Layer1
  6
CONTINUOUS
 62
7
 10
606.149
 20
338.16
 11
607.149
 21
339.16
  0
LINE
  8
Layer1
  6
CONTINUOUS
 62
7
 10
612.149
 20
339.16
 11
607.149
 21
339.16
  0
LINE
  8
Layer1
  6
CONTINUOUS
 62
7
 10
611.899
 20
338.66
 11
607.399
 21
338.66
  0
LINE
  8
Layer1
  6
CONTINUOUS
 62
7
 10
611.399
 20
337.66
 11
607.899
 21
337.66
  0
LINE
  8
Layer1
  6
CONTINUOUS
 62
7
 10
610.899
 20
336.66
 11
608.399
 21
336.66
  0
POLYLINE
  8
Layer1
  6
CONTINUOUS
 62
7
 66
1
 10
0
 20
0
 30
0
  0
VERTEX
  8
Layer1
 10
605.149
 20
325.697
  0
VERTEX
  8
Layer1
 10
605.472
 20
325.71
  0
VERTEX
  8
Layer1
 10
605.795
 20
325.724
  0
VERTEX
  8
Layer1
 10
606.119
 20
325.739
  0
VERTEX
  8
Layer1
 10
606.441
 20
325.755
  0
VERTEX
  8
Layer1
 10
606.765
 20
325.774
  0
VERTEX
  8
Layer1
 10
607.087
 20
325.795
  0
VERTEX
  8
Layer1
 10
607.41
 20
325.82
  0
VERTEX
  8
Layer1
 10
607.732
 20
325.849
  0
VERTEX
  8
Layer1
 10
608.055
 20
325.883
  0
VERTEX
  8
Layer1
 10
608.377
 20
325.922
  0
VERTEX
  8
Layer1
 10
608.699
 20
325.966
  0
VERTEX
  8
Layer1
 10
609.021
 20
326.017
  0
VERTEX
  8
Layer1
 10
609.343
 20
326.075
  0
VERTEX
  8
Layer1
 10
609.664
 20
326.14
  0
VERTEX
  8
Layer1
 10
609.986
 20
326.213
  0
VERTEX
  8
Layer1
 10
610.306
 20
326.295
  0
VERTEX
  8
Layer1
 10
610.626
 20
326.385
  0
VERTEX
  8
Layer1
 10
610.947
 20
326.486
  0
VERTEX
  8
Layer1
 10
611.266
 20
326.597
  0
VERTEX
  8
Layer1
 10
611.585
 20
326.717
  0
VERTEX
  8
Layer1
 10
611.904
 20
326.845
  0
VERTEX
  8
Layer1
 10
612.223
 20
326.98
  0
VERTEX
  8
Layer1
 10
612.542
 20
327.12
  0
VERTEX
  8
Layer1
 10
612.858
 20
327.263
  0
VERTEX
  8
Layer1
 10
613.177
 20
327.409
  0
VERTEX
  8
Layer1
 10
613.494
 20
327.555
  0
VERTEX
  8
Layer1
 10
613.809
 20
327.7
  0
VERTEX
  8
Layer1
 10
614.125
 20
327.843
  0
VERTEX
  8
Layer1
 10
614.44
 20
327.983
  0
VERTEX
  8
Layer1
 10
614.755
 20
328.117
  0
VERTEX
  8
Layer1
 10
615.071
 20
328.244
  0
VERTEX
  8
Layer1
 10
615.384
 20
328.363
  0
VERTEX
  8
Layer1
 10
615.697
 20
328.473
  0
VERTEX
  8
Layer1
 10
616.01
 20
328.571
  0
VERTEX
  8
Layer1
 10
616.323
 20
328.657
  0
VERTEX
  8
Layer1
 10
616.634
 20
328.729
  0
VERTEX
  8
Layer1
 10
616.947
 20
328.785
  0
VERTEX
  8
Layer1
 10
617.256
 20
328.824
  0
VERTEX
  8
Layer1
 10
617.567
 20
328.845
  0
VERTEX
  8
Layer1
 10
617.876
 20
328.846
  0
VERTEX
  8
Layer1
 10
618.186
 20
328.825
  0
VERTEX
  8
Layer1
 10
618.494
 20
328.782
  0
VERTEX
  8
Layer1
 10
618.802
 20
328.714
  0
VERTEX
  8
Layer1
 10
619.108
 20
328.621
  0
VERTEX
  8
Layer1
 10
619.415
 20
328.503
  0
VERTEX
  8
Layer1
 10
619.72
 20
328.366
  0
VERTEX
  8
Layer1
 10
620.026
 20
328.215
  0
VERTEX
  8
Layer1
 10
620.331
 20
328.055
  0
VERTEX
  8
Layer1
 10
620.635
 20
327.893
  0
VERTEX
  8
Layer1
 10
620.938
 20
327.733
  0
VERTEX
  8
Layer1
 10
621.241
 20
327.581
  0
VERTEX
  8
Layer1
 10
621.544
 20
327.442
  0
VERTEX
  8
Layer1
 10
621.846
 20
327.322
  0
VERTEX
  8
Layer1
 10
622.149
 20
327.226
  0
VERTEX
  8
Layer1
 10
622.449
 20
327.16
  0
VERTEX
  8
Layer1
 10
622.75
 20
327.128
  0
VERTEX
  8
Layer1
 10
623.052
 20
327.137
  0
VERTEX
  8
Layer1
 10
623.351
 20
327.188
  0
VERTEX
  8
Layer1
 10
623.651
 20
327.276
  0
VERTEX
  8
Layer1
 10
623.951
 20
327.393
  0
VERTEX
  8
Layer1
 10
624.251
 20
327.536
  0
VERTEX
  8
Layer1
 10
624.55
 20
327.696
  0
VERTEX
  8
Layer1
 10
624.851
 20
327.869
  0
VERTEX
  8
Layer1
 10
625.149
 20
328.048
  0
SEQEND
  0
LINE
  8
Layer1
  6
CONTINUOUS
 62
7
 10
625.149
 20
337.16
 11
612.26
 21
337.16
  0
LINE
  8
Layer1
  6
CONTINUOUS
 62
7
 10
625.149
 20
331.16
 11
612.26
 21
331.16
  0
LINE
  8
Layer1
  6
PHANTOM1
 62
7
 10
690.092
 20
377.735
 11
730.092
 21
377.735
  0
LINE
  8
Layer1
  6
PHANTOM1
 62
7
 10
690.092
 20
365.735
 11
730.092
 21
365.735
  0
LINE
  8
Layer1
  6
CENTER1
 62
7
 10
696.381
 20
547.01
 11
705.267
 21
547.01
  0
POLYLINE
  8
Layer1
  6
CONTINUOUS
 62
7
 66
1
 10
0
 20
0
 30
0
  0
VERTEX
  8
Layer1
 10
707.351
 20
553.951
  0
VERTEX
  8
Layer1
 10
707.303
 20
553.461
  0
VERTEX
  8
Layer1
 10
707.253
 20
552.97
  0
VERTEX
  8
Layer1
 10
707.203
 20
552.479
  0
VERTEX
  8
Layer1
 10
707.151
 20
551.988
  0
VERTEX
  8
Layer1
 10
707.096
 20
551.497
  0
VERTEX
  8
Layer1
 10
707.039
 20
551.005
  0
VERTEX
  8
Layer1
 10
706.977
 20
550.512
  0
VERTEX
  8
Layer1
 10
706.91
 20
550.018
  0
VERTEX
  8
Layer1
 10
706.839
 20
549.524
  0
VERTEX
  8
Layer1
 10
706.761
 20
549.029
  0
VERTEX
  8
Layer1
 10
706.678
 20
548.533
  0
VERTEX
  8
Layer1
 10
706.587
 20
548.035
  0
VERTEX
  8
Layer1
 10
706.487
 20
547.537
  0
VERTEX
  8
Layer1
 10
706.38
 20
547.037
  0
VERTEX
  8
Layer1
 10
706.263
 20
546.535
  0
VERTEX
  8
Layer1
 10
706.136
 20
546.032
  0
VERTEX
  8
Layer1
 10
706
 20
545.528
  0
VERTEX
  8
Layer1
 10
705.852
 20
545.023
  0
VERTEX
  8
Layer1
 10
705.693
 20
544.52
  0
VERTEX
  8
Layer1
 10
705.521
 20
544.019
  0
VERTEX
  8
Layer1
 10
705.337
 20
543.523
  0
VERTEX
  8
Layer1
 10
705.14
 20
543.033
  0
VERTEX
  8
Layer1
 10
704.929
 20
542.552
  0
VERTEX
  8
Layer1
 10
704.704
 20
542.079
  0
VERTEX
  8
Layer1
 10
704.464
 20
541.618
  0
VERTEX
  8
Layer1
 10
704.208
 20
541.17
  0
VERTEX
  8
Layer1
 10
703.938
 20
540.736
  0
VERTEX
  8
Layer1
 10
703.65
 20
540.318
  0
VERTEX
  8
Layer1
 10
703.346
 20
539.918
  0
VERTEX
  8
Layer1
 10
703.024
 20
539.537
  0
VERTEX
  8
Layer1
 10
702.684
 20
539.177
  0
VERTEX
  8
Layer1
 10
702.325
 20
538.84
  0
VERTEX
  8
Layer1
 10
701.948
 20
538.527
  0
VERTEX
  8
Layer1
 10
701.551
 20
538.24
  0
VERTEX
  8
Layer1
 10
701.135
 20
537.981
  0
VERTEX
  8
Layer1
 10
700.698
 20
537.747
  0
VERTEX
  8
Layer1
 10
700.246
 20
537.536
  0
VERTEX
  8
Layer1
 10
699.781
 20
537.343
  0
VERTEX
  8
Layer1
 10
699.306
 20
537.164
  0
VERTEX
  8
Layer1
 10
698.824
 20
536.996
  0
VERTEX
  8
Layer1
 10
698.337
 20
536.835
  0
VERTEX
  8
Layer1
 10
697.849
 20
536.677
  0
VERTEX
  8
Layer1
 10
697.362
 20
536.518
  0
VERTEX
  8
Layer1
 10
696.88
 20
536.354
  0
VERTEX
  8
Layer1
 10
696.404
 20
536.182
  0
VERTEX
  8
Layer1
 10
695.938
 20
535.998
  0
VERTEX
  8
Layer1
 10
695.484
 20
535.797
  0
VERTEX
  8
Layer1
 10
695.046
 20
535.576
  0
VERTEX
  8
Layer1
 10
694.627
 20
535.332
  0
VERTEX
  8
Layer1
 10
694.228
 20
535.06
  0
VERTEX
  8
Layer1
 10
693.851
 20
534.762
  0
VERTEX
  8
Layer1
 10
693.492
 20
534.438
  0
VERTEX
  8
Layer1
 10
693.151
 20
534.092
  0
VERTEX
  8
Layer1
 10
692.827
 20
533.724
  0
VERTEX
  8
Layer1
 10
692.517
 20
533.337
  0
VERTEX
  8
Layer1
 10
692.221
 20
532.933
  0
VERTEX
  8
Layer1
 10
691.936
 20
532.514
  0
VERTEX
  8
Layer1
 10
691.661
 20
532.081
  0
VERTEX
  8
Layer1
 10
691.396
 20
531.637
  0
VERTEX
  8
Layer1
 10
691.138
 20
531.183
  0
VERTEX
  8
Layer1
 10
690.885
 20
530.722
  0
VERTEX
  8
Layer1
 10
690.637
 20
530.254
  0
VERTEX
  8
Layer1
 10
690.392
 20
529.783
  0
VERTEX
  8
Layer1
 10
690.149
 20
529.31
  0
SEQEND
  0
LINE
  8
Layer1
  6
PHANTOM1
 62
7
 10
690.149
 20
532.01
 11
690.149
 21
508.369
  0
LINE
  8
Layer1
  6
DASHED1
 62
7
 10
719.887
 20
359.854
 11
719.887
 21
397.735
  0
LINE
  8
Layer1
  6
DASHED1
 62
7
 10
699.887
 20
362.854
 11
699.887
 21
397.735
  0
LINE
  8
Layer1
  6
DASHED1
 62
7
 10
717.887
 20
357.854
 11
704.887
 21
357.854
  0
LINE
  8
Layer1
  6
DASHED1
 62
7
 10
704.887
 20
357.854
 11
699.887
 21
362.854
  0
LINE
  8
Layer1
  6
DASHED1
 62
7
 10
717.887
 20
357.854
 11
719.887
 21
359.854
  0
LINE
  8
Layer1
  6
CENTER1
 62
7
 10
721.944
 20
403.606
 11
721.944
 21
382.411
  0
LINE
  8
Layer1
  6
CENTER1
 62
7
 10
697.944
 20
403.606
 11
697.944
 21
380.099
  0
LINE
  8
Layer1
  6
CONTINUOUS
 62
7
 10
687.649
 20
352.753
 11
687.649
 21
345.753
  0
LINE
  8
Layer1
  6
CONTINUOUS
 62
7
 10
674.649
 20
352.753
 11
674.649
 21
345.753
  0
LINE
  8
Layer1
  6
CONTINUOUS
 62
7
 10
688.299
 20
345.753
 11
674
 21
345.753
  0
LINE
  8
Layer1
  6
CONTINUOUS
 62
7
 10
675.949
 20
353.753
 11
674.649
 21
352.753
  0
LINE
  8
Layer1
  6
CONTINUOUS
 62
7
 10
687.649
 20
352.753
 11
674.649
 21
352.753
  0
LINE
  8
Layer1
  6
CONTINUOUS
 62
7
 10
675.949
 20
353.753
 11
686.349
 21
353.753
  0
LINE
  8
Layer1
  6
CONTINUOUS
 62
7
 10
686.349
 20
353.753
 11
687.649
 21
352.753
  0
LINE
  8
Layer1
  6
CONTINUOUS
 62
7
 10
688.299
 20
345.753
 11
688.299
 21
354.528
  0
LINE
  8
Layer1
  6
CONTINUOUS
 62
7
 10
674
 20
345.753
 11
674
 21
354.735
  0
LINE
  8
Layer1
  6
CONTINUOUS
 62
7
 10
687.649
 20
350.753
 11
687.649
 21
345.753
  0
LINE
  8
Layer1
  6
CONTINUOUS
 62
7
 10
687.649
 20
345.753
 11
687.649
 21
352.753
  0
LINE
  8
Layer1
  6
CONTINUOUS
 62
7
 10
687
 20
346.003
 11
687
 21
352.403
  0
LINE
  8
Layer1
  6
CONTINUOUS
 62
7
 10
685.699
 20
346.503
 11
685.699
 21
351.703
  0
LINE
  8
Layer1
  6
CONTINUOUS
 62
7
 10
684.399
 20
347.003
 11
684.399
 21
351.003
  0
LINE
  8
Layer1
  6
CONTINUOUS
 62
7
 10
681.149
 20
352.753
 11
681.149
 21
345.753
  0
LINE
  8
Layer1
  6
CONTINUOUS
 62
7
 10
677.149
 20
345.753
 11
677.149
 21
340.735
  0
LINE
  8
Layer1
  6
CONTINUOUS
 62
7
 10
745.149
 20
324.241
 11
750.924
 21
324.241
  0
LINE
  8
Layer1
  6
CONTINUOUS
 62
7
 10
750.924
 20
324.241
 11
751.649
 21
322.985
  0
LINE
  8
Layer1
  6
CONTINUOUS
 62
7
 10
751.649
 20
322.985
 11
751.649
 21
310.485
  0
LINE
  8
Layer1
  6
CONTINUOUS
 62
7
 10
751.649
 20
310.485
 11
750.924
 21
309.229
  0
LINE
  8
Layer1
  6
CONTINUOUS
 62
7
 10
750.924
 20
309.229
 11
745.149
 21
309.229
  0
LINE
  8
Layer1
  6
CONTINUOUS
 62
7
 10
745.149
 20
320.488
 11
750.924
 21
320.488
  0
LINE
  8
Layer1
  6
CONTINUOUS
 62
7
 10
745.149
 20
312.982
 11
750.924
 21
312.982
  0
LINE
  8
Layer1
  6
CONTINUOUS
 62
7
 10
751.649
 20
320.735
 11
753.949
 21
320.735
  0
LINE
  8
Layer1
  6
CONTINUOUS
 62
7
 10
751.649
 20
312.735
 11
753.949
 21
312.735
  0
LINE
  8
Layer1
  6
CONTINUOUS
 62
7
 10
753.949
 20
320.735
 11
753.949
 21
312.735
  0
LINE
  8
Layer1
  6
CONTINUOUS
 62
7
 10
755.149
 20
319.535
 11
755.149
 21
313.935
  0
LINE
  8
Layer1
  6
CONTINUOUS
 62
7
 10
753.949
 20
320.735
 11
755.149
 21
319.535
  0
LINE
  8
Layer1
  6
CONTINUOUS
 62
7
 10
753.949
 20
312.735
 11
755.149
 21
313.935
  0
LINE
  8
Layer1
  6
CONTINUOUS
 62
7
 10
751.649
 20
320.135
 11
754.549
 21
320.135
  0
LINE
  8
Layer1
  6
CONTINUOUS
 62
7
 10
751.649
 20
313.335
 11
754.549
 21
313.335
  0
ARC
  8
Layer1
  6
CONTINUOUS
 62
7
 10
739.085
 20
316.735
 40
12.419
 50
342.412
 51
17.588
  0
ARC
  8
Layer1
  6
CONTINUOUS
 62
7
 10
748.183
 20
322.364
 40
3.323
 50
325.616
 51
34.384
  0
ARC
  8
Layer1
  6
CONTINUOUS
 62
7
 10
748.183
 20
311.106
 40
3.323
 50
325.616
 51
34.384
  0
LINE
  8
Layer1
  6
CONTINUOUS
 62
7
 10
745.149
 20
324.241
 11
745.149
 21
309.229
  0
LINE
  8
Layer1
  6
CONTINUOUS
 62
7
 10
729.067
 20
319.535
 11
729.067
 21
313.935
  0
LINE
  8
Layer1
  6
CONTINUOUS
 62
7
 10
730.067
 20
320.535
 11
729.067
 21
319.535
  0
LINE
  8
Layer1
  6
CONTINUOUS
 62
7
 10
730.067
 20
312.935
 11
729.067
 21
313.935
  0
LINE
  8
Layer1
  6
CONTINUOUS
 62
7
 10
730.149
 20
313.335
 11
729.666
 21
313.335
  0
LINE
  8
Layer1
  6
CONTINUOUS
 62
7
 10
730.149
 20
320.135
 11
729.666
 21
320.135
  0
LINE
  8
Layer1
  6
CONTINUOUS
 62
7
 10
628.149
 20
557.01
 11
687.977
 21
557.01
  0
LINE
  8
Layer1
  6
PHANTOM1
 62
7
 10
691.149
 20
554.01
 11
707.351
 21
554.01
  0
LINE
  8
Layer1
  6
CONTINUOUS
 62
7
 10
628.149
 20
451.01
 11
687.977
 21
451.01
  0
LINE
  8
Layer1
  6
CONTINUOUS
 62
7
 10
691.149
 20
454.01
 11
729.149
 21
454.01
  0
LINE
  8
Layer1
  6
CENTER1
 62
7
 10
635.149
 20
536.552
 11
635.149
 21
559.683
  0
LINE
  8
Layer1
  6
CONTINUOUS
 62
7
 10
729.149
 20
557.01
 11
687.977
 21
557.01
  0
LINE
  8
Layer1
  6
CONTINUOUS
 62
7
 10
729.149
 20
451.01
 11
687.977
 21
451.01
  0
LINE
  8
Layer1
  6
CONTINUOUS
 62
7
 10
689.149
 20
555.839
 11
687.977
 21
557.01
  0
LINE
  8
Layer1
  6
CONTINUOUS
 62
7
 10
689.149
 20
452.182
 11
687.977
 21
451.01
  0
LINE
  8
Layer1
  6
CONTINUOUS
 62
7
 10
627.149
 20
452.01
 11
628.149
 21
451.01
  0
LINE
  8
Layer1
  6
CONTINUOUS
 62
7
 10
628.149
 20
557.01
 11
627.149
 21
556.01
  0
LINE
  8
Layer1
  6
CENTER1
 62
7
 10
707.149
 20
545.01
 11
692.631
 21
545.01
  0
LINE
  8
Layer1
  6
PHANTOM1
 62
7
 10
690.149
 20
553.01
 11
690.149
 21
529.31
  0
LINE
  8
Layer1
  6
CONTINUOUS
 62
7
 10
729.149
 20
554.01
 11
707.351
 21
554.01
  0
LINE
  8
Layer1
  6
CONTINUOUS
 62
7
 10
690.149
 20
553.01
 11
691.149
 21
554.01
  0
LINE
  8
Layer1
  6
CONTINUOUS
 62
7
 10
729.149
 20
554.01
 11
730.149
 21
553.01
  0
LINE
  8
Layer1
  6
CONTINUOUS
 62
7
 10
730.149
 20
455.01
 11
729.149
 21
454.01
  0
LINE
  8
Layer1
  6
CONTINUOUS
 62
7
 10
691.149
 20
454.01
 11
690.149
 21
455.01
  0
LINE
  8
Layer1
  6
CONTINUOUS
 62
7
 10
729.149
 20
557.01
 11
730.149
 21
556.01
  0
LINE
  8
Layer1
  6
CONTINUOUS
 62
7
 10
729.149
 20
451.01
 11
730.149
 21
452.01
  0
LINE
  8
Layer1
  6
CONTINUOUS
 62
7
 10
731.149
 20
557.01
 11
730.149
 21
556.01
  0
LINE
  8
Layer1
  6
CONTINUOUS
 62
7
 10
731.149
 20
451.01
 11
730.149
 21
452.01
  0
LINE
  8
Layer1
  6
DASHED1
 62
7
 10
627.066
 20
471.51
 11
730.149
 21
471.51
  0
LINE
  8
Layer1
  6
CONTINUOUS
 62
7
 10
659.066
 20
536.01
 11
657.066
 21
536.01
  0
LINE
  8
Layer1
  6
CONTINUOUS
 62
7
 10
657.066
 20
472.01
 11
659.066
 21
472.01
  0
LINE
  8
Layer1
  6
CONTINUOUS
 62
7
 10
701.887
 20
524.01
 11
717.887
 21
524.01
  0
LINE
  8
Layer1
  6
CONTINUOUS
 62
7
 10
701.887
 20
484.01
 11
717.887
 21
484.01
  0
LINE
  8
Layer1
  6
CONTINUOUS
 62
7
 10
719.887
 20
486.01
 11
719.887
 21
522.01
  0
LINE
  8
Layer1
  6
CONTINUOUS
 62
7
 10
699.887
 20
486.01
 11
699.887
 21
522.01
  0
ARC
  8
Layer1
  6
CONTINUOUS
 62
7
 10
701.887
 20
522.01
 40
2
 50
90
 51
180
  0
ARC
  8
Layer1
  6
CONTINUOUS
 62
7
 10
717.887
 20
522.01
 40
2
 50
0
 51
90
  0
ARC
  8
Layer1
  6
CONTINUOUS
 62
7
 10
717.887
 20
486.01
 40
2
 50
270
 51
0
  0
ARC
  8
Layer1
  6
CONTINUOUS
 62
7
 10
701.887
 20
486.01
 40
2
 50
180
 51
270
  0
LINE
  8
Layer1
  6
CONTINUOUS
 62
7
 10
667.247
 20
292.281
 11
688.995
 21
292.281
  0
LINE
  8
Layer1
  6
CONTINUOUS
 62
7
 10
713.067
 20
292.281
 11
713.067
 21
296.031
  0
LINE
  8
Layer1
  6
CONTINUOUS
 62
7
 10
676.271
 20
307.281
 11
673.947
 21
307.281
  0
LINE
  8
Layer1
  6
CONTINUOUS
 62
7
 10
671.623
 20
307.281
 11
669.3
 21
307.281
  0
LINE
  8
Layer1
  6
CONTINUOUS
 62
7
 10
666.976
 20
307.281
 11
665.57
 21
307.281
  0
LINE
  8
Layer1
  6
CONTINUOUS
 62
7
 10
675.497
 20
292.281
 11
677.82
 21
292.281
  0
LINE
  8
Layer1
  6
CONTINUOUS
 62
7
 10
698.736
 20
292.281
 11
701.059
 21
292.281
  0
LINE
  8
Layer1
  6
CONTINUOUS
 62
7
 10
713.067
 20
307.281
 11
711.13
 21
307.281
  0
LINE
  8
Layer1
  6
CONTINUOUS
 62
7
 10
697.186
 20
303.536
 11
699.51
 21
303.536
  0
LINE
  8
Layer1
  6
CONTINUOUS
 62
7
 10
698.736
 20
296.046
 11
701.059
 21
296.046
  0
LINE
  8
Layer1
  6
CONTINUOUS
 62
7
 10
699.51
 20
307.281
 11
699.51
 21
303.536
  0
LINE
  8
Layer1
  6
CONTINUOUS
 62
7
 10
697.186
 20
307.281
 11
697.186
 21
303.536
  0
LINE
  8
Layer1
  6
CONTINUOUS
 62
7
 10
698.736
 20
296.046
 11
698.736
 21
292.281
  0
LINE
  8
Layer1
  6
CONTINUOUS
 62
7
 10
701.059
 20
296.046
 11
701.059
 21
292.281
  0
LINE
  8
Layer1
  6
CONTINUOUS
 62
7
 10
697.186
 20
303.536
 11
698.736
 21
296.046
  0
LINE
  8
Layer1
  6
CONTINUOUS
 62
7
 10
699.51
 20
303.536
 11
701.059
 21
296.046
  0
LINE
  8
Layer1
  6
CONTINUOUS
 62
7
 10
697.962
 20
299.791
 11
698.736
 21
292.281
  0
LINE
  8
Layer1
  6
CONTINUOUS
 62
7
 10
699.704
 20
307.281
 11
700.285
 21
299.791
  0
LINE
  8
Layer1
  6
CONTINUOUS
 62
7
 10
703.383
 20
292.281
 11
705.707
 21
292.281
  0
LINE
  8
Layer1
  6
CONTINUOUS
 62
7
 10
704.159
 20
307.281
 11
701.834
 21
307.281
  0
LINE
  8
Layer1
  6
CONTINUOUS
 62
7
 10
701.834
 20
303.536
 11
704.159
 21
303.536
  0
LINE
  8
Layer1
  6
CONTINUOUS
 62
7
 10
703.383
 20
296.046
 11
705.707
 21
296.046
  0
LINE
  8
Layer1
  6
CONTINUOUS
 62
7
 10
704.159
 20
307.281
 11
704.159
 21
303.536
  0
LINE
  8
Layer1
  6
CONTINUOUS
 62
7
 10
701.834
 20
307.281
 11
701.834
 21
303.536
  0
LINE
  8
Layer1
  6
CONTINUOUS
 62
7
 10
703.383
 20
296.046
 11
703.383
 21
292.281
  0
LINE
  8
Layer1
  6
CONTINUOUS
 62
7
 10
705.707
 20
296.046
 11
705.707
 21
292.281
  0
LINE
  8
Layer1
  6
CONTINUOUS
 62
7
 10
701.834
 20
303.536
 11
703.383
 21
296.046
  0
LINE
  8
Layer1
  6
CONTINUOUS
 62
7
 10
704.159
 20
303.536
 11
705.707
 21
296.046
  0
LINE
  8
Layer1
  6
CONTINUOUS
 62
7
 10
702.609
 20
299.791
 11
703.383
 21
292.281
  0
LINE
  8
Layer1
  6
CONTINUOUS
 62
7
 10
704.351
 20
307.281
 11
704.933
 21
299.791
  0
LINE
  8
Layer1
  6
CONTINUOUS
 62
7
 10
708.031
 20
292.281
 11
710.356
 21
292.281
  0
LINE
  8
Layer1
  6
CONTINUOUS
 62
7
 10
708.806
 20
307.281
 11
706.482
 21
307.281
  0
LINE
  8
Layer1
  6
CONTINUOUS
 62
7
 10
706.482
 20
303.536
 11
708.806
 21
303.536
  0
LINE
  8
Layer1
  6
CONTINUOUS
 62
7
 10
708.031
 20
296.046
 11
710.356
 21
296.046
  0
LINE
  8
Layer1
  6
CONTINUOUS
 62
7
 10
708.806
 20
307.281
 11
708.806
 21
303.536
  0
LINE
  8
Layer1
  6
CONTINUOUS
 62
7
 10
706.482
 20
307.281
 11
706.482
 21
303.536
  0
LINE
  8
Layer1
  6
CONTINUOUS
 62
7
 10
708.031
 20
296.046
 11
708.031
 21
292.281
  0
LINE
  8
Layer1
  6
CONTINUOUS
 62
7
 10
710.356
 20
296.046
 11
710.356
 21
292.281
  0
LINE
  8
Layer1
  6
CONTINUOUS
 62
7
 10
706.482
 20
303.536
 11
708.031
 21
296.046
  0
LINE
  8
Layer1
  6
CONTINUOUS
 62
7
 10
708.806
 20
303.536
 11
710.356
 21
296.046
  0
LINE
  8
Layer1
  6
CONTINUOUS
 62
7
 10
707.256
 20
299.791
 11
708.031
 21
292.281
  0
LINE
  8
Layer1
  6
CONTINUOUS
 62
7
 10
709
 20
307.281
 11
709.58
 21
299.791
  0
LINE
  8
Layer1
  6
CONTINUOUS
 62
7
 10
711.13
 20
303.536
 11
713.067
 21
303.531
  0
LINE
  8
Layer1
  6
CONTINUOUS
 62
7
 10
711.13
 20
307.281
 11
711.13
 21
303.536
  0
LINE
  8
Layer1
  6
CONTINUOUS
 62
7
 10
711.13
 20
303.536
 11
712.679
 21
296.046
  0
LINE
  8
Layer1
  6
CONTINUOUS
 62
7
 10
711.904
 20
299.791
 11
712.679
 21
292.281
  0
LINE
  8
Layer1
  6
CONTINUOUS
 62
7
 10
699.51
 20
307.281
 11
697.186
 21
307.281
  0
LINE
  8
Layer1
  6
CONTINUOUS
 62
7
 10
694.862
 20
307.281
 11
692.539
 21
307.281
  0
LINE
  8
Layer1
  6
CONTINUOUS
 62
7
 10
690.215
 20
307.281
 11
687.891
 21
307.281
  0
LINE
  8
Layer1
  6
CONTINUOUS
 62
7
 10
676.271
 20
307.281
 11
673.947
 21
307.281
  0
LINE
  8
Layer1
  6
CONTINUOUS
 62
7
 10
673.947
 20
303.536
 11
676.271
 21
303.536
  0
LINE
  8
Layer1
  6
CONTINUOUS
 62
7
 10
675.497
 20
296.046
 11
677.82
 21
296.046
  0
LINE
  8
Layer1
  6
CONTINUOUS
 62
7
 10
676.271
 20
307.281
 11
676.271
 21
303.536
  0
LINE
  8
Layer1
  6
CONTINUOUS
 62
7
 10
673.947
 20
307.281
 11
673.947
 21
303.536
  0
LINE
  8
Layer1
  6
CONTINUOUS
 62
7
 10
675.497
 20
296.046
 11
675.497
 21
292.281
  0
LINE
  8
Layer1
  6
CONTINUOUS
 62
7
 10
677.82
 20
296.046
 11
677.82
 21
292.281
  0
LINE
  8
Layer1
  6
CONTINUOUS
 62
7
 10
673.947
 20
303.536
 11
675.497
 21
296.046
  0
LINE
  8
Layer1
  6
CONTINUOUS
 62
7
 10
676.271
 20
303.536
 11
677.82
 21
296.046
  0
LINE
  8
Layer1
  6
CONTINUOUS
 62
7
 10
674.722
 20
299.791
 11
675.497
 21
292.281
  0
LINE
  8
Layer1
  6
CONTINUOUS
 62
7
 10
676.465
 20
307.281
 11
677.046
 21
299.791
  0
LINE
  8
Layer1
  6
CONTINUOUS
 62
7
 10
680.144
 20
292.281
 11
682.468
 21
292.281
  0
LINE
  8
Layer1
  6
CONTINUOUS
 62
7
 10
680.919
 20
307.281
 11
678.596
 21
307.281
  0
LINE
  8
Layer1
  6
CONTINUOUS
 62
7
 10
678.596
 20
303.536
 11
680.919
 21
303.536
  0
LINE
  8
Layer1
  6
CONTINUOUS
 62
7
 10
680.144
 20
296.046
 11
682.468
 21
296.046
  0
LINE
  8
Layer1
  6
CONTINUOUS
 62
7
 10
680.919
 20
307.281
 11
680.919
 21
303.536
  0
LINE
  8
Layer1
  6
CONTINUOUS
 62
7
 10
678.596
 20
307.281
 11
678.596
 21
303.536
  0
LINE
  8
Layer1
  6
CONTINUOUS
 62
7
 10
680.144
 20
296.046
 11
680.144
 21
292.281
  0
LINE
  8
Layer1
  6
CONTINUOUS
 62
7
 10
682.468
 20
296.046
 11
682.468
 21
292.281
  0
LINE
  8
Layer1
  6
CONTINUOUS
 62
7
 10
678.596
 20
303.536
 11
680.144
 21
296.046
  0
LINE
  8
Layer1
  6
CONTINUOUS
 62
7
 10
680.919
 20
303.536
 11
682.468
 21
296.046
  0
LINE
  8
Layer1
  6
CONTINUOUS
 62
7
 10
679.37
 20
299.791
 11
680.144
 21
292.281
  0
LINE
  8
Layer1
  6
CONTINUOUS
 62
7
 10
681.113
 20
307.281
 11
681.694
 21
299.791
  0
LINE
  8
Layer1
  6
CONTINUOUS
 62
7
 10
684.793
 20
292.281
 11
687.116
 21
292.281
  0
LINE
  8
Layer1
  6
CONTINUOUS
 62
7
 10
685.568
 20
307.281
 11
683.243
 21
307.281
  0
LINE
  8
Layer1
  6
CONTINUOUS
 62
7
 10
683.243
 20
303.536
 11
685.568
 21
303.536
  0
LINE
  8
Layer1
  6
CONTINUOUS
 62
7
 10
684.793
 20
296.046
 11
687.116
 21
296.046
  0
LINE
  8
Layer1
  6
CONTINUOUS
 62
7
 10
685.568
 20
307.281
 11
685.568
 21
303.536
  0
LINE
  8
Layer1
  6
CONTINUOUS
 62
7
 10
683.243
 20
307.281
 11
683.243
 21
303.536
  0
LINE
  8
Layer1
  6
CONTINUOUS
 62
7
 10
684.793
 20
296.046
 11
684.793
 21
292.281
  0
LINE
  8
Layer1
  6
CONTINUOUS
 62
7
 10
687.116
 20
296.046
 11
687.116
 21
292.281
  0
LINE
  8
Layer1
  6
CONTINUOUS
 62
7
 10
683.243
 20
303.536
 11
684.793
 21
296.046
  0
LINE
  8
Layer1
  6
CONTINUOUS
 62
7
 10
685.568
 20
303.536
 11
687.116
 21
296.046
  0
LINE
  8
Layer1
  6
CONTINUOUS
 62
7
 10
684.017
 20
299.791
 11
684.793
 21
292.281
  0
LINE
  8
Layer1
  6
CONTINUOUS
 62
7
 10
685.76
 20
307.281
 11
686.342
 21
299.791
  0
LINE
  8
Layer1
  6
CONTINUOUS
 62
7
 10
689.44
 20
292.281
 11
691.765
 21
292.281
  0
LINE
  8
Layer1
  6
CONTINUOUS
 62
7
 10
690.215
 20
307.281
 11
687.891
 21
307.281
  0
LINE
  8
Layer1
  6
CONTINUOUS
 62
7
 10
687.891
 20
303.536
 11
690.215
 21
303.536
  0
LINE
  8
Layer1
  6
CONTINUOUS
 62
7
 10
689.44
 20
296.046
 11
691.765
 21
296.046
  0
LINE
  8
Layer1
  6
CONTINUOUS
 62
7
 10
690.215
 20
307.281
 11
690.215
 21
303.536
  0
LINE
  8
Layer1
  6
CONTINUOUS
 62
7
 10
687.891
 20
307.281
 11
687.891
 21
303.536
  0
LINE
  8
Layer1
  6
CONTINUOUS
 62
7
 10
689.44
 20
296.046
 11
689.44
 21
292.281
  0
LINE
  8
Layer1
  6
CONTINUOUS
 62
7
 10
691.765
 20
296.046
 11
691.765
 21
292.281
  0
LINE
  8
Layer1
  6
CONTINUOUS
 62
7
 10
687.891
 20
303.536
 11
689.44
 21
296.046
  0
LINE
  8
Layer1
  6
CONTINUOUS
 62
7
 10
690.215
 20
303.536
 11
691.765
 21
296.046
  0
LINE
  8
Layer1
  6
CONTINUOUS
 62
7
 10
688.665
 20
299.791
 11
689.44
 21
292.281
  0
LINE
  8
Layer1
  6
CONTINUOUS
 62
7
 10
690.409
 20
307.281
 11
690.989
 21
299.791
  0
LINE
  8
Layer1
  6
CONTINUOUS
 62
7
 10
694.088
 20
292.281
 11
696.412
 21
292.281
  0
LINE
  8
Layer1
  6
CONTINUOUS
 62
7
 10
694.862
 20
307.281
 11
692.539
 21
307.281
  0
LINE
  8
Layer1
  6
CONTINUOUS
 62
7
 10
692.539
 20
303.536
 11
694.862
 21
303.536
  0
LINE
  8
Layer1
  6
CONTINUOUS
 62
7
 10
694.088
 20
296.046
 11
696.412
 21
296.046
  0
LINE
  8
Layer1
  6
CONTINUOUS
 62
7
 10
694.862
 20
307.281
 11
694.862
 21
303.536
  0
LINE
  8
Layer1
  6
CONTINUOUS
 62
7
 10
692.539
 20
307.281
 11
692.539
 21
303.536
  0
LINE
  8
Layer1
  6
CONTINUOUS
 62
7
 10
694.088
 20
296.046
 11
694.088
 21
292.281
  0
LINE
  8
Layer1
  6
CONTINUOUS
 62
7
 10
696.412
 20
296.046
 11
696.412
 21
292.281
  0
LINE
  8
Layer1
  6
CONTINUOUS
 62
7
 10
692.539
 20
303.536
 11
694.088
 21
296.046
  0
LINE
  8
Layer1
  6
CONTINUOUS
 62
7
 10
694.862
 20
303.536
 11
696.412
 21
296.046
  0
LINE
  8
Layer1
  6
CONTINUOUS
 62
7
 10
693.313
 20
299.791
 11
694.088
 21
292.281
  0
LINE
  8
Layer1
  6
CONTINUOUS
 62
7
 10
695.056
 20
307.281
 11
695.637
 21
299.791
  0
LINE
  8
Layer1
  6
CONTINUOUS
 62
7
 10
698.736
 20
292.281
 11
701.059
 21
292.281
  0
LINE
  8
Layer1
  6
CONTINUOUS
 62
7
 10
699.51
 20
307.281
 11
697.186
 21
307.281
  0
LINE
  8
Layer1
  6
CONTINUOUS
 62
7
 10
697.186
 20
303.536
 11
699.51
 21
303.536
  0
LINE
  8
Layer1
  6
CONTINUOUS
 62
7
 10
698.736
 20
296.046
 11
701.059
 21
296.046
  0
LINE
  8
Layer1
  6
CONTINUOUS
 62
7
 10
699.51
 20
307.281
 11
699.51
 21
303.536
  0
LINE
  8
Layer1
  6
CONTINUOUS
 62
7
 10
697.186
 20
307.281
 11
697.186
 21
303.536
  0
LINE
  8
Layer1
  6
CONTINUOUS
 62
7
 10
698.736
 20
296.046
 11
698.736
 21
292.281
  0
LINE
  8
Layer1
  6
CONTINUOUS
 62
7
 10
701.059
 20
296.046
 11
701.059
 21
292.281
  0
LINE
  8
Layer1
  6
CONTINUOUS
 62
7
 10
697.186
 20
303.536
 11
698.736
 21
296.046
  0
LINE
  8
Layer1
  6
CONTINUOUS
 62
7
 10
699.51
 20
303.536
 11
701.059
 21
296.046
  0
LINE
  8
Layer1
  6
CONTINUOUS
 62
7
 10
697.962
 20
299.791
 11
698.736
 21
292.281
  0
LINE
  8
Layer1
  6
CONTINUOUS
 62
7
 10
699.704
 20
307.281
 11
700.285
 21
299.791
  0
LINE
  8
Layer1
  6
CONTINUOUS
 62
7
 10
670.849
 20
292.281
 11
673.173
 21
292.281
  0
LINE
  8
Layer1
  6
CONTINUOUS
 62
7
 10
671.623
 20
307.281
 11
669.3
 21
307.281
  0
LINE
  8
Layer1
  6
CONTINUOUS
 62
7
 10
669.3
 20
303.536
 11
671.623
 21
303.536
  0
LINE
  8
Layer1
  6
CONTINUOUS
 62
7
 10
670.849
 20
296.046
 11
673.173
 21
296.046
  0
LINE
  8
Layer1
  6
CONTINUOUS
 62
7
 10
671.623
 20
307.281
 11
671.623
 21
303.536
  0
LINE
  8
Layer1
  6
CONTINUOUS
 62
7
 10
669.3
 20
307.281
 11
669.3
 21
303.536
  0
LINE
  8
Layer1
  6
CONTINUOUS
 62
7
 10
670.849
 20
296.046
 11
670.849
 21
292.281
  0
LINE
  8
Layer1
  6
CONTINUOUS
 62
7
 10
673.173
 20
296.046
 11
673.173
 21
292.281
  0
LINE
  8
Layer1
  6
CONTINUOUS
 62
7
 10
669.3
 20
303.536
 11
670.849
 21
296.046
  0
LINE
  8
Layer1
  6
CONTINUOUS
 62
7
 10
671.623
 20
303.536
 11
673.173
 21
296.046
  0
LINE
  8
Layer1
  6
CONTINUOUS
 62
7
 10
670.074
 20
299.791
 11
670.849
 21
292.281
  0
LINE
  8
Layer1
  6
CONTINUOUS
 62
7
 10
671.818
 20
307.281
 11
672.399
 21
299.791
  0
LINE
  8
Layer1
  6
CONTINUOUS
 62
7
 10
665.465
 20
303.536
 11
666.976
 21
303.536
  0
LINE
  8
Layer1
  6
CONTINUOUS
 62
7
 10
666.202
 20
296.046
 11
668.525
 21
296.046
  0
LINE
  8
Layer1
  6
CONTINUOUS
 62
7
 10
666.976
 20
307.281
 11
666.976
 21
303.536
  0
LINE
  8
Layer1
  6
CONTINUOUS
 62
7
 10
668.525
 20
296.046
 11
668.525
 21
293.178
  0
LINE
  8
Layer1
  6
CONTINUOUS
 62
7
 10
665.426
 20
299.791
 11
666.202
 21
296.046
  0
LINE
  8
Layer1
  6
CONTINUOUS
 62
7
 10
666.976
 20
303.536
 11
668.525
 21
296.046
  0
LINE
  8
Layer1
  6
CONTINUOUS
 62
7
 10
667.169
 20
307.281
 11
667.75
 21
299.791
  0
LINE
  8
Layer1
  6
CONTINUOUS
 62
7
 10
712.679
 20
292.281
 11
713.067
 21
292.281
  0
LINE
  8
Layer1
  6
CONTINUOUS
 62
7
 10
712.679
 20
296.046
 11
713.067
 21
296.031
  0
LINE
  8
Layer1
  6
CONTINUOUS
 62
7
 10
712.679
 20
296.046
 11
712.679
 21
292.281
  0
LINE
  8
Layer1
  6
CONTINUOUS
 62
7
 10
689.368
 20
307.267
 11
689.368
 21
310.66
  0
LINE
  8
Layer1
  6
CONTINUOUS
 62
7
 10
745.149
 20
324.235
 11
752.649
 21
324.235
  0
LINE
  8
Layer1
  6
CONTINUOUS
 62
7
 10
745.149
 20
337.235
 11
752.649
 21
337.235
  0
LINE
  8
Layer1
  6
CONTINUOUS
 62
7
 10
752.649
 20
324.235
 11
752.649
 21
337.235
  0
LINE
  8
Layer1
  6
CONTINUOUS
 62
7
 10
753.149
 20
324.735
 11
753.149
 21
336.735
  0
LINE
  8
Layer1
  6
CONTINUOUS
 62
7
 10
752.649
 20
324.235
 11
753.149
 21
324.735
  0
LINE
  8
Layer1
  6
CONTINUOUS
 62
7
 10
752.649
 20
337.235
 11
753.149
 21
336.735
  0
LINE
  8
Layer1
  6
CONTINUOUS
 62
7
 10
745.149
 20
337.235
 11
745.149
 21
324.235
  0
LINE
  8
Layer1
  6
CONTINUOUS
 62
7
 10
745.726
 20
336.235
 11
752.072
 21
336.235
  0
LINE
  8
Layer1
  6
CONTINUOUS
 62
7
 10
746.303
 20
335.235
 11
751.495
 21
335.235
  0
LINE
  8
Layer1
  6
CONTINUOUS
 62
7
 10
746.88
 20
334.235
 11
750.918
 21
334.235
  0
LINE
  8
Layer1
  6
CONTINUOUS
 62
7
 10
747.457
 20
333.235
 11
750.342
 21
333.235
  0
LINE
  8
Layer1
  6
CONTINUOUS
 62
7
 10
745.149
 20
301.404
 11
752.649
 21
301.404
  0
LINE
  8
Layer1
  6
CONTINUOUS
 62
7
 10
752.649
 20
301.404
 11
752.649
 21
312.735
  0
LINE
  8
Layer1
  6
CONTINUOUS
 62
7
 10
753.149
 20
301.904
 11
753.149
 21
312.735
  0
LINE
  8
Layer1
  6
CONTINUOUS
 62
7
 10
752.649
 20
301.404
 11
753.149
 21
301.904
  0
LINE
  8
Layer1
  6
CONTINUOUS
 62
7
 10
745.149
 20
314.404
 11
745.149
 21
301.404
  0
TEXT
  8
Layer1
 62
7
 10
766.007
 20
292.735
 72
1
 11
766.007
 21
292.735
 40
8
 41
1
 50
90
  1
 10 
  0
LINE
  8
Layer1
  6
CONTINUOUS
 62
7
 10
729.149
 20
287.735
 11
772.007
 21
287.735
  0
LINE
  8
Layer1
  6
CONTINUOUS
 62
7
 10
744.149
 20
297.735
 11
772.007
 21
297.735
  0
POLYLINE
  8
Layer1
  6
CONTINUOUS
 62
7
 66
1
 10
0
 20
0
 30
0
  0
VERTEX
  8
Layer1
 10
766.007
 20
281.735
  0
VERTEX
  8
Layer1
 10
766.007
 20
287.735
  0
SEQEND
  0
POLYLINE
  8
Layer1
  6
CONTINUOUS
 62
7
 66
1
 10
0
 20
0
 30
0
 70
1
  0
VERTEX
  8
Layer1
 10
764.972
 20
283.871
  0
VERTEX
  8
Layer1
 10
766.007
 20
287.735
  0
VERTEX
  8
Layer1
 10
767.043
 20
283.871
  0
SEQEND
  0
POLYLINE
  8
Layer1
  6
CONTINUOUS
 62
7
 66
1
 10
0
 20
0
 30
0
  0
VERTEX
  8
Layer1
 10
766.007
 20
303.735
  0
VERTEX
  8
Layer1
 10
766.007
 20
297.735
  0
SEQEND
  0
POLYLINE
  8
Layer1
  6
CONTINUOUS
 62
7
 66
1
 10
0
 20
0
 30
0
 70
1
  0
VERTEX
  8
Layer1
 10
767.043
 20
301.599
  0
VERTEX
  8
Layer1
 10
766.007
 20
297.735
  0
VERTEX
  8
Layer1
 10
764.972
 20
301.599
  0
SEQEND
  0
LINE
  8
Layer1
  6
CONTINUOUS
 62
7
 10
766.007
 20
287.735
 11
766.007
 21
297.735
  0
TEXT
  8
Layer1
 62
7
 10
766.007
 20
319.235
 72
1
 11
766.007
 21
319.235
 40
8
 41
1
 50
90
  1
23
  0
LINE
  8
Layer1
  6
CONTINUOUS
 62
7
 10
748.526
 20
307.735
 11
772.007
 21
307.735
  0
LINE
  8
Layer1
  6
CONTINUOUS
 62
7
 10
752.649
 20
330.735
 11
772.007
 21
330.735
  0
POLYLINE
  8
Layer1
  6
CONTINUOUS
 62
7
 66
1
 10
0
 20
0
 30
0
  0
VERTEX
  8
Layer1
 10
766.007
 20
307.735
  0
VERTEX
  8
Layer1
 10
766.007
 20
330.735
  0
SEQEND
  0
POLYLINE
  8
Layer1
  6
CONTINUOUS
 62
7
 66
1
 10
0
 20
0
 30
0
 70
1
  0
VERTEX
  8
Layer1
 10
767.043
 20
311.599
  0
VERTEX
  8
Layer1
 10
766.007
 20
307.735
  0
VERTEX
  8
Layer1
 10
764.972
 20
311.599
  0
SEQEND
  0
POLYLINE
  8
Layer1
  6
CONTINUOUS
 62
7
 66
1
 10
0
 20
0
 30
0
 70
1
  0
VERTEX
  8
Layer1
 10
764.972
 20
326.871
  0
VERTEX
  8
Layer1
 10
766.007
 20
330.735
  0
VERTEX
  8
Layer1
 10
767.043
 20
326.871
  0
SEQEND
  0
TEXT
  8
Layer1
 62
7
 10
766.007
 20
302.735
 72
1
 11
766.007
 21
302.735
 40
8
 41
1
 50
90
  1
10
  0
LINE
  8
Layer1
  6
CONTINUOUS
 62
7
 10
763.912
 20
307.735
 11
772.007
 21
307.735
  0
POLYLINE
  8
Layer1
  6
CONTINUOUS
 62
7
 66
1
 10
0
 20
0
 30
0
  0
VERTEX
  8
Layer1
 10
766.007
 20
307.735
  0
VERTEX
  8
Layer1
 10
766.007
 20
297.735
  0
SEQEND
  0
POLYLINE
  8
Layer1
  6
CONTINUOUS
 62
7
 66
1
 10
0
 20
0
 30
0
 70
1
  0
VERTEX
  8
Layer1
 10
764.972
 20
303.871
  0
VERTEX
  8
Layer1
 10
766.007
 20
307.735
  0
VERTEX
  8
Layer1
 10
767.043
 20
303.871
  0
SEQEND
  0
POLYLINE
  8
Layer1
  6
CONTINUOUS
 62
7
 66
1
 10
0
 20
0
 30
0
 70
1
  0
VERTEX
  8
Layer1
 10
767.043
 20
301.599
  0
VERTEX
  8
Layer1
 10
766.007
 20
297.735
  0
VERTEX
  8
Layer1
 10
764.972
 20
301.599
  0
SEQEND
  0
LINE
  8
Layer1
  6
PHANTOM1
 62
7
 10
689.991
 20
340.735
 11
708.481
 21
322.246
  0
LINE
  8
Layer1
  6
PHANTOM1
 62
7
 10
708.481
 20
322.246
 11
708.481
 21
310.66
  0
TEXT
  8
Layer1
 62
7
 10
716.669
 20
353.04
 72
1
 11
716.669
 21
353.04
 40
8
 41
1
 50
22.5
  1
 45°
  0
ARC
  8
Layer1
  6
CONTINUOUS
 62
7
 10
730.092
 20
320.634
 40
35.0761
 50
90
 51
135
  0
TEXT
  8
Layer1
 62
7
 10
800.443
 20
342.785
 72
1
 11
800.443
 21
342.785
 40
8
 41
1
 50
90
  1
110
  0
LINE
  8
Layer1
  6
CONTINUOUS
 62
7
 10
729.092
 20
397.735
 11
806.443
 21
397.735
  0
LINE
  8
Layer1
  6
CONTINUOUS
 62
7
 10
765.925
 20
287.836
 11
806.443
 21
287.836
  0
POLYLINE
  8
Layer1
  6
CONTINUOUS
 62
7
 66
1
 10
0
 20
0
 30
0
  0
VERTEX
  8
Layer1
 10
800.443
 20
397.735
  0
VERTEX
  8
Layer1
 10
800.443
 20
287.836
  0
SEQEND
  0
POLYLINE
  8
Layer1
  6
CONTINUOUS
 62
7
 66
1
 10
0
 20
0
 30
0
 70
1
  0
VERTEX
  8
Layer1
 10
799.406
 20
393.871
  0
VERTEX
  8
Layer1
 10
800.443
 20
397.735
  0
VERTEX
  8
Layer1
 10
801.477
 20
393.871
  0
SEQEND
  0
POLYLINE
  8
Layer1
  6
CONTINUOUS
 62
7
 66
1
 10
0
 20
0
 30
0
 70
1
  0
VERTEX
  8
Layer1
 10
801.477
 20
291.7
  0
VERTEX
  8
Layer1
 10
800.443
 20
287.836
  0
VERTEX
  8
Layer1
 10
799.406
 20
291.7
  0
SEQEND
  0
TEXT
  8
Layer1
 62
7
 10
783.822
 20
332.836
 72
1
 11
783.822
 21
332.836
 40
8
 41
1
 50
90
  1
 90 
  0
LINE
  8
Layer1
  6
CONTINUOUS
 62
7
 10
730.092
 20
377.836
 11
789.822
 21
377.836
  0
POLYLINE
  8
Layer1
  6
CONTINUOUS
 62
7
 66
1
 10
0
 20
0
 30
0
  0
VERTEX
  8
Layer1
 10
783.822
 20
377.836
  0
VERTEX
  8
Layer1
 10
783.822
 20
287.836
  0
SEQEND
  0
POLYLINE
  8
Layer1
  6
CONTINUOUS
 62
7
 66
1
 10
0
 20
0
 30
0
 70
1
  0
VERTEX
  8
Layer1
 10
782.787
 20
373.972
  0
VERTEX
  8
Layer1
 10
783.822
 20
377.836
  0
VERTEX
  8
Layer1
 10
784.858
 20
373.972
  0
SEQEND
  0
POLYLINE
  8
Layer1
  6
CONTINUOUS
 62
7
 66
1
 10
0
 20
0
 30
0
 70
1
  0
VERTEX
  8
Layer1
 10
784.858
 20
291.7
  0
VERTEX
  8
Layer1
 10
783.822
 20
287.836
  0
VERTEX
  8
Layer1
 10
782.787
 20
291.7
  0
SEQEND
  0
TEXT
  8
Layer1
 62
7
 10
786.078
 20
314.963
 73
3
 11
786.078
 21
314.963
 40
6
 41
1
 50
90
  1
（シャットハイト）
  0
TEXT
  8
Layer1
 62
7
 10
801.534
 20
326.567
 73
3
 11
801.534
 21
326.567
 40
6
 41
1
 50
90
  1
（オープンハイト）
  0
TEXT
  8
Layer1
 62
7
 10
615.149
 20
357.533
 72
1
 11
615.149
 21
357.533
 40
8
 41
1
  1
 20 
  0
LINE
  8
Layer1
  6
CONTINUOUS
 62
7
 10
605.149
 20
339.66
 11
605.149
 21
357.533
  0
LINE
  8
Layer1
  6
CONTINUOUS
 62
7
 10
625.149
 20
339.66
 11
625.149
 21
357.533
  0
POLYLINE
  8
Layer1
  6
CONTINUOUS
 62
7
 66
1
 10
0
 20
0
 30
0
  0
VERTEX
  8
Layer1
 10
605.149
 20
357.533
  0
VERTEX
  8
Layer1
 10
625.149
 20
357.533
  0
SEQEND
  0
POLYLINE
  8
Layer1
  6
CONTINUOUS
 62
7
 66
1
 10
0
 20
0
 30
0
 70
1
  0
VERTEX
  8
Layer1
 10
609.014
 20
356.498
  0
VERTEX
  8
Layer1
 10
605.149
 20
357.533
  0
VERTEX
  8
Layer1
 10
609.014
 20
358.568
  0
SEQEND
  0
POLYLINE
  8
Layer1
  6
CONTINUOUS
 62
7
 66
1
 10
0
 20
0
 30
0
 70
1
  0
VERTEX
  8
Layer1
 10
621.285
 20
358.568
  0
VERTEX
  8
Layer1
 10
625.149
 20
357.533
  0
VERTEX
  8
Layer1
 10
621.285
 20
356.498
  0
SEQEND
  0
TEXT
  8
Layer1
 62
7
 10
626.149
 20
357.533
 72
1
 11
626.149
 21
357.533
 40
8
 41
1
  1
 2 
  0
LINE
  8
Layer1
  6
CONTINUOUS
 62
7
 10
627.149
 20
347.744
 11
627.149
 21
359.27
  0
POLYLINE
  8
Layer1
  6
CONTINUOUS
 62
7
 66
1
 10
0
 20
0
 30
0
  0
VERTEX
  8
Layer1
 10
619.149
 20
357.533
  0
VERTEX
  8
Layer1
 10
625.149
 20
357.533
  0
SEQEND
  0
POLYLINE
  8
Layer1
  6
CONTINUOUS
 62
7
 66
1
 10
0
 20
0
 30
0
 70
1
  0
VERTEX
  8
Layer1
 10
621.285
 20
358.568
  0
VERTEX
  8
Layer1
 10
625.149
 20
357.533
  0
VERTEX
  8
Layer1
 10
621.285
 20
356.498
  0
SEQEND
  0
POLYLINE
  8
Layer1
  6
CONTINUOUS
 62
7
 66
1
 10
0
 20
0
 30
0
  0
VERTEX
  8
Layer1
 10
633.149
 20
357.533
  0
VERTEX
  8
Layer1
 10
627.149
 20
357.533
  0
SEQEND
  0
POLYLINE
  8
Layer1
  6
CONTINUOUS
 62
7
 66
1
 10
0
 20
0
 30
0
 70
1
  0
VERTEX
  8
Layer1
 10
631.014
 20
356.498
  0
VERTEX
  8
Layer1
 10
627.149
 20
357.533
  0
VERTEX
  8
Layer1
 10
631.014
 20
358.568
  0
SEQEND
  0
LINE
  8
Layer1
  6
CONTINUOUS
 62
7
 10
625.149
 20
357.533
 11
627.149
 21
357.533
  0
TEXT
  8
Layer1
 62
7
 10
710.149
 20
420.634
 72
1
 11
710.149
 21
420.634
 40
8
 41
1
  1
 40 
  0
LINE
  8
Layer1
  6
CONTINUOUS
 62
7
 10
690.149
 20
455.878
 11
690.149
 21
414.634
  0
LINE
  8
Layer1
  6
CONTINUOUS
 62
7
 10
730.149
 20
455.01
 11
730.149
 21
414.634
  0
POLYLINE
  8
Layer1
  6
CONTINUOUS
 62
7
 66
1
 10
0
 20
0
 30
0
  0
VERTEX
  8
Layer1
 10
690.149
 20
420.634
  0
VERTEX
  8
Layer1
 10
730.149
 20
420.634
  0
SEQEND
  0
POLYLINE
  8
Layer1
  6
CONTINUOUS
 62
7
 66
1
 10
0
 20
0
 30
0
 70
1
  0
VERTEX
  8
Layer1
 10
694.013
 20
419.599
  0
VERTEX
  8
Layer1
 10
690.149
 20
420.634
  0
VERTEX
  8
Layer1
 10
694.013
 20
421.669
  0
SEQEND
  0
POLYLINE
  8
Layer1
  6
CONTINUOUS
 62
7
 66
1
 10
0
 20
0
 30
0
 70
1
  0
VERTEX
  8
Layer1
 10
726.285
 20
421.669
  0
VERTEX
  8
Layer1
 10
730.149
 20
420.634
  0
VERTEX
  8
Layer1
 10
726.285
 20
419.599
  0
SEQEND
  0
TEXT
  8
Layer1
 62
7
 10
726.22
 20
429.991
 72
1
 11
726.22
 21
429.991
 40
8
 41
1
  1
8
  0
LINE
  8
Layer1
  6
CONTINUOUS
 62
7
 10
698.149
 20
452.009
 11
698.149
 21
423.903
  0
POLYLINE
  8
Layer1
  6
CONTINUOUS
 62
7
 66
1
 10
0
 20
0
 30
0
  0
VERTEX
  8
Layer1
 10
704.149
 20
429.903
  0
VERTEX
  8
Layer1
 10
698.149
 20
429.903
  0
SEQEND
  0
POLYLINE
  8
Layer1
  6
CONTINUOUS
 62
7
 66
1
 10
0
 20
0
 30
0
 70
1
  0
VERTEX
  8
Layer1
 10
702.013
 20
428.867
  0
VERTEX
  8
Layer1
 10
698.149
 20
429.903
  0
VERTEX
  8
Layer1
 10
702.013
 20
430.938
  0
SEQEND
  0
POLYLINE
  8
Layer1
  6
CONTINUOUS
 62
7
 66
1
 10
0
 20
0
 30
0
  0
VERTEX
  8
Layer1
 10
730.149
 20
429.903
  0
VERTEX
  8
Layer1
 10
738.351
 20
429.903
  0
SEQEND
  0
POLYLINE
  8
Layer1
  6
CONTINUOUS
 62
7
 66
1
 10
0
 20
0
 30
0
 70
1
  0
VERTEX
  8
Layer1
 10
734.014
 20
430.938
  0
VERTEX
  8
Layer1
 10
730.149
 20
429.903
  0
VERTEX
  8
Layer1
 10
734.014
 20
428.867
  0
SEQEND
  0
LINE
  8
Layer1
  6
CONTINUOUS
 62
7
 10
730.149
 20
429.903
 11
722.149
 21
429.903
  0
TEXT
  8
Layer1
 62
7
 10
710.149
 20
429.903
 72
1
 11
710.149
 21
429.903
 40
8
 41
1
  1
 24 
  0
LINE
  8
Layer1
  6
CONTINUOUS
 62
7
 10
722.149
 20
455.427
 11
722.149
 21
423.903
  0
POLYLINE
  8
Layer1
  6
CONTINUOUS
 62
7
 66
1
 10
0
 20
0
 30
0
  0
VERTEX
  8
Layer1
 10
698.149
 20
429.903
  0
VERTEX
  8
Layer1
 10
722.149
 20
429.903
  0
SEQEND
  0
POLYLINE
  8
Layer1
  6
CONTINUOUS
 62
7
 66
1
 10
0
 20
0
 30
0
 70
1
  0
VERTEX
  8
Layer1
 10
702.013
 20
428.867
  0
VERTEX
  8
Layer1
 10
698.149
 20
429.903
  0
VERTEX
  8
Layer1
 10
702.013
 20
430.938
  0
SEQEND
  0
POLYLINE
  8
Layer1
  6
CONTINUOUS
 62
7
 66
1
 10
0
 20
0
 30
0
 70
1
  0
VERTEX
  8
Layer1
 10
718.285
 20
430.938
  0
VERTEX
  8
Layer1
 10
722.149
 20
429.903
  0
VERTEX
  8
Layer1
 10
718.285
 20
428.867
  0
SEQEND
  0
TEXT
  8
Layer1
 62
7
 10
678.649
 20
583.312
 72
1
 11
678.649
 21
583.312
 40
8
 41
1
  1
103
  0
LINE
  8
Layer1
  6
CONTINUOUS
 62
7
 10
627.149
 20
554.405
 11
627.149
 21
589.312
  0
LINE
  8
Layer1
  6
CONTINUOUS
 62
7
 10
730.149
 20
553.01
 11
730.149
 21
589.312
  0
POLYLINE
  8
Layer1
  6
CONTINUOUS
 62
7
 66
1
 10
0
 20
0
 30
0
  0
VERTEX
  8
Layer1
 10
627.149
 20
583.312
  0
VERTEX
  8
Layer1
 10
730.149
 20
583.312
  0
SEQEND
  0
POLYLINE
  8
Layer1
  6
CONTINUOUS
 62
7
 66
1
 10
0
 20
0
 30
0
 70
1
  0
VERTEX
  8
Layer1
 10
631.014
 20
582.276
  0
VERTEX
  8
Layer1
 10
627.149
 20
583.312
  0
VERTEX
  8
Layer1
 10
631.014
 20
584.347
  0
SEQEND
  0
POLYLINE
  8
Layer1
  6
CONTINUOUS
 62
7
 66
1
 10
0
 20
0
 30
0
 70
1
  0
VERTEX
  8
Layer1
 10
726.285
 20
584.347
  0
VERTEX
  8
Layer1
 10
730.149
 20
583.312
  0
VERTEX
  8
Layer1
 10
726.285
 20
582.276
  0
SEQEND
  0
TEXT
  8
Layer1
 62
7
 10
638.649
 20
572.445
 72
1
 11
638.649
 21
572.445
 40
8
 41
1
  1
23
  0
LINE
  8
Layer1
  6
CONTINUOUS
 62
7
 10
627.149
 20
556.01
 11
627.149
 21
578.445
  0
LINE
  8
Layer1
  6
CONTINUOUS
 62
7
 10
650.149
 20
554.855
 11
650.149
 21
578.445
  0
POLYLINE
  8
Layer1
  6
CONTINUOUS
 62
7
 66
1
 10
0
 20
0
 30
0
  0
VERTEX
  8
Layer1
 10
627.149
 20
572.445
  0
VERTEX
  8
Layer1
 10
650.149
 20
572.445
  0
SEQEND
  0
POLYLINE
  8
Layer1
  6
CONTINUOUS
 62
7
 66
1
 10
0
 20
0
 30
0
 70
1
  0
VERTEX
  8
Layer1
 10
631.014
 20
571.41
  0
VERTEX
  8
Layer1
 10
627.149
 20
572.445
  0
VERTEX
  8
Layer1
 10
631.014
 20
573.48
  0
SEQEND
  0
POLYLINE
  8
Layer1
  6
CONTINUOUS
 62
7
 66
1
 10
0
 20
0
 30
0
 70
1
  0
VERTEX
  8
Layer1
 10
646.285
 20
573.48
  0
VERTEX
  8
Layer1
 10
650.149
 20
572.445
  0
VERTEX
  8
Layer1
 10
646.285
 20
571.41
  0
SEQEND
  0
TEXT
  8
Layer1
 62
7
 10
675.149
 20
572.445
 72
1
 11
675.149
 21
572.445
 40
8
 41
1
  1
 50 
  0
LINE
  8
Layer1
  6
CONTINUOUS
 62
7
 10
700.149
 20
552.156
 11
700.149
 21
578.445
  0
POLYLINE
  8
Layer1
  6
CONTINUOUS
 62
7
 66
1
 10
0
 20
0
 30
0
  0
VERTEX
  8
Layer1
 10
650.149
 20
572.445
  0
VERTEX
  8
Layer1
 10
700.149
 20
572.445
  0
SEQEND
  0
POLYLINE
  8
Layer1
  6
CONTINUOUS
 62
7
 66
1
 10
0
 20
0
 30
0
 70
1
  0
VERTEX
  8
Layer1
 10
654.014
 20
571.41
  0
VERTEX
  8
Layer1
 10
650.149
 20
572.445
  0
VERTEX
  8
Layer1
 10
654.014
 20
573.48
  0
SEQEND
  0
POLYLINE
  8
Layer1
  6
CONTINUOUS
 62
7
 66
1
 10
0
 20
0
 30
0
 70
1
  0
VERTEX
  8
Layer1
 10
696.285
 20
573.48
  0
VERTEX
  8
Layer1
 10
700.149
 20
572.445
  0
VERTEX
  8
Layer1
 10
696.285
 20
571.41
  0
SEQEND
  0
POLYLINE
  8
Layer1
  6
CONTINUOUS
 62
7
 66
1
 10
0
 20
0
 30
0
  0
VERTEX
  8
Layer1
 10
663.478
 20
458.535
  0
VERTEX
  8
Layer1
 10
647.565
 20
437.74
  0
VERTEX
  8
Layer1
 10
647.565
 20
437.74
  0
SEQEND
  0
POLYLINE
  8
Layer1
  6
CONTINUOUS
 62
7
 66
1
 10
0
 20
0
 30
0
 70
1
  0
VERTEX
  8
Layer1
 10
660.308
 20
456.096
  0
VERTEX
  8
Layer1
 10
663.478
 20
458.535
  0
VERTEX
  8
Layer1
 10
661.952
 20
454.838
  0
SEQEND
  0
LINE
  8
Layer1
  6
CONTINUOUS
 62
7
 10
647.565
 20
437.74
 11
632.565
 21
437.74
  0
TEXT
  8
Layer1
 62
7
 10
632.565
 20
439.74
 40
6
 41
1
  1
2-φ9
  0
POLYLINE
  8
Layer1
  6
CONTINUOUS
 62
7
 66
1
 10
0
 20
0
 30
0
  0
VERTEX
  8
Layer1
 10
645.992
 20
550.899
  0
VERTEX
  8
Layer1
 10
615.528
 20
578.613
  0
VERTEX
  8
Layer1
 10
615.528
 20
578.613
  0
SEQEND
  0
POLYLINE
  8
Layer1
  6
CONTINUOUS
 62
7
 66
1
 10
0
 20
0
 30
0
 70
1
  0
VERTEX
  8
Layer1
 10
643.832
 20
554.265
  0
VERTEX
  8
Layer1
 10
645.992
 20
550.899
  0
VERTEX
  8
Layer1
 10
642.438
 20
552.733
  0
SEQEND
  0
LINE
  8
Layer1
  6
CONTINUOUS
 62
7
 10
615.528
 20
578.613
 11
600.528
 21
578.613
  0
TEXT
  8
Layer1
 62
7
 10
600.528
 20
580.613
 40
6
 41
1
  1
4-φ9
  0
TEXT
  8
Layer1
 62
7
 10
583.759
 20
566.986
 40
6
 41
1
  1
ベース取付穴
  0
TEXT
  8
Layer1
 62
7
 10
631.202
 20
431.92
 40
4
 41
1
  1
ベースノック下穴
  0
TEXT
  8
Layer1
 62
7
 10
646.649
 20
420.634
 72
1
 11
646.649
 21
420.634
 40
8
 41
1
  1
39
  0
LINE
  8
Layer1
  6
CONTINUOUS
 62
7
 10
627.149
 20
453.629
 11
627.149
 21
414.634
  0
LINE
  8
Layer1
  6
CONTINUOUS
 62
7
 10
666.149
 20
452.549
 11
666.149
 21
414.634
  0
POLYLINE
  8
Layer1
  6
CONTINUOUS
 62
7
 66
1
 10
0
 20
0
 30
0
  0
VERTEX
  8
Layer1
 10
627.149
 20
420.634
  0
VERTEX
  8
Layer1
 10
666.149
 20
420.634
  0
SEQEND
  0
POLYLINE
  8
Layer1
  6
CONTINUOUS
 62
7
 66
1
 10
0
 20
0
 30
0
 70
1
  0
VERTEX
  8
Layer1
 10
631.014
 20
419.599
  0
VERTEX
  8
Layer1
 10
627.149
 20
420.634
  0
VERTEX
  8
Layer1
 10
631.014
 20
421.669
  0
SEQEND
  0
POLYLINE
  8
Layer1
  6
CONTINUOUS
 62
7
 66
1
 10
0
 20
0
 30
0
 70
1
  0
VERTEX
  8
Layer1
 10
662.285
 20
421.669
  0
VERTEX
  8
Layer1
 10
666.149
 20
420.634
  0
VERTEX
  8
Layer1
 10
662.285
 20
419.599
  0
SEQEND
  0
POLYLINE
  8
Layer1
  6
CONTINUOUS
 62
7
 66
1
 10
0
 20
0
 30
0
  0
VERTEX
  8
Layer1
 10
747.64
 20
315.734
  0
VERTEX
  8
Layer1
 10
769.375
 20
264.512
  0
VERTEX
  8
Layer1
 10
769.375
 20
264.512
  0
SEQEND
  0
CIRCLE
  8
Layer1
  6
CONTINUOUS
 62
7
 10
747.64
 20
315.734
 40
1
  0
CIRCLE
  8
Layer1
  6
CONTINUOUS
 62
7
 10
771.032
 20
260.606
 40
4.24264
  0
TEXT
  8
Layer1
 62
7
 10
771.032
 20
260.606
 72
1
 73
2
 11
771.032
 21
260.606
 40
6
 41
1
  1
12
  0
POLYLINE
  8
Layer1
  6
CONTINUOUS
 62
7
 66
1
 10
0
 20
0
 30
0
  0
VERTEX
  8
Layer1
 10
722.234
 20
305.769
  0
VERTEX
  8
Layer1
 10
713.367
 20
263.011
  0
VERTEX
  8
Layer1
 10
713.367
 20
263.011
  0
SEQEND
  0
CIRCLE
  8
Layer1
  6
CONTINUOUS
 62
7
 10
722.234
 20
305.769
 40
1
  0
CIRCLE
  8
Layer1
  6
CONTINUOUS
 62
7
 10
712.506
 20
258.857
 40
4.24264
  0
TEXT
  8
Layer1
 62
7
 10
712.506
 20
258.857
 72
1
 73
2
 11
712.506
 21
258.857
 40
6
 41
1
  1
10
  0
POLYLINE
  8
Layer1
  6
CONTINUOUS
 62
7
 66
1
 10
0
 20
0
 30
0
  0
VERTEX
  8
Layer1
 10
715.031
 20
307.763
  0
VERTEX
  8
Layer1
 10
700.83
 20
261.465
  0
VERTEX
  8
Layer1
 10
700.83
 20
261.465
  0
SEQEND
  0
CIRCLE
  8
Layer1
  6
CONTINUOUS
 62
7
 10
715.031
 20
307.763
 40
1
  0
CIRCLE
  8
Layer1
  6
CONTINUOUS
 62
7
 10
699.847
 20
258.259
 40
3.3541
  0
TEXT
  8
Layer1
 62
7
 10
699.847
 20
258.259
 72
1
 73
2
 11
699.847
 21
258.259
 40
6
 41
1
  1
6
  0
POLYLINE
  8
Layer1
  6
CONTINUOUS
 62
7
 66
1
 10
0
 20
0
 30
0
  0
VERTEX
  8
Layer1
 10
698.786
 20
297.09
  0
VERTEX
  8
Layer1
 10
686.207
 20
262.274
  0
VERTEX
  8
Layer1
 10
686.207
 20
262.274
  0
SEQEND
  0
CIRCLE
  8
Layer1
  6
CONTINUOUS
 62
7
 10
698.786
 20
297.09
 40
1
  0
CIRCLE
  8
Layer1
  6
CONTINUOUS
 62
7
 10
685.067
 20
259.119
 40
3.3541
  0
TEXT
  8
Layer1
 62
7
 10
685.067
 20
259.119
 72
1
 73
2
 11
685.067
 21
259.119
 40
6
 41
1
  1
7
  0
POLYLINE
  8
Layer1
  6
CONTINUOUS
 62
7
 66
1
 10
0
 20
0
 30
0
  0
VERTEX
  8
Layer1
 10
636.833
 20
292.565
  0
VERTEX
  8
Layer1
 10
620.673
 20
262.711
  0
VERTEX
  8
Layer1
 10
620.673
 20
262.711
  0
SEQEND
  0
CIRCLE
  8
Layer1
  6
CONTINUOUS
 62
7
 10
636.833
 20
292.565
 40
1
  0
CIRCLE
  8
Layer1
  6
CONTINUOUS
 62
7
 10
619.077
 20
259.761
 40
3.3541
  0
TEXT
  8
Layer1
 62
7
 10
619.077
 20
259.761
 72
1
 73
2
 11
619.077
 21
259.761
 40
6
 41
1
  1
1
  0
POLYLINE
  8
Layer1
  6
CONTINUOUS
 62
7
 66
1
 10
0
 20
0
 30
0
  0
VERTEX
  8
Layer1
 10
671.157
 20
314.981
  0
VERTEX
  8
Layer1
 10
644.483
 20
262.879
  0
VERTEX
  8
Layer1
 10
644.483
 20
262.879
  0
SEQEND
  0
CIRCLE
  8
Layer1
  6
CONTINUOUS
 62
7
 10
671.157
 20
314.981
 40
1
  0
CIRCLE
  8
Layer1
  6
CONTINUOUS
 62
7
 10
642.954
 20
259.894
 40
3.3541
  0
TEXT
  8
Layer1
 62
7
 10
642.954
 20
259.894
 72
1
 73
2
 11
642.954
 21
259.894
 40
6
 41
1
  1
2
  0
POLYLINE
  8
Layer1
  6
CONTINUOUS
 62
7
 66
1
 10
0
 20
0
 30
0
  0
VERTEX
  8
Layer1
 10
617.1
 20
335.204
  0
VERTEX
  8
Layer1
 10
587.653
 20
374.447
  0
VERTEX
  8
Layer1
 10
587.653
 20
374.447
  0
SEQEND
  0
CIRCLE
  8
Layer1
  6
CONTINUOUS
 62
7
 10
617.1
 20
335.204
 40
1
  0
CIRCLE
  8
Layer1
  6
CONTINUOUS
 62
7
 10
585.107
 20
377.841
 40
4.24264
  0
TEXT
  8
Layer1
 62
7
 10
585.107
 20
377.841
 72
1
 73
2
 11
585.107
 21
377.841
 40
6
 41
1
  1
14
  0
POLYLINE
  8
Layer1
  6
CONTINUOUS
 62
7
 66
1
 10
0
 20
0
 30
0
  0
VERTEX
  8
Layer1
 10
614.333
 20
322.986
  0
VERTEX
  8
Layer1
 10
587.958
 20
358.138
  0
VERTEX
  8
Layer1
 10
587.958
 20
358.138
  0
SEQEND
  0
CIRCLE
  8
Layer1
  6
CONTINUOUS
 62
7
 10
614.333
 20
322.986
 40
1
  0
CIRCLE
  8
Layer1
  6
CONTINUOUS
 62
7
 10
585.412
 20
361.531
 40
4.24264
  0
TEXT
  8
Layer1
 62
7
 10
585.412
 20
361.531
 72
1
 73
2
 11
585.412
 21
361.531
 40
6
 41
1
  1
13
  0
POLYLINE
  8
Layer1
  6
CONTINUOUS
 62
7
 66
1
 10
0
 20
0
 30
0
  0
VERTEX
  8
Layer1
 10
639.88
 20
349.529
  0
VERTEX
  8
Layer1
 10
630.165
 20
392.881
  0
VERTEX
  8
Layer1
 10
630.165
 20
392.881
  0
SEQEND
  0
CIRCLE
  8
Layer1
  6
CONTINUOUS
 62
7
 10
639.88
 20
349.529
 40
1
  0
CIRCLE
  8
Layer1
  6
CONTINUOUS
 62
7
 10
629.432
 20
396.154
 40
3.3541
  0
TEXT
  8
Layer1
 62
7
 10
629.432
 20
396.154
 72
1
 73
2
 11
629.432
 21
396.154
 40
6
 41
1
  1
4
  0
POLYLINE
  8
Layer1
  6
CONTINUOUS
 62
7
 66
1
 10
0
 20
0
 30
0
  0
VERTEX
  8
Layer1
 10
658.235
 20
360.652
  0
VERTEX
  8
Layer1
 10
648.215
 20
393.433
  0
VERTEX
  8
Layer1
 10
648.215
 20
393.433
  0
SEQEND
  0
CIRCLE
  8
Layer1
  6
CONTINUOUS
 62
7
 10
658.235
 20
360.652
 40
1
  0
CIRCLE
  8
Layer1
  6
CONTINUOUS
 62
7
 10
647.233
 20
396.641
 40
3.3541
  0
TEXT
  8
Layer1
 62
7
 10
647.233
 20
396.641
 72
1
 73
2
 11
647.233
 21
396.641
 40
6
 41
1
  1
8
  0
POLYLINE
  8
Layer1
  6
CONTINUOUS
 62
7
 66
1
 10
0
 20
0
 30
0
  0
VERTEX
  8
Layer1
 10
681.002
 20
351.797
  0
VERTEX
  8
Layer1
 10
664.944
 20
392.561
  0
VERTEX
  8
Layer1
 10
664.944
 20
392.561
  0
SEQEND
  0
CIRCLE
  8
Layer1
  6
CONTINUOUS
 62
7
 10
681.002
 20
351.797
 40
1
  0
CIRCLE
  8
Layer1
  6
CONTINUOUS
 62
7
 10
663.39
 20
396.508
 40
4.24264
  0
TEXT
  8
Layer1
 62
7
 10
663.39
 20
396.508
 72
1
 73
2
 11
663.39
 21
396.508
 40
6
 41
1
  1
11
  0
POLYLINE
  8
Layer1
  6
CONTINUOUS
 62
7
 66
1
 10
0
 20
0
 30
0
  0
VERTEX
  8
Layer1
 10
696.568
 20
379.108
  0
VERTEX
  8
Layer1
 10
677.476
 20
407.513
  0
VERTEX
  8
Layer1
 10
677.476
 20
407.513
  0
SEQEND
  0
CIRCLE
  8
Layer1
  6
CONTINUOUS
 62
7
 10
696.568
 20
379.108
 40
1
  0
CIRCLE
  8
Layer1
  6
CONTINUOUS
 62
7
 10
675.604
 20
410.297
 40
3.3541
  0
TEXT
  8
Layer1
 62
7
 10
675.604
 20
410.297
 72
1
 73
2
 11
675.604
 21
410.297
 40
6
 41
1
  1
3
  0
POLYLINE
  8
Layer1
  6
CONTINUOUS
 62
7
 66
1
 10
0
 20
0
 30
0
  0
VERTEX
  8
Layer1
 10
733.977
 20
341.092
  0
VERTEX
  8
Layer1
 10
758.741
 20
405.043
  0
VERTEX
  8
Layer1
 10
758.741
 20
405.043
  0
SEQEND
  0
CIRCLE
  8
Layer1
  6
CONTINUOUS
 62
7
 10
733.977
 20
341.092
 40
1
  0
CIRCLE
  8
Layer1
  6
CONTINUOUS
 62
7
 10
759.952
 20
408.171
 40
3.3541
  0
TEXT
  8
Layer1
 62
7
 10
759.952
 20
408.171
 72
1
 73
2
 11
759.952
 21
408.171
 40
6
 41
1
  1
5
  0
POLYLINE
  8
Layer1
  6
CONTINUOUS
 62
7
 66
1
 10
0
 20
0
 30
0
  0
VERTEX
  8
Layer1
 10
750.545
 20
334.712
  0
VERTEX
  8
Layer1
 10
779.957
 20
404.677
  0
VERTEX
  8
Layer1
 10
779.957
 20
404.677
  0
SEQEND
  0
CIRCLE
  8
Layer1
  6
CONTINUOUS
 62
7
 10
750.545
 20
334.712
 40
1
  0
CIRCLE
  8
Layer1
  6
CONTINUOUS
 62
7
 10
781.256
 20
407.769
 40
3.3541
  0
TEXT
  8
Layer1
 62
7
 10
781.256
 20
407.769
 72
1
 73
2
 11
781.256
 21
407.769
 40
6
 41
1
  1
9
  0
POLYLINE
  8
Layer1
  6
CONTINUOUS
 62
7
 66
1
 10
0
 20
0
 30
0
  0
VERTEX
  8
Layer1
 10
697.342
 20
362.948
  0
VERTEX
  8
Layer1
 10
678.25
 20
391.353
  0
VERTEX
  8
Layer1
 10
678.25
 20
391.353
  0
SEQEND
  0
CIRCLE
  8
Layer1
  6
CONTINUOUS
 62
7
 10
697.342
 20
362.948
 40
1
  0
CIRCLE
  8
Layer1
  6
CONTINUOUS
 62
7
 10
675.885
 20
394.874
 40
4.24264
  0
TEXT
  8
Layer1
 62
7
 10
675.885
 20
394.874
 72
1
 73
2
 11
675.885
 21
394.874
 40
6
 41
1
  1
15
  0
LINE
  8
Layer1
  6
CONTINUOUS
 62
7
 10
745.149
 20
452.01
 11
745.149
 21
556.01
  0
LINE
  8
Layer1
  6
CONTINUOUS
 62
7
 10
731.232
 20
557.01
 11
744.149
 21
557.01
  0
LINE
  8
Layer1
  6
CONTINUOUS
 62
7
 10
731.232
 20
451.01
 11
744.149
 21
451.01
  0
LINE
  8
Layer1
  6
CONTINUOUS
 62
7
 10
745.149
 20
556.01
 11
744.149
 21
557.01
  0
LINE
  8
Layer1
  6
CONTINUOUS
 62
7
 10
744.149
 20
451.01
 11
745.149
 21
452.01
  0
LINE
  8
Layer1
  6
CENTER1
 62
7
 10
725.032
 20
461.01
 11
759.044
 21
461.01
  0
LINE
  8
Layer1
  6
CENTER1
 62
7
 10
719.468
 20
547.01
 11
754.31
 21
547.01
  0
LINE
  8
Layer1
  6
CONTINUOUS
 62
7
 10
745.149
 20
453.01
 11
754.38
 21
453.01
  0
LINE
  8
Layer1
  6
CONTINUOUS
 62
7
 10
745.149
 20
469.01
 11
754.38
 21
469.01
  0
LINE
  8
Layer1
  6
CONTINUOUS
 62
7
 10
754.38
 20
453.01
 11
754.38
 21
469.01
  0
LINE
  8
Layer1
  6
CONTINUOUS
 62
7
 10
754.995
 20
453.626
 11
754.995
 21
468.395
  0
LINE
  8
Layer1
  6
CONTINUOUS
 62
7
 10
754.38
 20
453.01
 11
754.995
 21
453.626
  0
LINE
  8
Layer1
  6
CONTINUOUS
 62
7
 10
754.38
 20
469.01
 11
754.995
 21
468.395
  0
LINE
  8
Layer1
  6
CONTINUOUS
 62
7
 10
745.149
 20
469.01
 11
745.149
 21
453.01
  0
LINE
  8
Layer1
  6
CONTINUOUS
 62
7
 10
745.859
 20
467.779
 11
753.67
 21
467.779
  0
LINE
  8
Layer1
  6
CONTINUOUS
 62
7
 10
746.569
 20
466.549
 11
752.96
 21
466.549
  0
LINE
  8
Layer1
  6
CONTINUOUS
 62
7
 10
747.279
 20
465.318
 11
752.25
 21
465.318
  0
LINE
  8
Layer1
  6
CONTINUOUS
 62
7
 10
747.989
 20
464.087
 11
751.539
 21
464.087
  0
LINE
  8
Layer1
  6
CONTINUOUS
 62
7
 10
745.149
 20
511.516
 11
750.924
 21
511.516
  0
LINE
  8
Layer1
  6
CONTINUOUS
 62
7
 10
750.924
 20
511.516
 11
751.649
 21
510.26
  0
LINE
  8
Layer1
  6
CONTINUOUS
 62
7
 10
751.649
 20
510.26
 11
751.649
 21
497.76
  0
LINE
  8
Layer1
  6
CONTINUOUS
 62
7
 10
751.649
 20
497.76
 11
750.924
 21
496.504
  0
LINE
  8
Layer1
  6
CONTINUOUS
 62
7
 10
750.924
 20
496.504
 11
745.149
 21
496.504
  0
LINE
  8
Layer1
  6
CONTINUOUS
 62
7
 10
745.149
 20
507.763
 11
750.924
 21
507.763
  0
LINE
  8
Layer1
  6
CONTINUOUS
 62
7
 10
745.149
 20
500.257
 11
750.924
 21
500.257
  0
LINE
  8
Layer1
  6
CONTINUOUS
 62
7
 10
751.649
 20
508.01
 11
753.949
 21
508.01
  0
LINE
  8
Layer1
  6
CONTINUOUS
 62
7
 10
751.649
 20
500.01
 11
753.949
 21
500.01
  0
LINE
  8
Layer1
  6
CONTINUOUS
 62
7
 10
753.949
 20
508.01
 11
753.949
 21
500.01
  0
LINE
  8
Layer1
  6
CONTINUOUS
 62
7
 10
755.149
 20
506.81
 11
755.149
 21
501.21
  0
LINE
  8
Layer1
  6
CONTINUOUS
 62
7
 10
753.949
 20
508.01
 11
755.149
 21
506.81
  0
LINE
  8
Layer1
  6
CONTINUOUS
 62
7
 10
753.949
 20
500.01
 11
755.149
 21
501.21
  0
LINE
  8
Layer1
  6
CONTINUOUS
 62
7
 10
751.649
 20
507.41
 11
754.549
 21
507.41
  0
LINE
  8
Layer1
  6
CONTINUOUS
 62
7
 10
751.649
 20
500.61
 11
754.549
 21
500.61
  0
ARC
  8
Layer1
  6
CONTINUOUS
 62
7
 10
739.085
 20
504.01
 40
12.419
 50
342.412
 51
17.588
  0
ARC
  8
Layer1
  6
CONTINUOUS
 62
7
 10
748.183
 20
509.639
 40
3.323
 50
325.616
 51
34.384
  0
ARC
  8
Layer1
  6
CONTINUOUS
 62
7
 10
748.183
 20
498.381
 40
3.323
 50
325.616
 51
34.384
  0
LINE
  8
Layer1
  6
CONTINUOUS
 62
7
 10
745.149
 20
511.516
 11
745.149
 21
496.504
  0
TEXT
  8
Layer1
 62
7
 10
767.286
 20
503.994
 72
1
 11
767.286
 21
503.994
 40
8
 41
1
 50
90
  1
 82 
  0
LINE
  8
Layer1
  6
CONTINUOUS
 62
7
 10
732.323
 20
545.01
 11
773.286
 21
545.01
  0
LINE
  8
Layer1
  6
CONTINUOUS
 62
7
 10
730.232
 20
462.978
 11
773.286
 21
462.978
  0
POLYLINE
  8
Layer1
  6
CONTINUOUS
 62
7
 66
1
 10
0
 20
0
 30
0
  0
VERTEX
  8
Layer1
 10
767.286
 20
545.01
  0
VERTEX
  8
Layer1
 10
767.286
 20
462.978
  0
SEQEND
  0
POLYLINE
  8
Layer1
  6
CONTINUOUS
 62
7
 66
1
 10
0
 20
0
 30
0
 70
1
  0
VERTEX
  8
Layer1
 10
766.251
 20
541.147
  0
VERTEX
  8
Layer1
 10
767.286
 20
545.01
  0
VERTEX
  8
Layer1
 10
768.322
 20
541.147
  0
SEQEND
  0
POLYLINE
  8
Layer1
  6
CONTINUOUS
 62
7
 66
1
 10
0
 20
0
 30
0
 70
1
  0
VERTEX
  8
Layer1
 10
768.322
 20
466.842
  0
VERTEX
  8
Layer1
 10
767.286
 20
462.978
  0
VERTEX
  8
Layer1
 10
766.251
 20
466.842
  0
SEQEND
  0
TEXT
  8
Layer1
 62
7
 10
780.709
 20
504.01
 72
1
 11
780.709
 21
504.01
 40
8
 41
1
 50
90
  1
 86 
  0
LINE
  8
Layer1
  6
CONTINUOUS
 62
7
 10
754.995
 20
547.01
 11
786.709
 21
547.01
  0
LINE
  8
Layer1
  6
CONTINUOUS
 62
7
 10
759.044
 20
461.01
 11
786.709
 21
461.01
  0
POLYLINE
  8
Layer1
  6
CONTINUOUS
 62
7
 66
1
 10
0
 20
0
 30
0
  0
VERTEX
  8
Layer1
 10
780.709
 20
547.01
  0
VERTEX
  8
Layer1
 10
780.709
 20
461.01
  0
SEQEND
  0
POLYLINE
  8
Layer1
  6
CONTINUOUS
 62
7
 66
1
 10
0
 20
0
 30
0
 70
1
  0
VERTEX
  8
Layer1
 10
779.674
 20
543.147
  0
VERTEX
  8
Layer1
 10
780.709
 20
547.01
  0
VERTEX
  8
Layer1
 10
781.745
 20
543.147
  0
SEQEND
  0
POLYLINE
  8
Layer1
  6
CONTINUOUS
 62
7
 66
1
 10
0
 20
0
 30
0
 70
1
  0
VERTEX
  8
Layer1
 10
781.745
 20
464.874
  0
VERTEX
  8
Layer1
 10
780.709
 20
461.01
  0
VERTEX
  8
Layer1
 10
779.674
 20
464.874
  0
SEQEND
  0
TEXT
  8
Layer1
 62
7
 10
795.092
 20
504.01
 72
1
 11
795.092
 21
504.01
 40
8
 41
1
 50
90
  1
 100 
  0
LINE
  8
Layer1
  6
CONTINUOUS
 62
7
 10
729.232
 20
454.01
 11
801.092
 21
454.01
  0
LINE
  8
Layer1
  6
CONTINUOUS
 62
7
 10
724.779
 20
554.01
 11
801.092
 21
554.01
  0
POLYLINE
  8
Layer1
  6
CONTINUOUS
 62
7
 66
1
 10
0
 20
0
 30
0
  0
VERTEX
  8
Layer1
 10
795.092
 20
454.01
  0
VERTEX
  8
Layer1
 10
795.092
 20
554.01
  0
SEQEND
  0
POLYLINE
  8
Layer1
  6
CONTINUOUS
 62
7
 66
1
 10
0
 20
0
 30
0
 70
1
  0
VERTEX
  8
Layer1
 10
796.127
 20
457.874
  0
VERTEX
  8
Layer1
 10
795.092
 20
454.01
  0
VERTEX
  8
Layer1
 10
794.056
 20
457.874
  0
SEQEND
  0
POLYLINE
  8
Layer1
  6
CONTINUOUS
 62
7
 66
1
 10
0
 20
0
 30
0
 70
1
  0
VERTEX
  8
Layer1
 10
794.056
 20
550.147
  0
VERTEX
  8
Layer1
 10
795.092
 20
554.01
  0
VERTEX
  8
Layer1
 10
796.127
 20
550.147
  0
SEQEND
  0
TEXT
  8
Layer1
 62
7
 10
809.154
 20
504.01
 72
1
 11
809.154
 21
504.01
 40
8
 41
1
 50
90
  1
 106 
  0
LINE
  8
Layer1
  6
CONTINUOUS
 62
7
 10
744.149
 20
557.01
 11
815.154
 21
557.01
  0
LINE
  8
Layer1
  6
CONTINUOUS
 62
7
 10
744.149
 20
451.01
 11
815.154
 21
451.01
  0
POLYLINE
  8
Layer1
  6
CONTINUOUS
 62
7
 66
1
 10
0
 20
0
 30
0
  0
VERTEX
  8
Layer1
 10
809.154
 20
557.01
  0
VERTEX
  8
Layer1
 10
809.154
 20
451.01
  0
SEQEND
  0
POLYLINE
  8
Layer1
  6
CONTINUOUS
 62
7
 66
1
 10
0
 20
0
 30
0
 70
1
  0
VERTEX
  8
Layer1
 10
808.12
 20
553.147
  0
VERTEX
  8
Layer1
 10
809.154
 20
557.01
  0
VERTEX
  8
Layer1
 10
810.189
 20
553.147
  0
SEQEND
  0
POLYLINE
  8
Layer1
  6
CONTINUOUS
 62
7
 66
1
 10
0
 20
0
 30
0
 70
1
  0
VERTEX
  8
Layer1
 10
810.189
 20
454.874
  0
VERTEX
  8
Layer1
 10
809.154
 20
451.01
  0
VERTEX
  8
Layer1
 10
808.12
 20
454.874
  0
SEQEND
  0
TEXT
  8
Layer1
 62
7
 10
737.649
 20
583.312
 72
1
 11
737.649
 21
583.312
 40
8
 41
1
  1
15
  0
LINE
  8
Layer1
  6
CONTINUOUS
 62
7
 10
745.149
 20
556.01
 11
745.149
 21
589.312
  0
POLYLINE
  8
Layer1
  6
CONTINUOUS
 62
7
 66
1
 10
0
 20
0
 30
0
  0
VERTEX
  8
Layer1
 10
745.149
 20
583.312
  0
VERTEX
  8
Layer1
 10
730.149
 20
583.312
  0
SEQEND
  0
POLYLINE
  8
Layer1
  6
CONTINUOUS
 62
7
 66
1
 10
0
 20
0
 30
0
 70
1
  0
VERTEX
  8
Layer1
 10
741.285
 20
584.347
  0
VERTEX
  8
Layer1
 10
745.149
 20
583.312
  0
VERTEX
  8
Layer1
 10
741.285
 20
582.276
  0
SEQEND
  0
POLYLINE
  8
Layer1
  6
CONTINUOUS
 62
7
 66
1
 10
0
 20
0
 30
0
 70
1
  0
VERTEX
  8
Layer1
 10
734.013
 20
582.276
  0
VERTEX
  8
Layer1
 10
730.149
 20
583.312
  0
VERTEX
  8
Layer1
 10
734.013
 20
584.347
  0
SEQEND
  0
POLYLINE
  8
Layer1
  6
CONTINUOUS
 62
7
 66
1
 10
0
 20
0
 30
0
  0
VERTEX
  8
Layer1
 10
724.734
 20
547.841
  0
VERTEX
  8
Layer1
 10
759.19
 20
580.822
  0
VERTEX
  8
Layer1
 10
759.19
 20
580.822
  0
SEQEND
  0
POLYLINE
  8
Layer1
  6
CONTINUOUS
 62
7
 66
1
 10
0
 20
0
 30
0
 70
1
  0
VERTEX
  8
Layer1
 10
728.241
 20
549.765
  0
VERTEX
  8
Layer1
 10
724.734
 20
547.841
  0
VERTEX
  8
Layer1
 10
726.809
 20
551.261
  0
SEQEND
  0
LINE
  8
Layer1
  6
CONTINUOUS
 62
7
 10
759.19
 20
580.822
 11
774.19
 21
580.822
  0
TEXT
  8
Layer1
 62
7
 10
774.19
 20
582.822
 72
2
 11
774.19
 21
582.822
 40
6
 41
1
  1
4-φ9
  0
TEXT
  8
Layer1
 62
7
 10
758.853
 20
571.072
 40
6
 41
1
  1
アッパー取付穴
  0
LINE
  8
Layer1
  6
CONTINUOUS
 62
7
 10
624.149
 20
536.51
 11
606.149
 21
536.51
  0
LINE
  8
Layer1
  6
CONTINUOUS
 62
7
 10
606.251
 20
471.51
 11
624.251
 21
471.51
  0
LINE
  8
Layer1
  6
CENTER1
 62
7
 10
595.236
 20
478.01
 11
631.065
 21
478.01
  0
LINE
  8
Layer1
  6
CONTINUOUS
 62
7
 10
605.149
 20
472.612
 11
605.149
 21
535.408
  0
LINE
  8
Layer1
  6
CENTER1
 62
7
 10
595.799
 20
530.01
 11
629.148
 21
530.01
  0
LINE
  8
Layer1
  6
CONTINUOUS
 62
7
 10
626.149
 20
536.51
 11
627.149
 21
536.51
  0
LINE
  8
Layer1
  6
CONTINUOUS
 62
7
 10
626.149
 20
471.51
 11
627.149
 21
471.51
  0
LINE
  8
Layer1
  6
CONTINUOUS
 62
7
 10
606.251
 20
536.51
 11
605.149
 21
535.408
  0
LINE
  8
Layer1
  6
CONTINUOUS
 62
7
 10
624.149
 20
536.51
 11
625.149
 21
535.51
  0
LINE
  8
Layer1
  6
CONTINUOUS
 62
7
 10
625.149
 20
472.51
 11
624.149
 21
471.51
  0
LINE
  8
Layer1
  6
CONTINUOUS
 62
7
 10
606.251
 20
471.51
 11
605.149
 21
472.612
  0
LINE
  8
Layer1
  6
CENTER1
 62
7
 10
650.149
 20
557.106
 11
650.149
 21
539.83
  0
LINE
  8
Layer1
  6
CENTER1
 62
7
 10
700.149
 20
555.845
 11
700.149
 21
539.379
  0
LINE
  8
Layer1
  6
CENTER1
 62
7
 10
666.149
 20
539.83
 11
666.149
 21
558.913
  0
LINE
  8
Layer1
  6
CENTER1
 62
7
 10
666.149
 20
470.365
 11
666.149
 21
452.549
  0
LINE
  8
Layer1
  6
CENTER1
 62
7
 10
650.149
 20
470.073
 11
650.149
 21
451.01
  0
LINE
  8
Layer1
  6
CONTINUOUS
 62
7
 10
625.149
 20
472.51
 11
625.149
 21
535.51
  0
LINE
  8
Layer1
  6
CONTINUOUS
 62
7
 10
626.149
 20
536.51
 11
625.149
 21
535.51
  0
LINE
  8
Layer1
  6
CONTINUOUS
 62
7
 10
626.149
 20
471.51
 11
625.149
 21
472.51
  0
LINE
  8
Layer1
  6
CONTINUOUS
 62
7
 10
730.149
 20
396.577
 11
730.149
 21
288.818
  0
ARC
  8
Layer1
  6
CONTINUOUS
 62
7
 10
718.563
 20
333.634
 40
1
 50
225
 51
270
  0
LINE
  8
Layer1
  6
CONTINUOUS
 62
7
 10
662.649
 20
353.753
 11
662.649
 21
341.66
  0
LINE
  8
Layer1
  6
CONTINUOUS
 62
7
 10
669.649
 20
353.735
 11
662.649
 21
353.735
  0
LINE
  8
Layer1
  6
CONTINUOUS
 62
7
 10
661.649
 20
354.735
 11
662.649
 21
353.735
  0
LINE
  8
Layer1
  6
CONTINUOUS
 62
7
 10
669.649
 20
353.735
 11
670.649
 21
354.735
  0
LINE
  8
Layer1
  6
CONTINUOUS
 62
7
 10
669.649
 20
341.66
 11
670.649
 21
340.66
  0
LINE
  8
Layer1
  6
CONTINUOUS
 62
7
 10
662.649
 20
341.66
 11
661.649
 21
340.66
  0
LINE
  8
Layer1
  6
CONTINUOUS
 62
7
 10
662.649
 20
341.66
 11
669.649
 21
341.66
  0
LINE
  8
Layer1
  6
CONTINUOUS
 62
7
 10
653.649
 20
341.66
 11
653.649
 21
353.753
  0
LINE
  8
Layer1
  6
CONTINUOUS
 62
7
 10
646.649
 20
350.882
 11
646.649
 21
353.753
  0
CIRCLE
  8
Layer1
  6
CONTINUOUS
 62
7
 10
681.149
 20
547.01
 40
6.5
  0
POLYLINE
  8
Layer1
  6
CONTINUOUS
 62
7
 66
1
 10
0
 20
0
 30
0
 70
1
  0
VERTEX
  8
Layer1
 10
681.149
 20
550.44
  0
VERTEX
  8
Layer1
 10
678.179
 20
548.725
  0
VERTEX
  8
Layer1
 10
678.179
 20
545.295
  0
VERTEX
  8
Layer1
 10
681.149
 20
543.58
  0
VERTEX
  8
Layer1
 10
684.12
 20
545.295
  0
VERTEX
  8
Layer1
 10
684.12
 20
548.725
  0
SEQEND
  0
CIRCLE
  8
Layer1
  6
CONTINUOUS
 62
7
 10
681.149
 20
547.01
 40
3.43
  0
CIRCLE
  8
Layer1
  6
CONTINUOUS
 62
7
 10
635.149
 20
547.01
 40
6.5
  0
POLYLINE
  8
Layer1
  6
CONTINUOUS
 62
7
 66
1
 10
0
 20
0
 30
0
 70
1
  0
VERTEX
  8
Layer1
 10
635.149
 20
550.44
  0
VERTEX
  8
Layer1
 10
632.179
 20
548.725
  0
VERTEX
  8
Layer1
 10
632.179
 20
545.295
  0
VERTEX
  8
Layer1
 10
635.149
 20
543.58
  0
VERTEX
  8
Layer1
 10
638.12
 20
545.295
  0
VERTEX
  8
Layer1
 10
638.12
 20
548.725
  0
SEQEND
  0
CIRCLE
  8
Layer1
  6
CONTINUOUS
 62
7
 10
635.149
 20
547.01
 40
3.43
  0
CIRCLE
  8
Layer1
  6
CONTINUOUS
 62
7
 10
681.149
 20
461.01
 40
6.5
  0
POLYLINE
  8
Layer1
  6
CONTINUOUS
 62
7
 66
1
 10
0
 20
0
 30
0
 70
1
  0
VERTEX
  8
Layer1
 10
681.149
 20
464.44
  0
VERTEX
  8
Layer1
 10
678.179
 20
462.725
  0
VERTEX
  8
Layer1
 10
678.179
 20
459.295
  0
VERTEX
  8
Layer1
 10
681.149
 20
457.58
  0
VERTEX
  8
Layer1
 10
684.12
 20
459.295
  0
VERTEX
  8
Layer1
 10
684.12
 20
462.725
  0
SEQEND
  0
CIRCLE
  8
Layer1
  6
CONTINUOUS
 62
7
 10
681.149
 20
461.01
 40
3.43
  0
CIRCLE
  8
Layer1
  6
CONTINUOUS
 62
7
 10
635.149
 20
461.01
 40
6.5
  0
POLYLINE
  8
Layer1
  6
CONTINUOUS
 62
7
 66
1
 10
0
 20
0
 30
0
 70
1
  0
VERTEX
  8
Layer1
 10
635.149
 20
464.44
  0
VERTEX
  8
Layer1
 10
632.179
 20
462.725
  0
VERTEX
  8
Layer1
 10
632.179
 20
459.295
  0
VERTEX
  8
Layer1
 10
635.149
 20
457.58
  0
VERTEX
  8
Layer1
 10
638.12
 20
459.295
  0
VERTEX
  8
Layer1
 10
638.12
 20
462.725
  0
SEQEND
  0
CIRCLE
  8
Layer1
  6
CONTINUOUS
 62
7
 10
635.149
 20
461.01
 40
3.43
  0
LINE
  8
Layer1
  6
PHANTOM1
 62
7
 10
585.149
 20
311.66
 11
585.149
 21
339.735
  0
LINE
  8
Layer1
  6
PHANTOM1
 62
7
 10
604.149
 20
340.735
 11
586.149
 21
340.735
  0
LINE
  8
Layer1
  6
PHANTOM1
 62
7
 10
586.074
 20
310.735
 11
604.149
 21
310.735
  0
LINE
  8
Layer1
  6
PHANTOM1
 62
7
 10
585.149
 20
339.735
 11
586.149
 21
340.735
  0
LINE
  8
Layer1
  6
PHANTOM1
 62
7
 10
586.074
 20
310.735
 11
585.149
 21
311.66
  0
TEXT
  8
Layer1
 62
7
 10
596.114
 20
277.439
 72
1
 11
596.114
 21
277.439
 40
8
 41
1
  1
20ストローク 
  0
LINE
  8
Layer1
  6
CONTINUOUS
 62
7
 10
585.149
 20
311.66
 11
585.149
 21
287.735
  0
LINE
  8
Layer1
  6
CONTINUOUS
 62
7
 10
605.149
 20
311.66
 11
605.149
 21
287.735
  0
POLYLINE
  8
Layer1
  6
CONTINUOUS
 62
7
 66
1
 10
0
 20
0
 30
0
  0
VERTEX
  8
Layer1
 10
585.149
 20
287.735
  0
VERTEX
  8
Layer1
 10
605.149
 20
287.735
  0
SEQEND
  0
POLYLINE
  8
Layer1
  6
CONTINUOUS
 62
7
 66
1
 10
0
 20
0
 30
0
 70
1
  0
VERTEX
  8
Layer1
 10
589.014
 20
286.7
  0
VERTEX
  8
Layer1
 10
585.149
 20
287.735
  0
VERTEX
  8
Layer1
 10
589.014
 20
288.77
  0
SEQEND
  0
POLYLINE
  8
Layer1
  6
CONTINUOUS
 62
7
 66
1
 10
0
 20
0
 30
0
 70
1
  0
VERTEX
  8
Layer1
 10
601.285
 20
288.77
  0
VERTEX
  8
Layer1
 10
605.149
 20
287.735
  0
VERTEX
  8
Layer1
 10
601.285
 20
286.7
  0
SEQEND
  0
LINE
  8
Layer1
  6
CONTINUOUS
 62
7
 10
595.111
 20
325.735
 11
642.26
 21
325.735
  0
LINE
  8
Layer1
  6
CONTINUOUS
 62
7
 10
505.395
 20
354.735
 11
401.395
 21
354.735
  0
LINE
  8
Layer1
  6
DASHED1
 62
7
 10
459.978
 20
346.735
 11
459.978
 21
340.735
  0
LINE
  8
Layer1
  6
DASHED1
 62
7
 10
446.996
 20
346.735
 11
446.996
 21
340.735
  0
LINE
  8
Layer1
  6
DASHED1
 62
7
 10
447.996
 20
347.735
 11
458.978
 21
347.735
  0
LINE
  8
Layer1
  6
DASHED1
 62
7
 10
456.406
 20
351.985
 11
456.406
 21
347.735
  0
LINE
  8
Layer1
  6
DASHED1
 62
7
 10
450.656
 20
351.735
 11
456.156
 21
351.735
  0
LINE
  8
Layer1
  6
DASHED1
 62
7
 10
450.656
 20
351.735
 11
450.656
 21
347.735
  0
LINE
  8
Layer1
  6
DASHED1
 62
7
 10
450.406
 20
351.985
 11
450.406
 21
347.735
  0
LINE
  8
Layer1
  6
DASHED1
 62
7
 10
456.156
 20
351.735
 11
456.156
 21
347.735
  0
LINE
  8
Layer1
  6
DASHED1
 62
7
 10
450.656
 20
351.735
 11
449.656
 21
352.735
  0
LINE
  8
Layer1
  6
DASHED1
 62
7
 10
456.156
 20
351.735
 11
457.156
 21
352.735
  0
LINE
  8
Layer1
  6
DASHED1
 62
7
 10
463.395
 20
332.735
 11
483.395
 21
332.735
  0
LINE
  8
Layer1
  6
CONTINUOUS
 62
7
 10
404.395
 20
385.735
 11
418.395
 21
385.735
  0
LINE
  8
Layer1
  6
CONTINUOUS
 62
7
 10
502.395
 20
385.735
 11
488.395
 21
385.735
  0
LINE
  8
Layer1
  6
CONTINUOUS
 62
7
 10
485.395
 20
360.735
 11
421.395
 21
360.735
  0
LINE
  8
Layer1
  6
DASHED1
 62
7
 10
443.395
 20
332.735
 11
423.395
 21
332.735
  0
CIRCLE
  8
Layer1
  6
CONTINUOUS
 62
7
 10
453.395
 20
387.735
 40
4
  0
CIRCLE
  8
Layer1
  6
CONTINUOUS
 62
7
 10
453.395
 20
363.735
 40
1.9
  0
LINE
  8
Layer1
  6
CONTINUOUS
 62
7
 10
502.395
 20
397.735
 11
404.395
 21
397.735
  0
LINE
  8
Layer1
  6
CENTER1
 62
7
 10
458.192
 20
387.735
 11
448.4
 21
387.735
  0
LINE
  8
Layer1
  6
CENTER1
 62
7
 10
456.161
 20
363.771
 11
450.721
 21
363.771
  0
ARC
  8
Layer1
  6
DASHED1
 62
7
 10
447.996
 20
346.735
 40
1
 50
90
 51
180
  0
ARC
  8
Layer1
  6
DASHED1
 62
7
 10
458.978
 20
346.735
 40
1
 50
0
 51
90
  0
LINE
  8
Layer1
  6
CONTINUOUS
 62
7
 10
505.395
 20
287.735
 11
401.395
 21
287.735
  0
LINE
  8
Layer1
  6
CONTINUOUS
 62
7
 10
419.895
 20
340.735
 11
401.395
 21
340.735
  0
LINE
  8
Layer1
  6
CENTER1
 62
7
 10
453.395
 20
282.939
 11
453.395
 21
413.642
  0
LINE
  8
Layer1
  6
CONTINUOUS
 62
7
 10
438.421
 20
310.735
 11
468.421
 21
310.735
  0
CIRCLE
  8
Layer1
  6
DASHED1
 62
7
 10
467.395
 20
299.235
 40
7.1
  0
LINE
  8
Layer1
  6
DASHED1
 62
7
 10
420.395
 20
339.735
 11
420.395
 21
287.735
  0
LINE
  8
Layer1
  6
DASHED1
 62
7
 10
486.355
 20
339.735
 11
486.39
 21
287.735
  0
LINE
  8
Layer1
  6
CONTINUOUS
 62
7
 10
449.678
 20
359.376
 11
457.523
 21
359.376
  0
LINE
  8
Layer1
  6
CONTINUOUS
 62
7
 10
449.351
 20
358.773
 11
457.825
 21
358.773
  0
LINE
  8
Layer1
  6
CONTINUOUS
 62
7
 10
449.256
 20
355.393
 11
457.704
 21
355.393
  0
LINE
  8
Layer1
  6
CONTINUOUS
 62
7
 10
458.428
 20
354.669
 11
448.532
 21
354.669
  0
LINE
  8
Layer1
  6
CONTINUOUS
 62
7
 10
458.428
 20
354.669
 11
458.428
 21
352.798
  0
LINE
  8
Layer1
  6
CONTINUOUS
 62
7
 10
448.532
 20
354.669
 11
448.532
 21
352.798
  0
POLYLINE
  8
Layer1
  6
CONTINUOUS
 62
7
 66
1
 10
0
 20
0
 30
0
  0
VERTEX
  8
Layer1
 10
453.473
 20
356.589
  0
VERTEX
  8
Layer1
 10
453.408
 20
356.646
  0
VERTEX
  8
Layer1
 10
453.341
 20
356.702
  0
VERTEX
  8
Layer1
 10
453.273
 20
356.755
  0
VERTEX
  8
Layer1
 10
453.203
 20
356.807
  0
VERTEX
  8
Layer1
 10
453.132
 20
356.857
  0
VERTEX
  8
Layer1
 10
453.06
 20
356.905
  0
VERTEX
  8
Layer1
 10
452.987
 20
356.951
  0
VERTEX
  8
Layer1
 10
452.912
 20
356.996
  0
VERTEX
  8
Layer1
 10
452.837
 20
357.038
  0
VERTEX
  8
Layer1
 10
452.76
 20
357.079
  0
VERTEX
  8
Layer1
 10
452.682
 20
357.117
  0
VERTEX
  8
Layer1
 10
452.604
 20
357.153
  0
VERTEX
  8
Layer1
 10
452.524
 20
357.188
  0
VERTEX
  8
Layer1
 10
452.444
 20
357.22
  0
VERTEX
  8
Layer1
 10
452.362
 20
357.25
  0
VERTEX
  8
Layer1
 10
452.28
 20
357.278
  0
VERTEX
  8
Layer1
 10
452.198
 20
357.304
  0
VERTEX
  8
Layer1
 10
452.114
 20
357.328
  0
VERTEX
  8
Layer1
 10
452.03
 20
357.35
  0
VERTEX
  8
Layer1
 10
451.946
 20
357.369
  0
VERTEX
  8
Layer1
 10
451.861
 20
357.386
  0
VERTEX
  8
Layer1
 10
451.775
 20
357.401
  0
VERTEX
  8
Layer1
 10
451.69
 20
357.414
  0
VERTEX
  8
Layer1
 10
451.603
 20
357.425
  0
VERTEX
  8
Layer1
 10
451.517
 20
357.433
  0
VERTEX
  8
Layer1
 10
451.431
 20
357.439
  0
VERTEX
  8
Layer1
 10
451.344
 20
357.443
  0
VERTEX
  8
Layer1
 10
451.257
 20
357.445
  0
VERTEX
  8
Layer1
 10
451.171
 20
357.444
  0
VERTEX
  8
Layer1
 10
451.084
 20
357.442
  0
VERTEX
  8
Layer1
 10
450.997
 20
357.437
  0
VERTEX
  8
Layer1
 10
450.911
 20
357.429
  0
VERTEX
  8
Layer1
 10
450.825
 20
357.42
  0
VERTEX
  8
Layer1
 10
450.739
 20
357.408
  0
VERTEX
  8
Layer1
 10
450.653
 20
357.394
  0
VERTEX
  8
Layer1
 10
450.568
 20
357.378
  0
VERTEX
  8
Layer1
 10
450.483
 20
357.359
  0
VERTEX
  8
Layer1
 10
450.399
 20
357.339
  0
VERTEX
  8
Layer1
 10
450.315
 20
357.316
  0
VERTEX
  8
Layer1
 10
450.232
 20
357.291
  0
VERTEX
  8
Layer1
 10
450.15
 20
357.264
  0
VERTEX
  8
Layer1
 10
450.068
 20
357.235
  0
VERTEX
  8
Layer1
 10
449.987
 20
357.204
  0
VERTEX
  8
Layer1
 10
449.907
 20
357.17
  0
VERTEX
  8
Layer1
 10
449.828
 20
357.135
  0
VERTEX
  8
Layer1
 10
449.75
 20
357.098
  0
VERTEX
  8
Layer1
 10
449.673
 20
357.058
  0
VERTEX
  8
Layer1
 10
449.597
 20
357.017
  0
SEQEND
  0
POLYLINE
  8
Layer1
  6
CONTINUOUS
 62
7
 66
1
 10
0
 20
0
 30
0
  0
VERTEX
  8
Layer1
 10
457.826
 20
356.962
  0
VERTEX
  8
Layer1
 10
457.738
 20
356.998
  0
VERTEX
  8
Layer1
 10
457.65
 20
357.031
  0
VERTEX
  8
Layer1
 10
457.561
 20
357.063
  0
VERTEX
  8
Layer1
 10
457.472
 20
357.094
  0
VERTEX
  8
Layer1
 10
457.382
 20
357.122
  0
VERTEX
  8
Layer1
 10
457.291
 20
357.149
  0
VERTEX
  8
Layer1
 10
457.2
 20
357.174
  0
VERTEX
  8
Layer1
 10
457.108
 20
357.197
  0
VERTEX
  8
Layer1
 10
457.016
 20
357.218
  0
VERTEX
  8
Layer1
 10
456.924
 20
357.237
  0
VERTEX
  8
Layer1
 10
456.831
 20
357.255
  0
VERTEX
  8
Layer1
 10
456.738
 20
357.27
  0
VERTEX
  8
Layer1
 10
456.645
 20
357.284
  0
VERTEX
  8
Layer1
 10
456.551
 20
357.296
  0
VERTEX
  8
Layer1
 10
456.457
 20
357.306
  0
VERTEX
  8
Layer1
 10
456.363
 20
357.314
  0
VERTEX
  8
Layer1
 10
456.269
 20
357.32
  0
VERTEX
  8
Layer1
 10
456.174
 20
357.325
  0
VERTEX
  8
Layer1
 10
456.08
 20
357.327
  0
VERTEX
  8
Layer1
 10
455.985
 20
357.328
  0
VERTEX
  8
Layer1
 10
455.891
 20
357.326
  0
VERTEX
  8
Layer1
 10
455.797
 20
357.323
  0
VERTEX
  8
Layer1
 10
455.702
 20
357.318
  0
VERTEX
  8
Layer1
 10
455.608
 20
357.311
  0
VERTEX
  8
Layer1
 10
455.514
 20
357.302
  0
VERTEX
  8
Layer1
 10
455.42
 20
357.292
  0
VERTEX
  8
Layer1
 10
455.327
 20
357.279
  0
VERTEX
  8
Layer1
 10
455.233
 20
357.264
  0
VERTEX
  8
Layer1
 10
455.14
 20
357.248
  0
VERTEX
  8
Layer1
 10
455.048
 20
357.23
  0
VERTEX
  8
Layer1
 10
454.955
 20
357.21
  0
VERTEX
  8
Layer1
 10
454.864
 20
357.188
  0
VERTEX
  8
Layer1
 10
454.772
 20
357.164
  0
VERTEX
  8
Layer1
 10
454.681
 20
357.139
  0
VERTEX
  8
Layer1
 10
454.591
 20
357.111
  0
VERTEX
  8
Layer1
 10
454.501
 20
357.082
  0
VERTEX
  8
Layer1
 10
454.412
 20
357.051
  0
VERTEX
  8
Layer1
 10
454.323
 20
357.019
  0
VERTEX
  8
Layer1
 10
454.235
 20
356.984
  0
VERTEX
  8
Layer1
 10
454.148
 20
356.948
  0
VERTEX
  8
Layer1
 10
454.062
 20
356.91
  0
VERTEX
  8
Layer1
 10
453.976
 20
356.87
  0
VERTEX
  8
Layer1
 10
453.891
 20
356.829
  0
VERTEX
  8
Layer1
 10
453.807
 20
356.786
  0
VERTEX
  8
Layer1
 10
453.724
 20
356.741
  0
VERTEX
  8
Layer1
 10
453.642
 20
356.695
  0
VERTEX
  8
Layer1
 10
453.56
 20
356.647
  0
VERTEX
  8
Layer1
 10
453.48
 20
356.597
  0
SEQEND
  0
LINE
  8
Layer1
  6
CONTINUOUS
 62
7
 10
449.943
 20
357.185
 11
449.608
 21
356.996
  0
LINE
  8
Layer1
  6
CONTINUOUS
 62
7
 10
449.678
 20
359.376
 11
448.819
 21
357.792
  0
LINE
  8
Layer1
  6
CONTINUOUS
 62
7
 10
457.523
 20
359.376
 11
458.411
 21
357.561
  0
LINE
  8
Layer1
  6
CONTINUOUS
 62
7
 10
457.341
 20
357.106
 11
457.826
 21
356.962
  0
POLYLINE
  8
Layer1
  6
CONTINUOUS
 62
7
 66
1
 10
0
 20
0
 30
0
  0
VERTEX
  8
Layer1
 10
448.819
 20
357.792
  0
VERTEX
  8
Layer1
 10
448.804
 20
357.765
  0
VERTEX
  8
Layer1
 10
448.79
 20
357.736
  0
VERTEX
  8
Layer1
 10
448.778
 20
357.707
  0
VERTEX
  8
Layer1
 10
448.768
 20
357.677
  0
VERTEX
  8
Layer1
 10
448.759
 20
357.647
  0
VERTEX
  8
Layer1
 10
448.752
 20
357.616
  0
VERTEX
  8
Layer1
 10
448.746
 20
357.585
  0
VERTEX
  8
Layer1
 10
448.743
 20
357.553
  0
VERTEX
  8
Layer1
 10
448.741
 20
357.522
  0
VERTEX
  8
Layer1
 10
448.74
 20
357.49
  0
VERTEX
  8
Layer1
 10
448.742
 20
357.458
  0
VERTEX
  8
Layer1
 10
448.745
 20
357.427
  0
VERTEX
  8
Layer1
 10
448.75
 20
357.396
  0
VERTEX
  8
Layer1
 10
448.757
 20
357.365
  0
VERTEX
  8
Layer1
 10
448.765
 20
357.334
  0
VERTEX
  8
Layer1
 10
448.775
 20
357.304
  0
VERTEX
  8
Layer1
 10
448.786
 20
357.275
  0
VERTEX
  8
Layer1
 10
448.799
 20
357.246
  0
VERTEX
  8
Layer1
 10
448.814
 20
357.218
  0
VERTEX
  8
Layer1
 10
448.83
 20
357.191
  0
VERTEX
  8
Layer1
 10
448.848
 20
357.164
  0
VERTEX
  8
Layer1
 10
448.867
 20
357.139
  0
VERTEX
  8
Layer1
 10
448.887
 20
357.115
  0
VERTEX
  8
Layer1
 10
448.909
 20
357.092
  0
VERTEX
  8
Layer1
 10
448.932
 20
357.07
  0
VERTEX
  8
Layer1
 10
448.956
 20
357.049
  0
VERTEX
  8
Layer1
 10
448.981
 20
357.03
  0
VERTEX
  8
Layer1
 10
449.007
 20
357.012
  0
VERTEX
  8
Layer1
 10
449.034
 20
356.996
  0
VERTEX
  8
Layer1
 10
449.062
 20
356.981
  0
VERTEX
  8
Layer1
 10
449.09
 20
356.968
  0
VERTEX
  8
Layer1
 10
449.12
 20
356.956
  0
VERTEX
  8
Layer1
 10
449.15
 20
356.946
  0
VERTEX
  8
Layer1
 10
449.18
 20
356.937
  0
VERTEX
  8
Layer1
 10
449.211
 20
356.93
  0
VERTEX
  8
Layer1
 10
449.242
 20
356.925
  0
VERTEX
  8
Layer1
 10
449.274
 20
356.922
  0
VERTEX
  8
Layer1
 10
449.305
 20
356.92
  0
VERTEX
  8
Layer1
 10
449.337
 20
356.92
  0
VERTEX
  8
Layer1
 10
449.369
 20
356.922
  0
VERTEX
  8
Layer1
 10
449.4
 20
356.925
  0
VERTEX
  8
Layer1
 10
449.431
 20
356.93
  0
VERTEX
  8
Layer1
 10
449.462
 20
356.937
  0
VERTEX
  8
Layer1
 10
449.493
 20
356.945
  0
VERTEX
  8
Layer1
 10
449.523
 20
356.956
  0
VERTEX
  8
Layer1
 10
449.552
 20
356.967
  0
VERTEX
  8
Layer1
 10
449.581
 20
356.981
  0
VERTEX
  8
Layer1
 10
449.608
 20
356.996
  0
SEQEND
  0
POLYLINE
  8
Layer1
  6
CONTINUOUS
 62
7
 66
1
 10
0
 20
0
 30
0
  0
VERTEX
  8
Layer1
 10
457.826
 20
356.962
  0
VERTEX
  8
Layer1
 10
457.846
 20
356.956
  0
VERTEX
  8
Layer1
 10
457.867
 20
356.952
  0
VERTEX
  8
Layer1
 10
457.888
 20
356.948
  0
VERTEX
  8
Layer1
 10
457.909
 20
356.945
  0
VERTEX
  8
Layer1
 10
457.931
 20
356.943
  0
VERTEX
  8
Layer1
 10
457.952
 20
356.942
  0
VERTEX
  8
Layer1
 10
457.974
 20
356.943
  0
VERTEX
  8
Layer1
 10
457.995
 20
356.944
  0
VERTEX
  8
Layer1
 10
458.016
 20
356.946
  0
VERTEX
  8
Layer1
 10
458.037
 20
356.949
  0
VERTEX
  8
Layer1
 10
458.058
 20
356.953
  0
VERTEX
  8
Layer1
 10
458.079
 20
356.958
  0
VERTEX
  8
Layer1
 10
458.1
 20
356.963
  0
VERTEX
  8
Layer1
 10
458.12
 20
356.97
  0
VERTEX
  8
Layer1
 10
458.14
 20
356.978
  0
VERTEX
  8
Layer1
 10
458.16
 20
356.986
  0
VERTEX
  8
Layer1
 10
458.179
 20
356.996
  0
VERTEX
  8
Layer1
 10
458.198
 20
357.006
  0
VERTEX
  8
Layer1
 10
458.216
 20
357.017
  0
VERTEX
  8
Layer1
 10
458.234
 20
357.029
  0
VERTEX
  8
Layer1
 10
458.251
 20
357.042
  0
VERTEX
  8
Layer1
 10
458.267
 20
357.056
  0
VERTEX
  8
Layer1
 10
458.283
 20
357.07
  0
VERTEX
  8
Layer1
 10
458.299
 20
357.085
  0
VERTEX
  8
Layer1
 10
458.313
 20
357.1
  0
VERTEX
  8
Layer1
 10
458.327
 20
357.117
  0
VERTEX
  8
Layer1
 10
458.34
 20
357.134
  0
VERTEX
  8
Layer1
 10
458.353
 20
357.151
  0
VERTEX
  8
Layer1
 10
458.364
 20
357.169
  0
VERTEX
  8
Layer1
 10
458.375
 20
357.188
  0
VERTEX
  8
Layer1
 10
458.385
 20
357.207
  0
VERTEX
  8
Layer1
 10
458.394
 20
357.226
  0
VERTEX
  8
Layer1
 10
458.402
 20
357.246
  0
VERTEX
  8
Layer1
 10
458.409
 20
357.266
  0
VERTEX
  8
Layer1
 10
458.416
 20
357.286
  0
VERTEX
  8
Layer1
 10
458.421
 20
357.307
  0
VERTEX
  8
Layer1
 10
458.425
 20
357.328
  0
VERTEX
  8
Layer1
 10
458.429
 20
357.349
  0
VERTEX
  8
Layer1
 10
458.431
 20
357.371
  0
VERTEX
  8
Layer1
 10
458.433
 20
357.392
  0
VERTEX
  8
Layer1
 10
458.433
 20
357.413
  0
VERTEX
  8
Layer1
 10
458.433
 20
357.435
  0
VERTEX
  8
Layer1
 10
458.432
 20
357.456
  0
VERTEX
  8
Layer1
 10
458.429
 20
357.477
  0
VERTEX
  8
Layer1
 10
458.426
 20
357.498
  0
VERTEX
  8
Layer1
 10
458.422
 20
357.519
  0
VERTEX
  8
Layer1
 10
458.417
 20
357.54
  0
VERTEX
  8
Layer1
 10
458.411
 20
357.561
  0
SEQEND
  0
LINE
  8
Layer1
  6
CONTINUOUS
 62
7
 10
456.547
 20
357.296
 11
456.547
 21
355.393
  0
LINE
  8
Layer1
  6
CONTINUOUS
 62
7
 10
450.402
 20
357.34
 11
450.402
 21
355.393
  0
LINE
  8
Layer1
  6
CONTINUOUS
 62
7
 10
449.256
 20
355.393
 11
448.532
 21
354.669
  0
LINE
  8
Layer1
  6
CONTINUOUS
 62
7
 10
457.704
 20
355.393
 11
458.428
 21
354.669
  0
LINE
  8
Layer1
  6
CONTINUOUS
 62
7
 10
486.895
 20
340.735
 11
505.395
 21
340.735
  0
LINE
  8
Layer1
  6
CONTINUOUS
 62
7
 10
485.895
 20
310.735
 11
420.895
 21
310.735
  0
LINE
  8
Layer1
  6
CENTER1
 62
7
 10
434.115
 20
325.735
 11
470.419
 21
325.735
  0
LINE
  8
Layer1
  6
CENTER1
 62
7
 10
474.678
 20
334.235
 11
484.113
 21
334.235
  0
LINE
  8
Layer1
  6
CENTER1
 62
7
 10
432.677
 20
317.235
 11
422.114
 21
317.235
  0
LINE
  8
Layer1
  6
CENTER1
 62
7
 10
479.395
 20
339.26
 11
479.395
 21
329.21
  0
LINE
  8
Layer1
  6
CENTER1
 62
7
 10
427.356
 20
312.095
 11
427.356
 21
322.248
  0
POLYLINE
  8
Layer1
  6
CONTINUOUS
 62
7
 66
1
 10
0
 20
0
 30
0
 70
1
  0
VERTEX
  8
Layer1
 10
432.356
 20
317.235
  0
VERTEX
  8
Layer1
 10
432.313
 20
317.888
  0
VERTEX
  8
Layer1
 10
432.186
 20
318.529
  0
VERTEX
  8
Layer1
 10
431.976
 20
319.148
  0
VERTEX
  8
Layer1
 10
431.686
 20
319.735
  0
VERTEX
  8
Layer1
 10
431.323
 20
320.279
  0
VERTEX
  8
Layer1
 10
430.892
 20
320.77
  0
VERTEX
  8
Layer1
 10
430.4
 20
321.202
  0
VERTEX
  8
Layer1
 10
429.856
 20
321.565
  0
VERTEX
  8
Layer1
 10
429.27
 20
321.854
  0
VERTEX
  8
Layer1
 10
428.65
 20
322.065
  0
VERTEX
  8
Layer1
 10
428.009
 20
322.192
  0
VERTEX
  8
Layer1
 10
427.356
 20
322.235
  0
VERTEX
  8
Layer1
 10
426.704
 20
322.192
  0
VERTEX
  8
Layer1
 10
426.062
 20
322.065
  0
VERTEX
  8
Layer1
 10
425.443
 20
321.854
  0
VERTEX
  8
Layer1
 10
424.856
 20
321.565
  0
VERTEX
  8
Layer1
 10
424.312
 20
321.202
  0
VERTEX
  8
Layer1
 10
423.821
 20
320.77
  0
VERTEX
  8
Layer1
 10
423.389
 20
320.279
  0
VERTEX
  8
Layer1
 10
423.026
 20
319.735
  0
VERTEX
  8
Layer1
 10
422.737
 20
319.148
  0
VERTEX
  8
Layer1
 10
422.527
 20
318.529
  0
VERTEX
  8
Layer1
 10
422.399
 20
317.888
  0
VERTEX
  8
Layer1
 10
422.356
 20
317.235
  0
VERTEX
  8
Layer1
 10
422.399
 20
316.582
  0
VERTEX
  8
Layer1
 10
422.527
 20
315.941
  0
VERTEX
  8
Layer1
 10
422.737
 20
315.321
  0
VERTEX
  8
Layer1
 10
423.026
 20
314.735
  0
VERTEX
  8
Layer1
 10
423.389
 20
314.191
  0
VERTEX
  8
Layer1
 10
423.821
 20
313.699
  0
VERTEX
  8
Layer1
 10
424.312
 20
313.268
  0
VERTEX
  8
Layer1
 10
424.856
 20
312.905
  0
VERTEX
  8
Layer1
 10
425.443
 20
312.616
  0
VERTEX
  8
Layer1
 10
426.062
 20
312.405
  0
VERTEX
  8
Layer1
 10
426.704
 20
312.278
  0
VERTEX
  8
Layer1
 10
427.356
 20
312.235
  0
VERTEX
  8
Layer1
 10
428.009
 20
312.278
  0
VERTEX
  8
Layer1
 10
428.65
 20
312.405
  0
VERTEX
  8
Layer1
 10
429.27
 20
312.616
  0
VERTEX
  8
Layer1
 10
429.856
 20
312.905
  0
VERTEX
  8
Layer1
 10
430.4
 20
313.268
  0
VERTEX
  8
Layer1
 10
430.892
 20
313.699
  0
VERTEX
  8
Layer1
 10
431.323
 20
314.191
  0
VERTEX
  8
Layer1
 10
431.686
 20
314.735
  0
VERTEX
  8
Layer1
 10
431.976
 20
315.321
  0
VERTEX
  8
Layer1
 10
432.186
 20
315.941
  0
VERTEX
  8
Layer1
 10
432.313
 20
316.582
  0
SEQEND
  0
POLYLINE
  8
Layer1
  6
CONTINUOUS
 62
7
 66
1
 10
0
 20
0
 30
0
 70
1
  0
VERTEX
  8
Layer1
 10
427.356
 20
320.81
  0
VERTEX
  8
Layer1
 10
424.26
 20
319.022
  0
VERTEX
  8
Layer1
 10
424.26
 20
315.447
  0
VERTEX
  8
Layer1
 10
427.356
 20
313.66
  0
VERTEX
  8
Layer1
 10
430.452
 20
315.447
  0
VERTEX
  8
Layer1
 10
430.452
 20
319.022
  0
SEQEND
  0
POLYLINE
  8
Layer1
  6
CONTINUOUS
 62
7
 66
1
 10
0
 20
0
 30
0
 70
1
  0
VERTEX
  8
Layer1
 10
430.931
 20
317.235
  0
VERTEX
  8
Layer1
 10
430.901
 20
317.702
  0
VERTEX
  8
Layer1
 10
430.809
 20
318.16
  0
VERTEX
  8
Layer1
 10
430.659
 20
318.603
  0
VERTEX
  8
Layer1
 10
430.452
 20
319.022
  0
VERTEX
  8
Layer1
 10
430.192
 20
319.411
  0
VERTEX
  8
Layer1
 10
429.884
 20
319.763
  0
VERTEX
  8
Layer1
 10
429.533
 20
320.071
  0
VERTEX
  8
Layer1
 10
429.144
 20
320.331
  0
VERTEX
  8
Layer1
 10
428.724
 20
320.538
  0
VERTEX
  8
Layer1
 10
428.281
 20
320.688
  0
VERTEX
  8
Layer1
 10
427.823
 20
320.779
  0
VERTEX
  8
Layer1
 10
427.356
 20
320.81
  0
VERTEX
  8
Layer1
 10
426.89
 20
320.779
  0
VERTEX
  8
Layer1
 10
426.431
 20
320.688
  0
VERTEX
  8
Layer1
 10
425.988
 20
320.538
  0
VERTEX
  8
Layer1
 10
425.569
 20
320.331
  0
VERTEX
  8
Layer1
 10
425.18
 20
320.071
  0
VERTEX
  8
Layer1
 10
424.828
 20
319.763
  0
VERTEX
  8
Layer1
 10
424.52
 20
319.411
  0
VERTEX
  8
Layer1
 10
424.26
 20
319.022
  0
VERTEX
  8
Layer1
 10
424.053
 20
318.603
  0
VERTEX
  8
Layer1
 10
423.903
 20
318.16
  0
VERTEX
  8
Layer1
 10
423.812
 20
317.702
  0
VERTEX
  8
Layer1
 10
423.781
 20
317.235
  0
VERTEX
  8
Layer1
 10
423.812
 20
316.768
  0
VERTEX
  8
Layer1
 10
423.903
 20
316.31
  0
VERTEX
  8
Layer1
 10
424.053
 20
315.867
  0
VERTEX
  8
Layer1
 10
424.26
 20
315.447
  0
VERTEX
  8
Layer1
 10
424.52
 20
315.059
  0
VERTEX
  8
Layer1
 10
424.828
 20
314.707
  0
VERTEX
  8
Layer1
 10
425.18
 20
314.399
  0
VERTEX
  8
Layer1
 10
425.569
 20
314.139
  0
VERTEX
  8
Layer1
 10
425.988
 20
313.932
  0
VERTEX
  8
Layer1
 10
426.431
 20
313.782
  0
VERTEX
  8
Layer1
 10
426.89
 20
313.69
  0
VERTEX
  8
Layer1
 10
427.356
 20
313.66
  0
VERTEX
  8
Layer1
 10
427.823
 20
313.69
  0
VERTEX
  8
Layer1
 10
428.281
 20
313.782
  0
VERTEX
  8
Layer1
 10
428.724
 20
313.932
  0
VERTEX
  8
Layer1
 10
429.144
 20
314.139
  0
VERTEX
  8
Layer1
 10
429.533
 20
314.399
  0
VERTEX
  8
Layer1
 10
429.884
 20
314.707
  0
VERTEX
  8
Layer1
 10
430.192
 20
315.059
  0
VERTEX
  8
Layer1
 10
430.452
 20
315.447
  0
VERTEX
  8
Layer1
 10
430.659
 20
315.867
  0
VERTEX
  8
Layer1
 10
430.809
 20
316.31
  0
VERTEX
  8
Layer1
 10
430.901
 20
316.768
  0
SEQEND
  0
POLYLINE
  8
Layer1
  6
CONTINUOUS
 62
7
 66
1
 10
0
 20
0
 30
0
 70
1
  0
VERTEX
  8
Layer1
 10
484.395
 20
334.235
  0
VERTEX
  8
Layer1
 10
484.353
 20
334.888
  0
VERTEX
  8
Layer1
 10
484.225
 20
335.529
  0
VERTEX
  8
Layer1
 10
484.015
 20
336.148
  0
VERTEX
  8
Layer1
 10
483.726
 20
336.735
  0
VERTEX
  8
Layer1
 10
483.362
 20
337.279
  0
VERTEX
  8
Layer1
 10
482.931
 20
337.77
  0
VERTEX
  8
Layer1
 10
482.439
 20
338.202
  0
VERTEX
  8
Layer1
 10
481.895
 20
338.565
  0
VERTEX
  8
Layer1
 10
481.309
 20
338.854
  0
VERTEX
  8
Layer1
 10
480.69
 20
339.065
  0
VERTEX
  8
Layer1
 10
480.048
 20
339.192
  0
VERTEX
  8
Layer1
 10
479.395
 20
339.235
  0
VERTEX
  8
Layer1
 10
478.743
 20
339.192
  0
VERTEX
  8
Layer1
 10
478.101
 20
339.065
  0
VERTEX
  8
Layer1
 10
477.482
 20
338.854
  0
VERTEX
  8
Layer1
 10
476.895
 20
338.565
  0
VERTEX
  8
Layer1
 10
476.352
 20
338.202
  0
VERTEX
  8
Layer1
 10
475.86
 20
337.77
  0
VERTEX
  8
Layer1
 10
475.429
 20
337.279
  0
VERTEX
  8
Layer1
 10
475.065
 20
336.735
  0
VERTEX
  8
Layer1
 10
474.776
 20
336.148
  0
VERTEX
  8
Layer1
 10
474.566
 20
335.529
  0
VERTEX
  8
Layer1
 10
474.438
 20
334.888
  0
VERTEX
  8
Layer1
 10
474.395
 20
334.235
  0
VERTEX
  8
Layer1
 10
474.438
 20
333.582
  0
VERTEX
  8
Layer1
 10
474.566
 20
332.941
  0
VERTEX
  8
Layer1
 10
474.776
 20
332.321
  0
VERTEX
  8
Layer1
 10
475.065
 20
331.735
  0
VERTEX
  8
Layer1
 10
475.429
 20
331.191
  0
VERTEX
  8
Layer1
 10
475.86
 20
330.699
  0
VERTEX
  8
Layer1
 10
476.352
 20
330.268
  0
VERTEX
  8
Layer1
 10
476.895
 20
329.905
  0
VERTEX
  8
Layer1
 10
477.482
 20
329.616
  0
VERTEX
  8
Layer1
 10
478.101
 20
329.405
  0
VERTEX
  8
Layer1
 10
478.743
 20
329.278
  0
VERTEX
  8
Layer1
 10
479.395
 20
329.235
  0
VERTEX
  8
Layer1
 10
480.048
 20
329.278
  0
VERTEX
  8
Layer1
 10
480.69
 20
329.405
  0
VERTEX
  8
Layer1
 10
481.309
 20
329.616
  0
VERTEX
  8
Layer1
 10
481.895
 20
329.905
  0
VERTEX
  8
Layer1
 10
482.439
 20
330.268
  0
VERTEX
  8
Layer1
 10
482.931
 20
330.699
  0
VERTEX
  8
Layer1
 10
483.362
 20
331.191
  0
VERTEX
  8
Layer1
 10
483.726
 20
331.735
  0
VERTEX
  8
Layer1
 10
484.015
 20
332.321
  0
VERTEX
  8
Layer1
 10
484.225
 20
332.941
  0
VERTEX
  8
Layer1
 10
484.353
 20
333.582
  0
SEQEND
  0
POLYLINE
  8
Layer1
  6
CONTINUOUS
 62
7
 66
1
 10
0
 20
0
 30
0
 70
1
  0
VERTEX
  8
Layer1
 10
479.395
 20
337.81
  0
VERTEX
  8
Layer1
 10
476.299
 20
336.022
  0
VERTEX
  8
Layer1
 10
476.299
 20
332.447
  0
VERTEX
  8
Layer1
 10
479.395
 20
330.66
  0
VERTEX
  8
Layer1
 10
482.491
 20
332.447
  0
VERTEX
  8
Layer1
 10
482.491
 20
336.022
  0
SEQEND
  0
POLYLINE
  8
Layer1
  6
CONTINUOUS
 62
7
 66
1
 10
0
 20
0
 30
0
 70
1
  0
VERTEX
  8
Layer1
 10
482.97
 20
334.235
  0
VERTEX
  8
Layer1
 10
482.94
 20
334.702
  0
VERTEX
  8
Layer1
 10
482.849
 20
335.16
  0
VERTEX
  8
Layer1
 10
482.698
 20
335.603
  0
VERTEX
  8
Layer1
 10
482.491
 20
336.022
  0
VERTEX
  8
Layer1
 10
482.232
 20
336.411
  0
VERTEX
  8
Layer1
 10
481.923
 20
336.763
  0
VERTEX
  8
Layer1
 10
481.572
 20
337.071
  0
VERTEX
  8
Layer1
 10
481.183
 20
337.331
  0
VERTEX
  8
Layer1
 10
480.764
 20
337.538
  0
VERTEX
  8
Layer1
 10
480.321
 20
337.688
  0
VERTEX
  8
Layer1
 10
479.862
 20
337.779
  0
VERTEX
  8
Layer1
 10
479.395
 20
337.81
  0
VERTEX
  8
Layer1
 10
478.929
 20
337.779
  0
VERTEX
  8
Layer1
 10
478.47
 20
337.688
  0
VERTEX
  8
Layer1
 10
478.027
 20
337.538
  0
VERTEX
  8
Layer1
 10
477.608
 20
337.331
  0
VERTEX
  8
Layer1
 10
477.219
 20
337.071
  0
VERTEX
  8
Layer1
 10
476.868
 20
336.763
  0
VERTEX
  8
Layer1
 10
476.559
 20
336.411
  0
VERTEX
  8
Layer1
 10
476.299
 20
336.022
  0
VERTEX
  8
Layer1
 10
476.093
 20
335.603
  0
VERTEX
  8
Layer1
 10
475.942
 20
335.16
  0
VERTEX
  8
Layer1
 10
475.851
 20
334.702
  0
VERTEX
  8
Layer1
 10
475.82
 20
334.235
  0
VERTEX
  8
Layer1
 10
475.851
 20
333.768
  0
VERTEX
  8
Layer1
 10
475.942
 20
333.31
  0
VERTEX
  8
Layer1
 10
476.093
 20
332.867
  0
VERTEX
  8
Layer1
 10
476.299
 20
332.447
  0
VERTEX
  8
Layer1
 10
476.559
 20
332.059
  0
VERTEX
  8
Layer1
 10
476.868
 20
331.707
  0
VERTEX
  8
Layer1
 10
477.219
 20
331.399
  0
VERTEX
  8
Layer1
 10
477.608
 20
331.139
  0
VERTEX
  8
Layer1
 10
478.027
 20
330.932
  0
VERTEX
  8
Layer1
 10
478.47
 20
330.782
  0
VERTEX
  8
Layer1
 10
478.929
 20
330.69
  0
VERTEX
  8
Layer1
 10
479.395
 20
330.66
  0
VERTEX
  8
Layer1
 10
479.862
 20
330.69
  0
VERTEX
  8
Layer1
 10
480.321
 20
330.782
  0
VERTEX
  8
Layer1
 10
480.764
 20
330.932
  0
VERTEX
  8
Layer1
 10
481.183
 20
331.139
  0
VERTEX
  8
Layer1
 10
481.572
 20
331.399
  0
VERTEX
  8
Layer1
 10
481.923
 20
331.707
  0
VERTEX
  8
Layer1
 10
482.232
 20
332.059
  0
VERTEX
  8
Layer1
 10
482.491
 20
332.447
  0
VERTEX
  8
Layer1
 10
482.698
 20
332.867
  0
VERTEX
  8
Layer1
 10
482.849
 20
333.31
  0
VERTEX
  8
Layer1
 10
482.94
 20
333.768
  0
SEQEND
  0
LINE
  8
Layer1
  6
CONTINUOUS
 62
7
 10
506.395
 20
288.735
 11
506.395
 21
339.735
  0
LINE
  8
Layer1
  6
CONTINUOUS
 62
7
 10
400.395
 20
288.735
 11
400.395
 21
339.735
  0
LINE
  8
Layer1
  6
CONTINUOUS
 62
7
 10
400.395
 20
353.735
 11
400.395
 21
341.735
  0
LINE
  8
Layer1
  6
CONTINUOUS
 62
7
 10
506.395
 20
353.735
 11
506.395
 21
341.735
  0
LINE
  8
Layer1
  6
CONTINUOUS
 62
7
 10
401.395
 20
340.735
 11
400.395
 21
339.735
  0
LINE
  8
Layer1
  6
CONTINUOUS
 62
7
 10
505.395
 20
340.735
 11
506.395
 21
339.735
  0
LINE
  8
Layer1
  6
CONTINUOUS
 62
7
 10
506.395
 20
341.735
 11
505.395
 21
340.735
  0
LINE
  8
Layer1
  6
CONTINUOUS
 62
7
 10
401.395
 20
340.735
 11
400.395
 21
341.735
  0
LINE
  8
Layer1
  6
CONTINUOUS
 62
7
 10
400.395
 20
288.735
 11
401.395
 21
287.735
  0
LINE
  8
Layer1
  6
CONTINUOUS
 62
7
 10
505.395
 20
287.735
 11
506.395
 21
288.735
  0
LINE
  8
Layer1
  6
CONTINUOUS
 62
7
 10
420.895
 20
310.735
 11
420.895
 21
339.735
  0
LINE
  8
Layer1
  6
CONTINUOUS
 62
7
 10
485.895
 20
310.735
 11
485.895
 21
339.735
  0
LINE
  8
Layer1
  6
CONTINUOUS
 62
7
 10
485.895
 20
339.735
 11
486.895
 21
340.735
  0
LINE
  8
Layer1
  6
CONTINUOUS
 62
7
 10
419.895
 20
340.735
 11
420.895
 21
339.735
  0
LINE
  8
Layer1
  6
CONTINUOUS
 62
7
 10
420.895
 20
311.735
 11
421.895
 21
310.735
  0
LINE
  8
Layer1
  6
CONTINUOUS
 62
7
 10
484.895
 20
310.735
 11
485.895
 21
311.735
  0
LINE
  8
Layer1
  6
CENTER1
 62
7
 10
496.395
 20
282.939
 11
496.395
 21
360.52
  0
LINE
  8
Layer1
  6
CENTER1
 62
7
 10
410.395
 20
282.939
 11
410.395
 21
361.29
  0
LINE
  8
Layer1
  6
CONTINUOUS
 62
7
 10
400.395
 20
353.735
 11
401.395
 21
354.735
  0
LINE
  8
Layer1
  6
CONTINUOUS
 62
7
 10
505.395
 20
354.735
 11
506.395
 21
353.735
  0
LINE
  8
Layer1
  6
CENTER1
 62
7
 10
432.677
 20
334.235
 11
422.114
 21
334.235
  0
LINE
  8
Layer1
  6
CENTER1
 62
7
 10
427.395
 20
329.158
 11
427.395
 21
339.311
  0
POLYLINE
  8
Layer1
  6
CONTINUOUS
 62
7
 66
1
 10
0
 20
0
 30
0
 70
1
  0
VERTEX
  8
Layer1
 10
432.395
 20
334.235
  0
VERTEX
  8
Layer1
 10
432.353
 20
334.888
  0
VERTEX
  8
Layer1
 10
432.225
 20
335.529
  0
VERTEX
  8
Layer1
 10
432.015
 20
336.148
  0
VERTEX
  8
Layer1
 10
431.726
 20
336.735
  0
VERTEX
  8
Layer1
 10
431.362
 20
337.279
  0
VERTEX
  8
Layer1
 10
430.931
 20
337.77
  0
VERTEX
  8
Layer1
 10
430.439
 20
338.202
  0
VERTEX
  8
Layer1
 10
429.895
 20
338.565
  0
VERTEX
  8
Layer1
 10
429.309
 20
338.854
  0
VERTEX
  8
Layer1
 10
428.69
 20
339.065
  0
VERTEX
  8
Layer1
 10
428.048
 20
339.192
  0
VERTEX
  8
Layer1
 10
427.395
 20
339.235
  0
VERTEX
  8
Layer1
 10
426.743
 20
339.192
  0
VERTEX
  8
Layer1
 10
426.101
 20
339.065
  0
VERTEX
  8
Layer1
 10
425.482
 20
338.854
  0
VERTEX
  8
Layer1
 10
424.895
 20
338.565
  0
VERTEX
  8
Layer1
 10
424.352
 20
338.202
  0
VERTEX
  8
Layer1
 10
423.86
 20
337.77
  0
VERTEX
  8
Layer1
 10
423.429
 20
337.279
  0
VERTEX
  8
Layer1
 10
423.065
 20
336.735
  0
VERTEX
  8
Layer1
 10
422.776
 20
336.148
  0
VERTEX
  8
Layer1
 10
422.566
 20
335.529
  0
VERTEX
  8
Layer1
 10
422.438
 20
334.888
  0
VERTEX
  8
Layer1
 10
422.395
 20
334.235
  0
VERTEX
  8
Layer1
 10
422.438
 20
333.582
  0
VERTEX
  8
Layer1
 10
422.566
 20
332.941
  0
VERTEX
  8
Layer1
 10
422.776
 20
332.321
  0
VERTEX
  8
Layer1
 10
423.065
 20
331.735
  0
VERTEX
  8
Layer1
 10
423.429
 20
331.191
  0
VERTEX
  8
Layer1
 10
423.86
 20
330.699
  0
VERTEX
  8
Layer1
 10
424.352
 20
330.268
  0
VERTEX
  8
Layer1
 10
424.895
 20
329.905
  0
VERTEX
  8
Layer1
 10
425.482
 20
329.616
  0
VERTEX
  8
Layer1
 10
426.101
 20
329.405
  0
VERTEX
  8
Layer1
 10
426.743
 20
329.278
  0
VERTEX
  8
Layer1
 10
427.395
 20
329.235
  0
VERTEX
  8
Layer1
 10
428.048
 20
329.278
  0
VERTEX
  8
Layer1
 10
428.69
 20
329.405
  0
VERTEX
  8
Layer1
 10
429.309
 20
329.616
  0
VERTEX
  8
Layer1
 10
429.895
 20
329.905
  0
VERTEX
  8
Layer1
 10
430.439
 20
330.268
  0
VERTEX
  8
Layer1
 10
430.931
 20
330.699
  0
VERTEX
  8
Layer1
 10
431.362
 20
331.191
  0
VERTEX
  8
Layer1
 10
431.726
 20
331.735
  0
VERTEX
  8
Layer1
 10
432.015
 20
332.321
  0
VERTEX
  8
Layer1
 10
432.225
 20
332.941
  0
VERTEX
  8
Layer1
 10
432.353
 20
333.582
  0
SEQEND
  0
POLYLINE
  8
Layer1
  6
CONTINUOUS
 62
7
 66
1
 10
0
 20
0
 30
0
 70
1
  0
VERTEX
  8
Layer1
 10
427.395
 20
337.81
  0
VERTEX
  8
Layer1
 10
424.299
 20
336.022
  0
VERTEX
  8
Layer1
 10
424.299
 20
332.447
  0
VERTEX
  8
Layer1
 10
427.395
 20
330.66
  0
VERTEX
  8
Layer1
 10
430.491
 20
332.447
  0
VERTEX
  8
Layer1
 10
430.491
 20
336.022
  0
SEQEND
  0
POLYLINE
  8
Layer1
  6
CONTINUOUS
 62
7
 66
1
 10
0
 20
0
 30
0
 70
1
  0
VERTEX
  8
Layer1
 10
430.97
 20
334.235
  0
VERTEX
  8
Layer1
 10
430.94
 20
334.702
  0
VERTEX
  8
Layer1
 10
430.849
 20
335.16
  0
VERTEX
  8
Layer1
 10
430.698
 20
335.603
  0
VERTEX
  8
Layer1
 10
430.491
 20
336.022
  0
VERTEX
  8
Layer1
 10
430.232
 20
336.411
  0
VERTEX
  8
Layer1
 10
429.923
 20
336.763
  0
VERTEX
  8
Layer1
 10
429.572
 20
337.071
  0
VERTEX
  8
Layer1
 10
429.183
 20
337.331
  0
VERTEX
  8
Layer1
 10
428.764
 20
337.538
  0
VERTEX
  8
Layer1
 10
428.321
 20
337.688
  0
VERTEX
  8
Layer1
 10
427.862
 20
337.779
  0
VERTEX
  8
Layer1
 10
427.395
 20
337.81
  0
VERTEX
  8
Layer1
 10
426.929
 20
337.779
  0
VERTEX
  8
Layer1
 10
426.47
 20
337.688
  0
VERTEX
  8
Layer1
 10
426.027
 20
337.538
  0
VERTEX
  8
Layer1
 10
425.608
 20
337.331
  0
VERTEX
  8
Layer1
 10
425.219
 20
337.071
  0
VERTEX
  8
Layer1
 10
424.868
 20
336.763
  0
VERTEX
  8
Layer1
 10
424.559
 20
336.411
  0
VERTEX
  8
Layer1
 10
424.299
 20
336.022
  0
VERTEX
  8
Layer1
 10
424.093
 20
335.603
  0
VERTEX
  8
Layer1
 10
423.942
 20
335.16
  0
VERTEX
  8
Layer1
 10
423.851
 20
334.702
  0
VERTEX
  8
Layer1
 10
423.82
 20
334.235
  0
VERTEX
  8
Layer1
 10
423.851
 20
333.768
  0
VERTEX
  8
Layer1
 10
423.942
 20
333.31
  0
VERTEX
  8
Layer1
 10
424.093
 20
332.867
  0
VERTEX
  8
Layer1
 10
424.299
 20
332.447
  0
VERTEX
  8
Layer1
 10
424.559
 20
332.059
  0
VERTEX
  8
Layer1
 10
424.868
 20
331.707
  0
VERTEX
  8
Layer1
 10
425.219
 20
331.399
  0
VERTEX
  8
Layer1
 10
425.608
 20
331.139
  0
VERTEX
  8
Layer1
 10
426.027
 20
330.932
  0
VERTEX
  8
Layer1
 10
426.47
 20
330.782
  0
VERTEX
  8
Layer1
 10
426.929
 20
330.69
  0
VERTEX
  8
Layer1
 10
427.395
 20
330.66
  0
VERTEX
  8
Layer1
 10
427.862
 20
330.69
  0
VERTEX
  8
Layer1
 10
428.321
 20
330.782
  0
VERTEX
  8
Layer1
 10
428.764
 20
330.932
  0
VERTEX
  8
Layer1
 10
429.183
 20
331.139
  0
VERTEX
  8
Layer1
 10
429.572
 20
331.399
  0
VERTEX
  8
Layer1
 10
429.923
 20
331.707
  0
VERTEX
  8
Layer1
 10
430.232
 20
332.059
  0
VERTEX
  8
Layer1
 10
430.491
 20
332.447
  0
VERTEX
  8
Layer1
 10
430.698
 20
332.867
  0
VERTEX
  8
Layer1
 10
430.849
 20
333.31
  0
VERTEX
  8
Layer1
 10
430.94
 20
333.768
  0
SEQEND
  0
LINE
  8
Layer1
  6
CENTER1
 62
7
 10
485.397
 20
317.235
 11
474.834
 21
317.235
  0
LINE
  8
Layer1
  6
CENTER1
 62
7
 10
479.395
 20
312.158
 11
479.395
 21
322.311
  0
POLYLINE
  8
Layer1
  6
CONTINUOUS
 62
7
 66
1
 10
0
 20
0
 30
0
 70
1
  0
VERTEX
  8
Layer1
 10
484.395
 20
317.235
  0
VERTEX
  8
Layer1
 10
484.353
 20
317.888
  0
VERTEX
  8
Layer1
 10
484.225
 20
318.529
  0
VERTEX
  8
Layer1
 10
484.015
 20
319.148
  0
VERTEX
  8
Layer1
 10
483.726
 20
319.735
  0
VERTEX
  8
Layer1
 10
483.362
 20
320.279
  0
VERTEX
  8
Layer1
 10
482.931
 20
320.77
  0
VERTEX
  8
Layer1
 10
482.439
 20
321.202
  0
VERTEX
  8
Layer1
 10
481.895
 20
321.565
  0
VERTEX
  8
Layer1
 10
481.309
 20
321.854
  0
VERTEX
  8
Layer1
 10
480.69
 20
322.065
  0
VERTEX
  8
Layer1
 10
480.048
 20
322.192
  0
VERTEX
  8
Layer1
 10
479.395
 20
322.235
  0
VERTEX
  8
Layer1
 10
478.743
 20
322.192
  0
VERTEX
  8
Layer1
 10
478.101
 20
322.065
  0
VERTEX
  8
Layer1
 10
477.482
 20
321.854
  0
VERTEX
  8
Layer1
 10
476.895
 20
321.565
  0
VERTEX
  8
Layer1
 10
476.352
 20
321.202
  0
VERTEX
  8
Layer1
 10
475.86
 20
320.77
  0
VERTEX
  8
Layer1
 10
475.429
 20
320.279
  0
VERTEX
  8
Layer1
 10
475.065
 20
319.735
  0
VERTEX
  8
Layer1
 10
474.776
 20
319.148
  0
VERTEX
  8
Layer1
 10
474.566
 20
318.529
  0
VERTEX
  8
Layer1
 10
474.438
 20
317.888
  0
VERTEX
  8
Layer1
 10
474.395
 20
317.235
  0
VERTEX
  8
Layer1
 10
474.438
 20
316.582
  0
VERTEX
  8
Layer1
 10
474.566
 20
315.941
  0
VERTEX
  8
Layer1
 10
474.776
 20
315.321
  0
VERTEX
  8
Layer1
 10
475.065
 20
314.735
  0
VERTEX
  8
Layer1
 10
475.429
 20
314.191
  0
VERTEX
  8
Layer1
 10
475.86
 20
313.699
  0
VERTEX
  8
Layer1
 10
476.352
 20
313.268
  0
VERTEX
  8
Layer1
 10
476.895
 20
312.905
  0
VERTEX
  8
Layer1
 10
477.482
 20
312.616
  0
VERTEX
  8
Layer1
 10
478.101
 20
312.405
  0
VERTEX
  8
Layer1
 10
478.743
 20
312.278
  0
VERTEX
  8
Layer1
 10
479.395
 20
312.235
  0
VERTEX
  8
Layer1
 10
480.048
 20
312.278
  0
VERTEX
  8
Layer1
 10
480.69
 20
312.405
  0
VERTEX
  8
Layer1
 10
481.309
 20
312.616
  0
VERTEX
  8
Layer1
 10
481.895
 20
312.905
  0
VERTEX
  8
Layer1
 10
482.439
 20
313.268
  0
VERTEX
  8
Layer1
 10
482.931
 20
313.699
  0
VERTEX
  8
Layer1
 10
483.362
 20
314.191
  0
VERTEX
  8
Layer1
 10
483.726
 20
314.735
  0
VERTEX
  8
Layer1
 10
484.015
 20
315.321
  0
VERTEX
  8
Layer1
 10
484.225
 20
315.941
  0
VERTEX
  8
Layer1
 10
484.353
 20
316.582
  0
SEQEND
  0
POLYLINE
  8
Layer1
  6
CONTINUOUS
 62
7
 66
1
 10
0
 20
0
 30
0
 70
1
  0
VERTEX
  8
Layer1
 10
479.395
 20
320.81
  0
VERTEX
  8
Layer1
 10
476.299
 20
319.022
  0
VERTEX
  8
Layer1
 10
476.299
 20
315.447
  0
VERTEX
  8
Layer1
 10
479.395
 20
313.66
  0
VERTEX
  8
Layer1
 10
482.491
 20
315.447
  0
VERTEX
  8
Layer1
 10
482.491
 20
319.022
  0
SEQEND
  0
POLYLINE
  8
Layer1
  6
CONTINUOUS
 62
7
 66
1
 10
0
 20
0
 30
0
 70
1
  0
VERTEX
  8
Layer1
 10
482.97
 20
317.235
  0
VERTEX
  8
Layer1
 10
482.94
 20
317.702
  0
VERTEX
  8
Layer1
 10
482.849
 20
318.16
  0
VERTEX
  8
Layer1
 10
482.698
 20
318.603
  0
VERTEX
  8
Layer1
 10
482.491
 20
319.022
  0
VERTEX
  8
Layer1
 10
482.232
 20
319.411
  0
VERTEX
  8
Layer1
 10
481.923
 20
319.763
  0
VERTEX
  8
Layer1
 10
481.572
 20
320.071
  0
VERTEX
  8
Layer1
 10
481.183
 20
320.331
  0
VERTEX
  8
Layer1
 10
480.764
 20
320.538
  0
VERTEX
  8
Layer1
 10
480.321
 20
320.688
  0
VERTEX
  8
Layer1
 10
479.862
 20
320.779
  0
VERTEX
  8
Layer1
 10
479.395
 20
320.81
  0
VERTEX
  8
Layer1
 10
478.929
 20
320.779
  0
VERTEX
  8
Layer1
 10
478.47
 20
320.688
  0
VERTEX
  8
Layer1
 10
478.027
 20
320.538
  0
VERTEX
  8
Layer1
 10
477.608
 20
320.331
  0
VERTEX
  8
Layer1
 10
477.219
 20
320.071
  0
VERTEX
  8
Layer1
 10
476.868
 20
319.763
  0
VERTEX
  8
Layer1
 10
476.559
 20
319.411
  0
VERTEX
  8
Layer1
 10
476.299
 20
319.022
  0
VERTEX
  8
Layer1
 10
476.093
 20
318.603
  0
VERTEX
  8
Layer1
 10
475.942
 20
318.16
  0
VERTEX
  8
Layer1
 10
475.851
 20
317.702
  0
VERTEX
  8
Layer1
 10
475.82
 20
317.235
  0
VERTEX
  8
Layer1
 10
475.851
 20
316.768
  0
VERTEX
  8
Layer1
 10
475.942
 20
316.31
  0
VERTEX
  8
Layer1
 10
476.093
 20
315.867
  0
VERTEX
  8
Layer1
 10
476.299
 20
315.447
  0
VERTEX
  8
Layer1
 10
476.559
 20
315.059
  0
VERTEX
  8
Layer1
 10
476.868
 20
314.707
  0
VERTEX
  8
Layer1
 10
477.219
 20
314.399
  0
VERTEX
  8
Layer1
 10
477.608
 20
314.139
  0
VERTEX
  8
Layer1
 10
478.027
 20
313.932
  0
VERTEX
  8
Layer1
 10
478.47
 20
313.782
  0
VERTEX
  8
Layer1
 10
478.929
 20
313.69
  0
VERTEX
  8
Layer1
 10
479.395
 20
313.66
  0
VERTEX
  8
Layer1
 10
479.862
 20
313.69
  0
VERTEX
  8
Layer1
 10
480.321
 20
313.782
  0
VERTEX
  8
Layer1
 10
480.764
 20
313.932
  0
VERTEX
  8
Layer1
 10
481.183
 20
314.139
  0
VERTEX
  8
Layer1
 10
481.572
 20
314.399
  0
VERTEX
  8
Layer1
 10
481.923
 20
314.707
  0
VERTEX
  8
Layer1
 10
482.232
 20
315.059
  0
VERTEX
  8
Layer1
 10
482.491
 20
315.447
  0
VERTEX
  8
Layer1
 10
482.698
 20
315.867
  0
VERTEX
  8
Layer1
 10
482.849
 20
316.31
  0
VERTEX
  8
Layer1
 10
482.94
 20
316.768
  0
SEQEND
  0
LINE
  8
Layer1
  6
CONTINUOUS
 62
7
 10
403.395
 20
386.735
 11
403.395
 21
396.735
  0
LINE
  8
Layer1
  6
CONTINUOUS
 62
7
 10
503.395
 20
386.735
 11
503.395
 21
396.735
  0
LINE
  8
Layer1
  6
DASHED1
 62
7
 10
421.395
 20
334.735
 11
421.395
 21
354.735
  0
LINE
  8
Layer1
  6
DASHED1
 62
7
 10
485.395
 20
334.735
 11
485.395
 21
354.735
  0
LINE
  8
Layer1
  6
CONTINUOUS
 62
7
 10
404.395
 20
397.735
 11
403.395
 21
396.735
  0
LINE
  8
Layer1
  6
CONTINUOUS
 62
7
 10
403.395
 20
386.735
 11
404.395
 21
385.735
  0
ARC
  8
Layer1
  6
CONTINUOUS
 62
7
 10
418.395
 20
382.735
 40
3
 50
0
 51
90
  0
LINE
  8
Layer1
  6
CONTINUOUS
 62
7
 10
502.395
 20
397.735
 11
503.395
 21
396.735
  0
LINE
  8
Layer1
  6
CONTINUOUS
 62
7
 10
503.395
 20
386.735
 11
502.395
 21
385.735
  0
ARC
  8
Layer1
  6
CONTINUOUS
 62
7
 10
488.395
 20
382.735
 40
3
 50
90
 51
180
  0
LINE
  8
Layer1
  6
CONTINUOUS
 62
7
 10
485.395
 20
334.735
 11
483.395
 21
332.735
  0
LINE
  8
Layer1
  6
CONTINUOUS
 62
7
 10
423.395
 20
332.735
 11
421.395
 21
334.735
  0
LINE
  8
Layer1
  6
CONTINUOUS
 62
7
 10
421.395
 20
354.735
 11
421.395
 21
382.735
  0
LINE
  8
Layer1
  6
CONTINUOUS
 62
7
 10
485.395
 20
354.735
 11
485.395
 21
382.735
  0
LINE
  8
Layer1
  6
DASHED1
 62
7
 10
461.395
 20
334.735
 11
461.395
 21
339.735
  0
LINE
  8
Layer1
  6
DASHED1
 62
7
 10
445.395
 20
334.735
 11
445.395
 21
339.735
  0
ARC
  8
Layer1
  6
DASHED1
 62
7
 10
453.395
 20
339.735
 40
8
 50
0
 51
180
  0
LINE
  8
Layer1
  6
DASHED1
 62
7
 10
445.395
 20
334.735
 11
443.395
 21
332.735
  0
LINE
  8
Layer1
  6
DASHED1
 62
7
 10
461.395
 20
334.735
 11
463.395
 21
332.735
  0
LINE
  8
Layer1
  6
CENTER1
 62
7
 10
412.395
 20
381.797
 11
412.395
 21
399.417
  0
LINE
  8
Layer1
  6
CENTER1
 62
7
 10
494.395
 20
383.23
 11
494.395
 21
401.042
  0
LINE
  8
Layer1
  6
DASHED1
 62
7
 10
473.395
 20
362.735
 11
473.395
 21
397.735
  0
LINE
  8
Layer1
  6
DASHED1
 62
7
 10
433.395
 20
362.735
 11
433.395
 21
397.735
  0
LINE
  8
Layer1
  6
DASHED1
 62
7
 10
438.395
 20
357.735
 11
468.395
 21
357.735
  0
LINE
  8
Layer1
  6
CENTER1
 62
7
 10
467.395
 20
308.882
 11
467.395
 21
287.109
  0
LINE
  8
Layer1
  6
CENTER1
 62
7
 10
439.395
 20
309.031
 11
439.395
 21
287.735
  0
CIRCLE
  8
Layer1
  6
DASHED1
 62
7
 10
439.395
 20
299.235
 40
7.1
  0
LINE
  8
Layer1
  6
CENTER1
 62
7
 10
429.568
 20
299.235
 11
450.2
 21
299.235
  0
LINE
  8
Layer1
  6
CENTER1
 62
7
 10
457.667
 20
299.235
 11
477.77
 21
299.235
  0
CIRCLE
  8
Layer1
  6
DASHED1
 62
7
 10
467.395
 20
299.235
 40
4
  0
CIRCLE
  8
Layer1
  6
DASHED1
 62
7
 10
439.395
 20
299.235
 40
4
  0
LINE
  8
Layer1
  6
DASHED1
 62
7
 10
468.395
 20
357.735
 11
473.395
 21
362.735
  0
LINE
  8
Layer1
  6
DASHED1
 62
7
 10
438.395
 20
357.735
 11
433.395
 21
362.735
  0
TEXT
  8
Layer1
 62
7
 10
394.31
 20
391.735
 72
1
 11
394.31
 21
391.735
 40
8
 41
1
 50
90
  1
 12 
  0
LINE
  8
Layer1
  6
CONTINUOUS
 62
7
 10
404.395
 20
397.735
 11
388.31
 21
397.735
  0
LINE
  8
Layer1
  6
CONTINUOUS
 62
7
 10
406.945
 20
385.735
 11
388.31
 21
385.735
  0
POLYLINE
  8
Layer1
  6
CONTINUOUS
 62
7
 66
1
 10
0
 20
0
 30
0
  0
VERTEX
  8
Layer1
 10
394.31
 20
403.735
  0
VERTEX
  8
Layer1
 10
394.31
 20
397.735
  0
SEQEND
  0
POLYLINE
  8
Layer1
  6
CONTINUOUS
 62
7
 66
1
 10
0
 20
0
 30
0
 70
1
  0
VERTEX
  8
Layer1
 10
395.345
 20
401.599
  0
VERTEX
  8
Layer1
 10
394.31
 20
397.735
  0
VERTEX
  8
Layer1
 10
393.274
 20
401.599
  0
SEQEND
  0
POLYLINE
  8
Layer1
  6
CONTINUOUS
 62
7
 66
1
 10
0
 20
0
 30
0
  0
VERTEX
  8
Layer1
 10
394.31
 20
379.735
  0
VERTEX
  8
Layer1
 10
394.31
 20
385.735
  0
SEQEND
  0
POLYLINE
  8
Layer1
  6
CONTINUOUS
 62
7
 66
1
 10
0
 20
0
 30
0
 70
1
  0
VERTEX
  8
Layer1
 10
393.274
 20
381.871
  0
VERTEX
  8
Layer1
 10
394.31
 20
385.735
  0
VERTEX
  8
Layer1
 10
395.345
 20
381.871
  0
SEQEND
  0
LINE
  8
Layer1
  6
CONTINUOUS
 62
7
 10
394.31
 20
397.735
 11
394.31
 21
385.735
  0
TEXT
  8
Layer1
 62
7
 10
382.165
 20
365.235
 72
1
 11
382.165
 21
365.235
 40
8
 41
1
 50
90
  1
 65 
  0
LINE
  8
Layer1
  6
CONTINUOUS
 62
7
 10
423.395
 20
332.735
 11
376.165
 21
332.735
  0
LINE
  8
Layer1
  6
CONTINUOUS
 62
7
 10
404.395
 20
397.735
 11
376.165
 21
397.735
  0
POLYLINE
  8
Layer1
  6
CONTINUOUS
 62
7
 66
1
 10
0
 20
0
 30
0
  0
VERTEX
  8
Layer1
 10
382.165
 20
332.735
  0
VERTEX
  8
Layer1
 10
382.165
 20
397.735
  0
SEQEND
  0
POLYLINE
  8
Layer1
  6
CONTINUOUS
 62
7
 66
1
 10
0
 20
0
 30
0
 70
1
  0
VERTEX
  8
Layer1
 10
383.2
 20
336.599
  0
VERTEX
  8
Layer1
 10
382.165
 20
332.735
  0
VERTEX
  8
Layer1
 10
381.13
 20
336.599
  0
SEQEND
  0
POLYLINE
  8
Layer1
  6
CONTINUOUS
 62
7
 66
1
 10
0
 20
0
 30
0
 70
1
  0
VERTEX
  8
Layer1
 10
381.13
 20
393.871
  0
VERTEX
  8
Layer1
 10
382.165
 20
397.735
  0
VERTEX
  8
Layer1
 10
383.2
 20
393.871
  0
SEQEND
  0
TEXT
  8
Layer1
 62
7
 10
517.037
 20
325.735
 72
1
 11
517.037
 21
325.735
 40
8
 41
1
 50
90
  1
 17 
  0
LINE
  8
Layer1
  6
CONTINUOUS
 62
7
 10
480.837
 20
334.235
 11
523.037
 21
334.235
  0
LINE
  8
Layer1
  6
CONTINUOUS
 62
7
 10
482.452
 20
317.235
 11
523.037
 21
317.235
  0
POLYLINE
  8
Layer1
  6
CONTINUOUS
 62
7
 66
1
 10
0
 20
0
 30
0
  0
VERTEX
  8
Layer1
 10
517.037
 20
334.235
  0
VERTEX
  8
Layer1
 10
517.037
 20
317.235
  0
SEQEND
  0
POLYLINE
  8
Layer1
  6
CONTINUOUS
 62
7
 66
1
 10
0
 20
0
 30
0
 70
1
  0
VERTEX
  8
Layer1
 10
516.002
 20
330.371
  0
VERTEX
  8
Layer1
 10
517.037
 20
334.235
  0
VERTEX
  8
Layer1
 10
518.072
 20
330.371
  0
SEQEND
  0
POLYLINE
  8
Layer1
  6
CONTINUOUS
 62
7
 66
1
 10
0
 20
0
 30
0
 70
1
  0
VERTEX
  8
Layer1
 10
518.072
 20
321.099
  0
VERTEX
  8
Layer1
 10
517.037
 20
317.235
  0
VERTEX
  8
Layer1
 10
516.002
 20
321.099
  0
SEQEND
  0
TEXT
  8
Layer1
 62
7
 10
532.698
 20
325.735
 72
1
 11
532.698
 21
325.735
 40
8
 41
1
 50
90
  1
 30 
  0
LINE
  8
Layer1
  6
CONTINUOUS
 62
7
 10
485.895
 20
310.735
 11
538.698
 21
310.735
  0
LINE
  8
Layer1
  6
CONTINUOUS
 62
7
 10
505.395
 20
340.735
 11
538.698
 21
340.735
  0
POLYLINE
  8
Layer1
  6
CONTINUOUS
 62
7
 66
1
 10
0
 20
0
 30
0
  0
VERTEX
  8
Layer1
 10
532.698
 20
310.735
  0
VERTEX
  8
Layer1
 10
532.698
 20
340.735
  0
SEQEND
  0
POLYLINE
  8
Layer1
  6
CONTINUOUS
 62
7
 66
1
 10
0
 20
0
 30
0
 70
1
  0
VERTEX
  8
Layer1
 10
533.733
 20
314.599
  0
VERTEX
  8
Layer1
 10
532.698
 20
310.735
  0
VERTEX
  8
Layer1
 10
531.662
 20
314.599
  0
SEQEND
  0
POLYLINE
  8
Layer1
  6
CONTINUOUS
 62
7
 66
1
 10
0
 20
0
 30
0
 70
1
  0
VERTEX
  8
Layer1
 10
531.662
 20
336.871
  0
VERTEX
  8
Layer1
 10
532.698
 20
340.735
  0
VERTEX
  8
Layer1
 10
533.733
 20
336.871
  0
SEQEND
  0
TEXT
  8
Layer1
 62
7
 10
548.997
 20
306.735
 72
1
 11
548.997
 21
306.735
 40
8
 41
1
 50
90
  1
 38 
  0
LINE
  8
Layer1
  6
CONTINUOUS
 62
7
 10
470.419
 20
325.735
 11
554.997
 21
325.735
  0
LINE
  8
Layer1
  6
CONTINUOUS
 62
7
 10
505.395
 20
287.735
 11
554.997
 21
287.735
  0
POLYLINE
  8
Layer1
  6
CONTINUOUS
 62
7
 66
1
 10
0
 20
0
 30
0
  0
VERTEX
  8
Layer1
 10
548.997
 20
325.735
  0
VERTEX
  8
Layer1
 10
548.997
 20
287.735
  0
SEQEND
  0
POLYLINE
  8
Layer1
  6
CONTINUOUS
 62
7
 66
1
 10
0
 20
0
 30
0
 70
1
  0
VERTEX
  8
Layer1
 10
547.962
 20
321.871
  0
VERTEX
  8
Layer1
 10
548.997
 20
325.735
  0
VERTEX
  8
Layer1
 10
550.034
 20
321.871
  0
SEQEND
  0
POLYLINE
  8
Layer1
  6
CONTINUOUS
 62
7
 66
1
 10
0
 20
0
 30
0
 70
1
  0
VERTEX
  8
Layer1
 10
550.034
 20
291.599
  0
VERTEX
  8
Layer1
 10
548.997
 20
287.735
  0
VERTEX
  8
Layer1
 10
547.962
 20
291.599
  0
SEQEND
  0
TEXT
  8
Layer1
 62
7
 10
568.813
 20
321.235
 72
1
 11
568.813
 21
321.235
 40
8
 41
1
 50
90
  1
 67 
  0
LINE
  8
Layer1
  6
CONTINUOUS
 62
7
 10
505.395
 20
354.735
 11
574.813
 21
354.735
  0
LINE
  8
Layer1
  6
CONTINUOUS
 62
7
 10
505.395
 20
287.735
 11
574.813
 21
287.735
  0
POLYLINE
  8
Layer1
  6
CONTINUOUS
 62
7
 66
1
 10
0
 20
0
 30
0
  0
VERTEX
  8
Layer1
 10
568.813
 20
354.735
  0
VERTEX
  8
Layer1
 10
568.813
 20
287.735
  0
SEQEND
  0
POLYLINE
  8
Layer1
  6
CONTINUOUS
 62
7
 66
1
 10
0
 20
0
 30
0
 70
1
  0
VERTEX
  8
Layer1
 10
567.777
 20
350.871
  0
VERTEX
  8
Layer1
 10
568.813
 20
354.735
  0
VERTEX
  8
Layer1
 10
569.848
 20
350.871
  0
SEQEND
  0
POLYLINE
  8
Layer1
  6
CONTINUOUS
 62
7
 66
1
 10
0
 20
0
 30
0
 70
1
  0
VERTEX
  8
Layer1
 10
569.848
 20
291.599
  0
VERTEX
  8
Layer1
 10
568.813
 20
287.735
  0
VERTEX
  8
Layer1
 10
567.777
 20
291.599
  0
SEQEND
  0
TEXT
  8
Layer1
 62
7
 10
453.356
 20
271.029
 72
1
 11
453.356
 21
271.029
 40
8
 41
1
  1
 52 
  0
LINE
  8
Layer1
  6
CONTINUOUS
 62
7
 10
427.356
 20
313.66
 11
427.356
 21
265.029
  0
LINE
  8
Layer1
  6
CONTINUOUS
 62
7
 10
479.356
 20
312.095
 11
479.356
 21
265.029
  0
POLYLINE
  8
Layer1
  6
CONTINUOUS
 62
7
 66
1
 10
0
 20
0
 30
0
  0
VERTEX
  8
Layer1
 10
427.356
 20
271.029
  0
VERTEX
  8
Layer1
 10
479.356
 20
271.029
  0
SEQEND
  0
POLYLINE
  8
Layer1
  6
CONTINUOUS
 62
7
 66
1
 10
0
 20
0
 30
0
 70
1
  0
VERTEX
  8
Layer1
 10
431.22
 20
269.994
  0
VERTEX
  8
Layer1
 10
427.356
 20
271.029
  0
VERTEX
  8
Layer1
 10
431.22
 20
272.064
  0
SEQEND
  0
POLYLINE
  8
Layer1
  6
CONTINUOUS
 62
7
 66
1
 10
0
 20
0
 30
0
 70
1
  0
VERTEX
  8
Layer1
 10
475.493
 20
272.064
  0
VERTEX
  8
Layer1
 10
479.356
 20
271.029
  0
VERTEX
  8
Layer1
 10
475.493
 20
269.994
  0
SEQEND
  0
TEXT
  8
Layer1
 62
7
 10
453.645
 20
255.688
 72
1
 11
453.645
 21
255.688
 40
8
 41
1
  1
65
  0
LINE
  8
Layer1
  6
CONTINUOUS
 62
7
 10
420.895
 20
310.735
 11
420.895
 21
250.432
  0
LINE
  8
Layer1
  6
CONTINUOUS
 62
7
 10
485.895
 20
311.735
 11
485.895
 21
249.688
  0
POLYLINE
  8
Layer1
  6
CONTINUOUS
 62
7
 66
1
 10
0
 20
0
 30
0
  0
VERTEX
  8
Layer1
 10
420.895
 20
255.688
  0
VERTEX
  8
Layer1
 10
485.895
 20
255.688
  0
SEQEND
  0
POLYLINE
  8
Layer1
  6
CONTINUOUS
 62
7
 66
1
 10
0
 20
0
 30
0
 70
1
  0
VERTEX
  8
Layer1
 10
424.759
 20
254.653
  0
VERTEX
  8
Layer1
 10
420.895
 20
255.688
  0
VERTEX
  8
Layer1
 10
424.759
 20
256.723
  0
SEQEND
  0
POLYLINE
  8
Layer1
  6
CONTINUOUS
 62
7
 66
1
 10
0
 20
0
 30
0
 70
1
  0
VERTEX
  8
Layer1
 10
482.032
 20
256.723
  0
VERTEX
  8
Layer1
 10
485.895
 20
255.688
  0
VERTEX
  8
Layer1
 10
482.032
 20
254.653
  0
SEQEND
  0
TEXT
  8
Layer1
 62
7
 10
557.007
 20
303.048
 72
1
 11
557.007
 21
303.048
 40
6
 41
1
 50
90
  1
(中心間距離）
  0
CIRCLE
  8
Layer1
  6
CONTINUOUS
 62
7
 10
722.149
 20
545.01
 40
4.5
  0
CIRCLE
  8
Layer1
  6
CONTINUOUS
 62
7
 10
722.149
 20
462.976
 40
4.5
  0
CIRCLE
  8
Layer1
  6
CONTINUOUS
 62
7
 10
698.149
 20
463.01
 40
4.5
  0
CIRCLE
  8
Layer1
  6
CONTINUOUS
 62
7
 10
650.149
 20
547.01
 40
4.5
  0
CIRCLE
  8
Layer1
  6
CONTINUOUS
 62
7
 10
666.149
 20
461.01
 40
4.5
  0
CIRCLE
  8
Layer1
  6
CONTINUOUS
 62
7
 10
650.149
 20
461.01
 40
4.5
  0
CIRCLE
  8
Layer1
  6
PHANTOM1
 62
7
 10
700.149
 20
461.01
 40
4.5
  0
CIRCLE
  8
Layer1
  6
CONTINUOUS
 62
7
 10
666.149
 20
547.01
 40
4.5
  0
CIRCLE
  8
Layer1
  6
CONTINUOUS
 62
7
 10
650.149
 20
547.01
 40
7
  0
CIRCLE
  8
Layer1
  6
CONTINUOUS
 62
7
 10
650.149
 20
461.01
 40
7
  0
CIRCLE
  8
Layer1
  6
CONTINUOUS
 62
7
 10
666.149
 20
461.01
 40
6
  0
CIRCLE
  8
Layer1
  6
CONTINUOUS
 62
7
 10
666.149
 20
547.01
 40
6
  0
CIRCLE
  8
Layer1
  6
DASHED1
 62
7
 10
722.149
 20
545.01
 40
7
  0
CIRCLE
  8
Layer1
  6
DASHED1
 62
7
 10
721.809
 20
462.978
 40
7
  0
CIRCLE
  8
Layer1
  6
DASHED1
 62
7
 10
698.149
 20
463.01
 40
7
  0
CIRCLE
  8
Layer1
  6
CONTINUOUS
 62
7
 10
700.149
 20
547.01
 40
4.5
  0
ENDSEC
  0
EOF
