  0
SECTION
  2
HEADER
  9
$EXTMIN
 10
0
 20
0
  9
$EXTMAX
 10
1189
 20
841
  9
$LTSCALE
 40
1
  9
$LIMMIN
 10
0
 20
0
  9
$LIMMAX
 10
1189
 20
841
  9
$DIMSCALE
 40
1
  0
ENDSEC
  0
SECTION
  2
TABLES
  0
TABLE
  2
LTYPE
 70
9
  0
LTYPE
  2
CONTINUOUS
 70
64
  3
----------
 72
65
 73
0
 40
0
  0
LTYPE
  2
DASHED1
 70
64
  3
--  --  --  --  --  --  --  --  
 72
65
 73
2
 40
2.5
 49
1.25
 49
-1.25
  0
LTYPE
  2
DASHED2
 70
64
  3
----    ----    ----    ----    
 72
65
 73
2
 40
5
 49
2.5
 49
-2.5
  0
LTYPE
  2
DASHED3
 70
64
  3
------  ------  ------  ------  
 72
65
 73
2
 40
5
 49
3.75
 49
-1.25
  0
LTYPE
  2
CENTER1
 70
64
  3
----- - ----- - ----- - ----- - 
 72
65
 73
4
 40
7.5
 49
3.75
 49
-1.25
 49
1.25
 49
-1.25
  0
LTYPE
  2
CENTER2
 70
64
  3
----------  --  ----------  --  
 72
65
 73
4
 40
13.75
 49
6.25
 49
-2.5
 49
2.5
 49
-2.5
  0
LTYPE
  2
PHANTOM1
 70
64
  3
--- - - --- - - --- - - --- - - 
 72
65
 73
6
 40
9.5
 49
3.25
 49
-1.25
 49
1.25
 49
-1.25
 49
1.25
 49
-1.25
  0
LTYPE
  2
PHANTOM2
 70
64
  3
--------  -  -  --------  -  -  
 72
65
 73
6
 40
18
 49
8
 49
-2.5
 49
1.25
 49
-2.5
 49
1.25
 49
-2.5
  0
LTYPE
  2
DOT
 70
64
  3
-   -   -   -   -   -   -   -   
 72
65
 73
2
 40
2.5
 49
0.625
 49
-1.875
  0
LTYPE
  2
HOJO
 70
64
  3
-   -   -   -   -   -   -   -   
 72
65
 73
2
 40
2.5
 49
0.625
 49
-1.875
  0
ENDTAB
  0
TABLE
  2
STYLE
 70
2
  0
STYLE
  2
STANDARD
 70
64
 40
0
 41
1
 42
0
 50
0
 71
0
  3
TXT
  4
BIGFONT
  0
STYLE
  2
TATEGAKI
 70
68
 40
0
 41
1
 42
0
 50
0
 71
0
  3
TXT
  4
EXTFONT
  0
ENDTAB
  0
TABLE
  2
LAYER
 70
1
  0
LAYER
  2
Layer1
 70
64
 62
7
  6
CONTINUOUS
  0
ENDTAB
  0
ENDSEC
  0
SECTION
  2
ENTITIES
  0
LINE
  8
Layer1
  6
CONTINUOUS
 62
7
 10
342.867
 20
485.463
 11
342.867
 21
494.634
  0
LINE
  8
Layer1
  6
DASHED1
 62
7
 10
240.95
 20
484.538
 11
279.575
 21
484.538
  0
LINE
  8
Layer1
  6
DASHED1
 62
7
 10
272.867
 20
484.463
 11
272.867
 21
504.546
  0
LINE
  8
Layer1
  6
DASHED1
 62
7
 10
270.867
 20
484.538
 11
270.867
 21
506.61
  0
LINE
  8
Layer1
  6
CONTINUOUS
 62
7
 10
323.792
 20
514.538
 11
342.281
 21
496.049
  0
LINE
  8
Layer1
  6
DASHED1
 62
7
 10
239.893
 20
628.508
 11
270.893
 21
628.508
  0
LINE
  8
Layer1
  6
DASHED1
 62
7
 10
270.867
 20
628.508
 11
270.867
 21
658.508
  0
LINE
  8
Layer1
  6
DASHED1
 62
7
 10
272.867
 20
628.508
 11
272.867
 21
658.508
  0
LINE
  8
Layer1
  6
DASHED1
 62
7
 10
270.867
 20
630.008
 11
272.867
 21
630.008
  0
LINE
  8
Layer1
  6
DASHED1
 62
7
 10
272.867
 20
657.008
 11
270.867
 21
657.008
  0
LINE
  8
Layer1
  6
DASHED1
 62
7
 10
270.867
 20
512.963
 11
272.867
 21
512.963
  0
LINE
  8
Layer1
  6
CONTINUOUS
 62
7
 10
341.867
 20
484.538
 11
279.575
 21
484.538
  0
LINE
  8
Layer1
  6
DASHED1
 62
7
 10
270.867
 20
485.963
 11
272.867
 21
485.963
  0
LINE
  8
Layer1
  6
CONTINUOUS
 62
7
 10
238.95
 20
513.546
 11
239.942
 21
514.538
  0
LINE
  8
Layer1
  6
CONTINUOUS
 62
7
 10
238.95
 20
485.38
 11
239.792
 21
484.538
  0
LINE
  8
Layer1
  6
CONTINUOUS
 62
7
 10
341.867
 20
484.463
 11
342.867
 21
485.463
  0
ARC
  8
Layer1
  6
CONTINUOUS
 62
7
 10
340.867
 20
494.634
 40
2
 50
0
 51
45
  0
LINE
  8
Layer1
  6
CENTER1
 62
7
 10
210.553
 20
507.963
 11
264.14
 21
507.963
  0
LINE
  8
Layer1
  6
CENTER1
 62
7
 10
336.867
 20
473.933
 11
336.867
 21
489.481
  0
LINE
  8
Layer1
  6
CONTINUOUS
 62
7
 10
130.26
 20
514.538
 11
72.2599
 21
514.538
  0
LINE
  8
Layer1
  6
CONTINUOUS
 62
7
 10
130.26
 20
526.538
 11
72.2599
 21
526.538
  0
LINE
  8
Layer1
  6
CONTINUOUS
 62
7
 10
131.448
 20
515.726
 11
131.448
 21
525.351
  0
LINE
  8
Layer1
  6
CONTINUOUS
 62
7
 10
302.778
 20
614.682
 11
302.778
 21
672.334
  0
LINE
  8
Layer1
  6
DASHED1
 62
7
 10
281.68
 20
638.122
 11
281.68
 21
649.104
  0
LINE
  8
Layer1
  6
DASHED1
 62
7
 10
261.68
 20
649.104
 11
261.68
 21
638.122
  0
LINE
  8
Layer1
  6
DASHED1
 62
7
 10
280.68
 20
637.122
 11
262.68
 21
637.122
  0
LINE
  8
Layer1
  6
DASHED1
 62
7
 10
280.68
 20
650.104
 11
262.68
 21
650.104
  0
LINE
  8
Layer1
  6
CENTER1
 62
7
 10
248.95
 20
676.438
 11
248.95
 21
656.578
  0
CIRCLE
  8
Layer1
  6
CONTINUOUS
 62
7
 10
263.95
 20
620.508
 40
5.5
  0
CIRCLE
  8
Layer1
  6
CONTINUOUS
 62
7
 10
279.95
 20
666.508
 40
5.5
  0
CIRCLE
  8
Layer1
  6
CONTINUOUS
 62
7
 10
263.95
 20
666.508
 40
5.5
  0
LINE
  8
Layer1
  6
DASHED1
 62
7
 10
262.68
 20
637.122
 11
261.68
 21
638.122
  0
LINE
  8
Layer1
  6
DASHED1
 62
7
 10
261.68
 20
649.104
 11
262.68
 21
650.104
  0
LINE
  8
Layer1
  6
DASHED1
 62
7
 10
281.68
 20
649.104
 11
280.68
 21
650.104
  0
LINE
  8
Layer1
  6
DASHED1
 62
7
 10
280.68
 20
637.122
 11
281.68
 21
638.122
  0
LINE
  8
Layer1
  6
CONTINUOUS
 62
7
 10
301.778
 20
673.334
 11
302.778
 21
672.334
  0
LINE
  8
Layer1
  6
CONTINUOUS
 62
7
 10
301.778
 20
613.682
 11
302.778
 21
614.682
  0
LINE
  8
Layer1
  6
CENTER1
 62
7
 10
124.448
 20
530.217
 11
124.448
 21
508.963
  0
LINE
  8
Layer1
  6
CENTER1
 62
7
 10
78.4479
 20
530.217
 11
78.4479
 21
508.963
  0
LINE
  8
Layer1
  6
DASHED1
 62
7
 10
108.031
 20
520.538
 11
108.031
 21
514.538
  0
LINE
  8
Layer1
  6
DASHED1
 62
7
 10
95.0479
 20
520.538
 11
95.0479
 21
514.538
  0
LINE
  8
Layer1
  6
DASHED1
 62
7
 10
96.0479
 20
521.538
 11
107.031
 21
521.538
  0
LINE
  8
Layer1
  6
DASHED1
 62
7
 10
104.458
 20
525.788
 11
104.458
 21
521.538
  0
LINE
  8
Layer1
  6
DASHED1
 62
7
 10
98.7079
 20
525.538
 11
104.208
 21
525.538
  0
LINE
  8
Layer1
  6
DASHED1
 62
7
 10
98.7079
 20
525.538
 11
98.7079
 21
521.538
  0
LINE
  8
Layer1
  6
DASHED1
 62
7
 10
98.4579
 20
525.788
 11
98.4579
 21
521.538
  0
LINE
  8
Layer1
  6
DASHED1
 62
7
 10
104.208
 20
525.538
 11
104.208
 21
521.538
  0
LINE
  8
Layer1
  6
DASHED1
 62
7
 10
98.7079
 20
525.538
 11
97.7079
 21
526.538
  0
LINE
  8
Layer1
  6
DASHED1
 62
7
 10
104.208
 20
525.538
 11
105.208
 21
526.538
  0
LINE
  8
Layer1
  6
CENTER1
 62
7
 10
323.745
 20
678.809
 11
323.745
 21
611.944
  0
LINE
  8
Layer1
  6
CONTINUOUS
 62
7
 10
304.893
 20
571.538
 11
342.893
 21
571.538
  0
LINE
  8
Layer1
  6
DASHED1
 62
7
 10
108.448
 20
506.538
 11
114.448
 21
506.538
  0
LINE
  8
Layer1
  6
DASHED1
 62
7
 10
87.4479
 20
507.538
 11
87.4479
 21
526.538
  0
LINE
  8
Layer1
  6
DASHED1
 62
7
 10
115.448
 20
507.538
 11
115.448
 21
526.538
  0
LINE
  8
Layer1
  6
CONTINUOUS
 62
7
 10
73.4479
 20
559.538
 11
86.4479
 21
559.538
  0
LINE
  8
Layer1
  6
CONTINUOUS
 62
7
 10
72.4479
 20
560.538
 11
72.4479
 21
570.538
  0
LINE
  8
Layer1
  6
CONTINUOUS
 62
7
 10
130.448
 20
560.538
 11
130.448
 21
570.538
  0
LINE
  8
Layer1
  6
CONTINUOUS
 62
7
 10
129.448
 20
559.538
 11
116.448
 21
559.538
  0
LINE
  8
Layer1
  6
CONTINUOUS
 62
7
 10
115.448
 20
534.538
 11
87.4479
 21
534.538
  0
LINE
  8
Layer1
  6
DASHED1
 62
7
 10
107.448
 20
507.538
 11
107.448
 21
512.569
  0
LINE
  8
Layer1
  6
DASHED1
 62
7
 10
95.4479
 20
507.538
 11
95.4479
 21
512.569
  0
LINE
  8
Layer1
  6
DASHED1
 62
7
 10
94.4479
 20
506.538
 11
88.4479
 21
506.538
  0
CIRCLE
  8
Layer1
  6
CONTINUOUS
 62
7
 10
101.448
 20
561.538
 40
4
  0
CIRCLE
  8
Layer1
  6
CONTINUOUS
 62
7
 10
101.448
 20
537.538
 40
1.9
  0
LINE
  8
Layer1
  6
CONTINUOUS
 62
7
 10
72.4479
 20
570.538
 11
73.4479
 21
571.538
  0
LINE
  8
Layer1
  6
CONTINUOUS
 62
7
 10
72.4479
 20
560.538
 11
73.4479
 21
559.538
  0
LINE
  8
Layer1
  6
CONTINUOUS
 62
7
 10
129.448
 20
571.538
 11
130.448
 21
570.538
  0
LINE
  8
Layer1
  6
CONTINUOUS
 62
7
 10
130.448
 20
560.538
 11
129.448
 21
559.538
  0
LINE
  8
Layer1
  6
DASHED1
 62
7
 10
87.4479
 20
507.538
 11
88.4479
 21
506.538
  0
LINE
  8
Layer1
  6
DASHED1
 62
7
 10
115.448
 20
507.538
 11
114.448
 21
506.538
  0
LINE
  8
Layer1
  6
DASHED1
 62
7
 10
95.4479
 20
507.538
 11
94.4479
 21
506.538
  0
LINE
  8
Layer1
  6
DASHED1
 62
7
 10
107.448
 20
507.538
 11
108.448
 21
506.538
  0
ARC
  8
Layer1
  6
CONTINUOUS
 62
7
 10
86.4479
 20
558.538
 40
1
 50
0
 51
90
  0
ARC
  8
Layer1
  6
CONTINUOUS
 62
7
 10
116.448
 20
558.538
 40
1
 50
90
 51
180
  0
LINE
  8
Layer1
  6
DASHED1
 62
7
 10
94.4479
 20
533.538
 11
108.448
 21
533.538
  0
LINE
  8
Layer1
  6
DASHED1
 62
7
 10
94.4479
 20
571.538
 11
94.4479
 21
533.538
  0
LINE
  8
Layer1
  6
DASHED1
 62
7
 10
108.448
 20
571.538
 11
108.448
 21
532.538
  0
LINE
  8
Layer1
  6
DASHED1
 62
7
 10
101.448
 20
529.497
 11
94.4479
 21
533.538
  0
LINE
  8
Layer1
  6
DASHED1
 62
7
 10
101.448
 20
529.497
 11
108.448
 21
533.538
  0
LINE
  8
Layer1
  6
CONTINUOUS
 62
7
 10
129.448
 20
571.538
 11
73.4479
 21
571.538
  0
LINE
  8
Layer1
  6
CENTER1
 62
7
 10
106.245
 20
561.538
 11
96.4529
 21
561.538
  0
LINE
  8
Layer1
  6
CENTER1
 62
7
 10
104.214
 20
537.574
 11
98.7739
 21
537.574
  0
LINE
  8
Layer1
  6
CONTINUOUS
 62
7
 10
130.26
 20
526.538
 11
131.448
 21
525.351
  0
LINE
  8
Layer1
  6
CONTINUOUS
 62
7
 10
131.448
 20
515.726
 11
130.26
 21
514.538
  0
ARC
  8
Layer1
  6
CONTINUOUS
 62
7
 10
96.0479
 20
520.538
 40
1
 50
90
 51
180
  0
ARC
  8
Layer1
  6
CONTINUOUS
 62
7
 10
107.031
 20
520.538
 40
1
 50
0
 51
90
  0
LINE
  8
Layer1
  6
CONTINUOUS
 62
7
 10
241.867
 20
461.538
 11
342.867
 21
461.538
  0
LINE
  8
Layer1
  6
CONTINUOUS
 62
7
 10
130.473
 20
461.538
 11
72.4729
 21
461.538
  0
LINE
  8
Layer1
  6
CONTINUOUS
 62
7
 10
240.95
 20
513.538
 11
240.95
 21
462.538
  0
LINE
  8
Layer1
  6
CONTINUOUS
 62
7
 10
131.448
 20
513.563
 11
131.448
 21
462.513
  0
LINE
  8
Layer1
  6
CENTER1
 62
7
 10
101.448
 20
456.742
 11
101.448
 21
587.445
  0
LINE
  8
Layer1
  6
CONTINUOUS
 62
7
 10
86.4729
 20
484.538
 11
116.473
 21
484.538
  0
LINE
  8
Layer1
  6
CONTINUOUS
 62
7
 10
116.448
 20
513.538
 11
116.448
 21
484.538
  0
LINE
  8
Layer1
  6
CONTINUOUS
 62
7
 10
86.4479
 20
513.538
 11
86.4479
 21
484.538
  0
LINE
  8
Layer1
  6
CENTER1
 62
7
 10
111.065
 20
473.038
 11
90.6569
 21
473.038
  0
CIRCLE
  8
Layer1
  6
DASHED1
 62
7
 10
101.473
 20
473.038
 40
7.1
  0
LINE
  8
Layer1
  6
CENTER1
 62
7
 10
366.747
 20
504.538
 11
338.376
 21
504.538
  0
LINE
  8
Layer1
  6
CENTER1
 62
7
 10
313.95
 20
455.321
 11
313.95
 21
526.247
  0
LINE
  8
Layer1
  6
CONTINUOUS
 62
7
 10
302.778
 20
484.463
 11
302.778
 21
481.082
  0
LINE
  8
Layer1
  6
CENTER1
 62
7
 10
252.477
 20
473.05
 11
309.899
 21
473.038
  0
LINE
  8
Layer1
  6
CONTINUOUS
 62
7
 10
342.867
 20
673.508
 11
343.867
 21
672.508
  0
LINE
  8
Layer1
  6
CONTINUOUS
 62
7
 10
342.867
 20
613.508
 11
343.867
 21
614.508
  0
LINE
  8
Layer1
  6
CONTINUOUS
 62
7
 10
343.867
 20
462.538
 11
342.867
 21
461.538
  0
LINE
  8
Layer1
  6
CONTINUOUS
 62
7
 10
240.867
 20
462.538
 11
241.867
 21
461.538
  0
LINE
  8
Layer1
  6
CONTINUOUS
 62
7
 10
240.867
 20
513.538
 11
241.867
 21
514.538
  0
LINE
  8
Layer1
  6
DASHED1
 62
7
 10
85.9479
 20
513.538
 11
85.9479
 21
461.538
  0
ARC
  8
Layer1
  6
CONTINUOUS
 62
7
 10
323.453
 20
513.463
 40
1
 50
45
 51
90
  0
LINE
  8
Layer1
  6
CONTINUOUS
 62
7
 10
130.473
 20
461.538
 11
131.448
 21
462.513
  0
LINE
  8
Layer1
  6
CONTINUOUS
 62
7
 10
117.473
 20
514.538
 11
130.473
 21
514.538
  0
LINE
  8
Layer1
  6
CONTINUOUS
 62
7
 10
130.473
 20
514.538
 11
131.448
 21
513.563
  0
LINE
  8
Layer1
  6
CONTINUOUS
 62
7
 10
86.4729
 20
513.538
 11
85.4729
 21
514.538
  0
LINE
  8
Layer1
  6
CONTINUOUS
 62
7
 10
117.473
 20
514.538
 11
116.473
 21
513.538
  0
LINE
  8
Layer1
  6
CONTINUOUS
 62
7
 10
342.867
 20
613.508
 11
343.367
 21
614.008
  0
LINE
  8
Layer1
  6
CONTINUOUS
 62
7
 10
97.7299
 20
533.179
 11
105.576
 21
533.179
  0
LINE
  8
Layer1
  6
CONTINUOUS
 62
7
 10
97.4029
 20
532.576
 11
105.877
 21
532.576
  0
LINE
  8
Layer1
  6
CONTINUOUS
 62
7
 10
97.3079
 20
529.196
 11
105.757
 21
529.196
  0
LINE
  8
Layer1
  6
CONTINUOUS
 62
7
 10
106.481
 20
528.472
 11
96.5839
 21
528.472
  0
LINE
  8
Layer1
  6
CONTINUOUS
 62
7
 10
106.481
 20
528.472
 11
106.481
 21
526.601
  0
LINE
  8
Layer1
  6
CONTINUOUS
 62
7
 10
96.5839
 20
528.472
 11
96.5839
 21
526.601
  0
POLYLINE
  8
Layer1
  6
CONTINUOUS
 62
7
 66
1
 10
0
 20
0
 30
0
  0
VERTEX
  8
Layer1
 10
101.525
 20
530.392
  0
VERTEX
  8
Layer1
 10
101.46
 20
530.45
  0
VERTEX
  8
Layer1
 10
101.393
 20
530.505
  0
VERTEX
  8
Layer1
 10
101.325
 20
530.558
  0
VERTEX
  8
Layer1
 10
101.256
 20
530.61
  0
VERTEX
  8
Layer1
 10
101.185
 20
530.66
  0
VERTEX
  8
Layer1
 10
101.113
 20
530.708
  0
VERTEX
  8
Layer1
 10
101.039
 20
530.755
  0
VERTEX
  8
Layer1
 10
100.965
 20
530.799
  0
VERTEX
  8
Layer1
 10
100.889
 20
530.841
  0
VERTEX
  8
Layer1
 10
100.812
 20
530.882
  0
VERTEX
  8
Layer1
 10
100.735
 20
530.92
  0
VERTEX
  8
Layer1
 10
100.656
 20
530.957
  0
VERTEX
  8
Layer1
 10
100.576
 20
530.991
  0
VERTEX
  8
Layer1
 10
100.496
 20
531.023
  0
VERTEX
  8
Layer1
 10
100.415
 20
531.053
  0
VERTEX
  8
Layer1
 10
100.333
 20
531.081
  0
VERTEX
  8
Layer1
 10
100.25
 20
531.107
  0
VERTEX
  8
Layer1
 10
100.166
 20
531.131
  0
VERTEX
  8
Layer1
 10
100.082
 20
531.153
  0
VERTEX
  8
Layer1
 10
99.9979
 20
531.172
  0
VERTEX
  8
Layer1
 10
99.9129
 20
531.189
  0
VERTEX
  8
Layer1
 10
99.8279
 20
531.205
  0
VERTEX
  8
Layer1
 10
99.7419
 20
531.217
  0
VERTEX
  8
Layer1
 10
99.6559
 20
531.228
  0
VERTEX
  8
Layer1
 10
99.5689
 20
531.236
  0
VERTEX
  8
Layer1
 10
99.4829
 20
531.242
  0
VERTEX
  8
Layer1
 10
99.3959
 20
531.246
  0
VERTEX
  8
Layer1
 10
99.3099
 20
531.248
  0
VERTEX
  8
Layer1
 10
99.2229
 20
531.248
  0
VERTEX
  8
Layer1
 10
99.1359
 20
531.245
  0
VERTEX
  8
Layer1
 10
99.0499
 20
531.24
  0
VERTEX
  8
Layer1
 10
98.9629
 20
531.232
  0
VERTEX
  8
Layer1
 10
98.8769
 20
531.223
  0
VERTEX
  8
Layer1
 10
98.7909
 20
531.211
  0
VERTEX
  8
Layer1
 10
98.7059
 20
531.197
  0
VERTEX
  8
Layer1
 10
98.6199
 20
531.181
  0
VERTEX
  8
Layer1
 10
98.5359
 20
531.163
  0
VERTEX
  8
Layer1
 10
98.4509
 20
531.142
  0
VERTEX
  8
Layer1
 10
98.3679
 20
531.119
  0
VERTEX
  8
Layer1
 10
98.2849
 20
531.094
  0
VERTEX
  8
Layer1
 10
98.2019
 20
531.067
  0
VERTEX
  8
Layer1
 10
98.1209
 20
531.038
  0
VERTEX
  8
Layer1
 10
98.0399
 20
531.007
  0
VERTEX
  8
Layer1
 10
97.9599
 20
530.974
  0
VERTEX
  8
Layer1
 10
97.8809
 20
530.938
  0
VERTEX
  8
Layer1
 10
97.8019
 20
530.901
  0
VERTEX
  8
Layer1
 10
97.7249
 20
530.861
  0
VERTEX
  8
Layer1
 10
97.6489
 20
530.82
  0
SEQEND
  0
POLYLINE
  8
Layer1
  6
CONTINUOUS
 62
7
 66
1
 10
0
 20
0
 30
0
  0
VERTEX
  8
Layer1
 10
105.878
 20
530.765
  0
VERTEX
  8
Layer1
 10
105.79
 20
530.801
  0
VERTEX
  8
Layer1
 10
105.702
 20
530.834
  0
VERTEX
  8
Layer1
 10
105.613
 20
530.866
  0
VERTEX
  8
Layer1
 10
105.524
 20
530.897
  0
VERTEX
  8
Layer1
 10
105.434
 20
530.925
  0
VERTEX
  8
Layer1
 10
105.343
 20
530.952
  0
VERTEX
  8
Layer1
 10
105.252
 20
530.977
  0
VERTEX
  8
Layer1
 10
105.161
 20
531
  0
VERTEX
  8
Layer1
 10
105.069
 20
531.021
  0
VERTEX
  8
Layer1
 10
104.976
 20
531.04
  0
VERTEX
  8
Layer1
 10
104.883
 20
531.058
  0
VERTEX
  8
Layer1
 10
104.79
 20
531.073
  0
VERTEX
  8
Layer1
 10
104.697
 20
531.087
  0
VERTEX
  8
Layer1
 10
104.603
 20
531.099
  0
VERTEX
  8
Layer1
 10
104.509
 20
531.109
  0
VERTEX
  8
Layer1
 10
104.415
 20
531.117
  0
VERTEX
  8
Layer1
 10
104.321
 20
531.123
  0
VERTEX
  8
Layer1
 10
104.227
 20
531.128
  0
VERTEX
  8
Layer1
 10
104.132
 20
531.13
  0
VERTEX
  8
Layer1
 10
104.038
 20
531.131
  0
VERTEX
  8
Layer1
 10
103.943
 20
531.129
  0
VERTEX
  8
Layer1
 10
103.849
 20
531.126
  0
VERTEX
  8
Layer1
 10
103.755
 20
531.121
  0
VERTEX
  8
Layer1
 10
103.66
 20
531.114
  0
VERTEX
  8
Layer1
 10
103.566
 20
531.105
  0
VERTEX
  8
Layer1
 10
103.473
 20
531.095
  0
VERTEX
  8
Layer1
 10
103.379
 20
531.082
  0
VERTEX
  8
Layer1
 10
103.286
 20
531.068
  0
VERTEX
  8
Layer1
 10
103.193
 20
531.051
  0
VERTEX
  8
Layer1
 10
103.1
 20
531.033
  0
VERTEX
  8
Layer1
 10
103.008
 20
531.013
  0
VERTEX
  8
Layer1
 10
102.916
 20
530.991
  0
VERTEX
  8
Layer1
 10
102.824
 20
530.967
  0
VERTEX
  8
Layer1
 10
102.734
 20
530.942
  0
VERTEX
  8
Layer1
 10
102.643
 20
530.915
  0
VERTEX
  8
Layer1
 10
102.553
 20
530.885
  0
VERTEX
  8
Layer1
 10
102.464
 20
530.854
  0
VERTEX
  8
Layer1
 10
102.376
 20
530.822
  0
VERTEX
  8
Layer1
 10
102.288
 20
530.787
  0
VERTEX
  8
Layer1
 10
102.2
 20
530.751
  0
VERTEX
  8
Layer1
 10
102.114
 20
530.713
  0
VERTEX
  8
Layer1
 10
102.028
 20
530.673
  0
VERTEX
  8
Layer1
 10
101.943
 20
530.632
  0
VERTEX
  8
Layer1
 10
101.859
 20
530.589
  0
VERTEX
  8
Layer1
 10
101.776
 20
530.544
  0
VERTEX
  8
Layer1
 10
101.694
 20
530.498
  0
VERTEX
  8
Layer1
 10
101.613
 20
530.45
  0
VERTEX
  8
Layer1
 10
101.532
 20
530.4
  0
SEQEND
  0
LINE
  8
Layer1
  6
CONTINUOUS
 62
7
 10
97.9949
 20
530.988
 11
97.6609
 21
530.799
  0
LINE
  8
Layer1
  6
CONTINUOUS
 62
7
 10
97.7299
 20
533.179
 11
96.8709
 21
531.596
  0
LINE
  8
Layer1
  6
CONTINUOUS
 62
7
 10
105.576
 20
533.179
 11
106.463
 21
531.364
  0
LINE
  8
Layer1
  6
CONTINUOUS
 62
7
 10
105.394
 20
530.909
 11
105.878
 21
530.765
  0
POLYLINE
  8
Layer1
  6
CONTINUOUS
 62
7
 66
1
 10
0
 20
0
 30
0
  0
VERTEX
  8
Layer1
 10
96.8709
 20
531.596
  0
VERTEX
  8
Layer1
 10
96.8559
 20
531.568
  0
VERTEX
  8
Layer1
 10
96.8419
 20
531.539
  0
VERTEX
  8
Layer1
 10
96.8299
 20
531.51
  0
VERTEX
  8
Layer1
 10
96.8199
 20
531.48
  0
VERTEX
  8
Layer1
 10
96.8109
 20
531.45
  0
VERTEX
  8
Layer1
 10
96.8039
 20
531.419
  0
VERTEX
  8
Layer1
 10
96.7989
 20
531.388
  0
VERTEX
  8
Layer1
 10
96.7949
 20
531.356
  0
VERTEX
  8
Layer1
 10
96.7929
 20
531.325
  0
VERTEX
  8
Layer1
 10
96.7929
 20
531.293
  0
VERTEX
  8
Layer1
 10
96.7939
 20
531.261
  0
VERTEX
  8
Layer1
 10
96.7969
 20
531.23
  0
VERTEX
  8
Layer1
 10
96.8019
 20
531.199
  0
VERTEX
  8
Layer1
 10
96.8089
 20
531.168
  0
VERTEX
  8
Layer1
 10
96.8169
 20
531.137
  0
VERTEX
  8
Layer1
 10
96.8269
 20
531.107
  0
VERTEX
  8
Layer1
 10
96.8379
 20
531.078
  0
VERTEX
  8
Layer1
 10
96.8519
 20
531.049
  0
VERTEX
  8
Layer1
 10
96.8659
 20
531.021
  0
VERTEX
  8
Layer1
 10
96.8819
 20
530.994
  0
VERTEX
  8
Layer1
 10
96.8999
 20
530.967
  0
VERTEX
  8
Layer1
 10
96.9189
 20
530.942
  0
VERTEX
  8
Layer1
 10
96.9389
 20
530.918
  0
VERTEX
  8
Layer1
 10
96.9609
 20
530.895
  0
VERTEX
  8
Layer1
 10
96.9839
 20
530.873
  0
VERTEX
  8
Layer1
 10
97.0079
 20
530.852
  0
VERTEX
  8
Layer1
 10
97.0329
 20
530.833
  0
VERTEX
  8
Layer1
 10
97.0589
 20
530.815
  0
VERTEX
  8
Layer1
 10
97.0859
 20
530.799
  0
VERTEX
  8
Layer1
 10
97.1139
 20
530.784
  0
VERTEX
  8
Layer1
 10
97.1429
 20
530.771
  0
VERTEX
  8
Layer1
 10
97.1719
 20
530.759
  0
VERTEX
  8
Layer1
 10
97.2019
 20
530.749
  0
VERTEX
  8
Layer1
 10
97.2319
 20
530.74
  0
VERTEX
  8
Layer1
 10
97.2629
 20
530.733
  0
VERTEX
  8
Layer1
 10
97.2949
 20
530.728
  0
VERTEX
  8
Layer1
 10
97.3259
 20
530.725
  0
VERTEX
  8
Layer1
 10
97.3579
 20
530.723
  0
VERTEX
  8
Layer1
 10
97.3889
 20
530.723
  0
VERTEX
  8
Layer1
 10
97.4209
 20
530.725
  0
VERTEX
  8
Layer1
 10
97.4519
 20
530.728
  0
VERTEX
  8
Layer1
 10
97.4829
 20
530.733
  0
VERTEX
  8
Layer1
 10
97.5139
 20
530.74
  0
VERTEX
  8
Layer1
 10
97.5449
 20
530.749
  0
VERTEX
  8
Layer1
 10
97.5749
 20
530.759
  0
VERTEX
  8
Layer1
 10
97.6039
 20
530.77
  0
VERTEX
  8
Layer1
 10
97.6329
 20
530.784
  0
VERTEX
  8
Layer1
 10
97.6609
 20
530.799
  0
SEQEND
  0
POLYLINE
  8
Layer1
  6
CONTINUOUS
 62
7
 66
1
 10
0
 20
0
 30
0
  0
VERTEX
  8
Layer1
 10
105.878
 20
530.765
  0
VERTEX
  8
Layer1
 10
105.899
 20
530.759
  0
VERTEX
  8
Layer1
 10
105.919
 20
530.755
  0
VERTEX
  8
Layer1
 10
105.94
 20
530.751
  0
VERTEX
  8
Layer1
 10
105.962
 20
530.748
  0
VERTEX
  8
Layer1
 10
105.983
 20
530.746
  0
VERTEX
  8
Layer1
 10
106.004
 20
530.746
  0
VERTEX
  8
Layer1
 10
106.026
 20
530.746
  0
VERTEX
  8
Layer1
 10
106.047
 20
530.747
  0
VERTEX
  8
Layer1
 10
106.069
 20
530.749
  0
VERTEX
  8
Layer1
 10
106.09
 20
530.752
  0
VERTEX
  8
Layer1
 10
106.111
 20
530.756
  0
VERTEX
  8
Layer1
 10
106.132
 20
530.761
  0
VERTEX
  8
Layer1
 10
106.152
 20
530.767
  0
VERTEX
  8
Layer1
 10
106.172
 20
530.773
  0
VERTEX
  8
Layer1
 10
106.192
 20
530.781
  0
VERTEX
  8
Layer1
 10
106.212
 20
530.79
  0
VERTEX
  8
Layer1
 10
106.231
 20
530.799
  0
VERTEX
  8
Layer1
 10
106.25
 20
530.809
  0
VERTEX
  8
Layer1
 10
106.268
 20
530.82
  0
VERTEX
  8
Layer1
 10
106.286
 20
530.832
  0
VERTEX
  8
Layer1
 10
106.303
 20
530.845
  0
VERTEX
  8
Layer1
 10
106.32
 20
530.859
  0
VERTEX
  8
Layer1
 10
106.336
 20
530.873
  0
VERTEX
  8
Layer1
 10
106.351
 20
530.888
  0
VERTEX
  8
Layer1
 10
106.366
 20
530.904
  0
VERTEX
  8
Layer1
 10
106.38
 20
530.92
  0
VERTEX
  8
Layer1
 10
106.393
 20
530.937
  0
VERTEX
  8
Layer1
 10
106.405
 20
530.954
  0
VERTEX
  8
Layer1
 10
106.417
 20
530.972
  0
VERTEX
  8
Layer1
 10
106.427
 20
530.991
  0
VERTEX
  8
Layer1
 10
106.437
 20
531.01
  0
VERTEX
  8
Layer1
 10
106.446
 20
531.029
  0
VERTEX
  8
Layer1
 10
106.454
 20
531.049
  0
VERTEX
  8
Layer1
 10
106.462
 20
531.069
  0
VERTEX
  8
Layer1
 10
106.468
 20
531.09
  0
VERTEX
  8
Layer1
 10
106.473
 20
531.11
  0
VERTEX
  8
Layer1
 10
106.478
 20
531.131
  0
VERTEX
  8
Layer1
 10
106.481
 20
531.152
  0
VERTEX
  8
Layer1
 10
106.484
 20
531.174
  0
VERTEX
  8
Layer1
 10
106.485
 20
531.195
  0
VERTEX
  8
Layer1
 10
106.486
 20
531.216
  0
VERTEX
  8
Layer1
 10
106.485
 20
531.238
  0
VERTEX
  8
Layer1
 10
106.484
 20
531.259
  0
VERTEX
  8
Layer1
 10
106.482
 20
531.28
  0
VERTEX
  8
Layer1
 10
106.478
 20
531.302
  0
VERTEX
  8
Layer1
 10
106.474
 20
531.323
  0
VERTEX
  8
Layer1
 10
106.469
 20
531.343
  0
VERTEX
  8
Layer1
 10
106.463
 20
531.364
  0
SEQEND
  0
LINE
  8
Layer1
  6
CONTINUOUS
 62
7
 10
104.6
 20
531.099
 11
104.6
 21
529.196
  0
LINE
  8
Layer1
  6
CONTINUOUS
 62
7
 10
98.4549
 20
531.143
 11
98.4549
 21
529.196
  0
LINE
  8
Layer1
  6
CONTINUOUS
 62
7
 10
97.3079
 20
529.196
 11
96.5839
 21
528.472
  0
LINE
  8
Layer1
  6
CONTINUOUS
 62
7
 10
105.757
 20
529.196
 11
106.481
 21
528.472
  0
LINE
  8
Layer1
  6
CONTINUOUS
 62
7
 10
115.448
 20
514.538
 11
87.4479
 21
514.538
  0
LINE
  8
Layer1
  6
CONTINUOUS
 62
7
 10
87.4479
 20
484.538
 11
116.448
 21
484.538
  0
LINE
  8
Layer1
  6
CONTINUOUS
 62
7
 10
86.4479
 20
513.538
 11
87.4479
 21
514.538
  0
LINE
  8
Layer1
  6
CONTINUOUS
 62
7
 10
115.448
 20
514.538
 11
116.448
 21
513.538
  0
LINE
  8
Layer1
  6
CONTINUOUS
 62
7
 10
115.448
 20
484.538
 11
116.448
 21
485.538
  0
LINE
  8
Layer1
  6
CONTINUOUS
 62
7
 10
86.4479
 20
485.538
 11
87.4479
 21
484.538
  0
LINE
  8
Layer1
  6
CENTER1
 62
7
 10
82.1669
 20
499.538
 11
118.472
 21
499.538
  0
LINE
  8
Layer1
  6
CENTER1
 62
7
 10
103.015
 20
508.038
 11
115.67
 21
508.038
  0
LINE
  8
Layer1
  6
CENTER1
 62
7
 10
98.2289
 20
491.038
 11
87.6659
 21
491.038
  0
LINE
  8
Layer1
  6
CENTER1
 62
7
 10
109.948
 20
512.87
 11
109.948
 21
502.82
  0
LINE
  8
Layer1
  6
CENTER1
 62
7
 10
92.9479
 20
485.898
 11
92.9479
 21
496.051
  0
LINE
  8
Layer1
  6
CONTINUOUS
 62
7
 10
87.4479
 20
526.538
 11
87.4479
 21
558.538
  0
LINE
  8
Layer1
  6
CONTINUOUS
 62
7
 10
115.448
 20
526.538
 11
115.448
 21
558.538
  0
LINE
  8
Layer1
  6
CENTER1
 62
7
 10
279.95
 20
529.065
 11
279.95
 21
507.195
  0
LINE
  8
Layer1
  6
CONTINUOUS
 62
7
 10
343.867
 20
492.538
 11
343.867
 21
486.538
  0
LINE
  8
Layer1
  6
CONTINUOUS
 62
7
 10
342.867
 20
491.538
 11
342.867
 21
487.538
  0
LINE
  8
Layer1
  6
CONTINUOUS
 62
7
 10
343.867
 20
492.538
 11
342.867
 21
491.538
  0
LINE
  8
Layer1
  6
CONTINUOUS
 62
7
 10
343.867
 20
486.538
 11
342.867
 21
487.538
  0
LINE
  8
Layer1
  6
CONTINUOUS
 62
7
 10
326.867
 20
484.463
 11
326.867
 21
465.958
  0
LINE
  8
Layer1
  6
CONTINUOUS
 62
7
 10
326.867
 20
465.958
 11
329.867
 21
465.958
  0
LINE
  8
Layer1
  6
CONTINUOUS
 62
7
 10
329.867
 20
481.463
 11
342.867
 21
481.463
  0
LINE
  8
Layer1
  6
CONTINUOUS
 62
7
 10
342.867
 20
484.463
 11
342.867
 21
481.463
  0
LINE
  8
Layer1
  6
CONTINUOUS
 62
7
 10
329.867
 20
481.463
 11
329.867
 21
465.958
  0
LINE
  8
Layer1
  6
CONTINUOUS
 62
7
 10
341.117
 20
481.463
 11
341.117
 21
476.863
  0
LINE
  8
Layer1
  6
CONTINUOUS
 62
7
 10
332.617
 20
481.463
 11
332.617
 21
476.863
  0
LINE
  8
Layer1
  6
CONTINUOUS
 62
7
 10
341.117
 20
476.863
 11
332.617
 21
476.863
  0
LINE
  8
Layer1
  6
CONTINUOUS
 62
7
 10
340.717
 20
476.463
 11
333.017
 21
476.463
  0
LINE
  8
Layer1
  6
CONTINUOUS
 62
7
 10
341.117
 20
476.863
 11
340.717
 21
476.463
  0
LINE
  8
Layer1
  6
CONTINUOUS
 62
7
 10
332.617
 20
476.863
 11
333.017
 21
476.463
  0
LINE
  8
Layer1
  6
CONTINUOUS
 62
7
 10
331.867
 20
481.463
 11
341.867
 21
481.463
  0
LINE
  8
Layer1
  6
CONTINUOUS
 62
7
 10
333.867
 20
477.257
 11
333.867
 21
480.786
  0
LINE
  8
Layer1
  6
CONTINUOUS
 62
7
 10
334.867
 20
477.892
 11
334.867
 21
480.245
  0
LINE
  8
Layer1
  6
CONTINUOUS
 62
7
 10
335.867
 20
478.528
 11
335.867
 21
479.704
  0
LINE
  8
Layer1
  6
CONTINUOUS
 62
7
 10
332.617
 20
481.463
 11
341.117
 21
481.463
  0
LINE
  8
Layer1
  6
CONTINUOUS
 62
7
 10
342.867
 20
484.463
 11
326.867
 21
484.463
  0
LINE
  8
Layer1
  6
CONTINUOUS
 62
7
 10
343.867
 20
518.538
 11
344.867
 21
519.538
  0
LINE
  8
Layer1
  6
CONTINUOUS
 62
7
 10
343.867
 20
472.538
 11
344.867
 21
471.538
  0
LINE
  8
Layer1
  6
CONTINUOUS
 62
7
 10
343.867
 20
486.938
 11
343.44
 21
486.938
  0
LINE
  8
Layer1
  6
CONTINUOUS
 62
7
 10
343.867
 20
492.138
 11
343.288
 21
492.138
  0
LINE
  8
Layer1
  6
CONTINUOUS
 62
7
 10
342.893
 20
559.437
 11
304.893
 21
559.437
  0
LINE
  8
Layer1
  6
CONTINUOUS
 62
7
 10
343.95
 20
462.538
 11
343.95
 21
570.38
  0
LINE
  8
Layer1
  6
CONTINUOUS
 62
7
 10
303.95
 20
570.493
 11
303.95
 21
534.38
  0
LINE
  8
Layer1
  6
CONTINUOUS
 62
7
 10
342.893
 20
571.437
 11
343.95
 21
570.38
  0
LINE
  8
Layer1
  6
CONTINUOUS
 62
7
 10
303.95
 20
570.493
 11
304.893
 21
571.437
  0
LINE
  8
Layer1
  6
CONTINUOUS
 62
7
 10
343.893
 20
507.437
 11
342.893
 21
506.437
  0
LINE
  8
Layer1
  6
DASHED1
 62
7
 10
316.893
 20
533.437
 11
330.893
 21
533.437
  0
LINE
  8
Layer1
  6
DASHED1
 62
7
 10
316.893
 20
571.437
 11
316.893
 21
533.437
  0
LINE
  8
Layer1
  6
DASHED1
 62
7
 10
330.893
 20
571.437
 11
330.893
 21
533.437
  0
LINE
  8
Layer1
  6
DASHED1
 62
7
 10
323.688
 20
529.395
 11
316.893
 21
533.437
  0
LINE
  8
Layer1
  6
DASHED1
 62
7
 10
323.688
 20
529.395
 11
330.893
 21
533.437
  0
LINE
  8
Layer1
  6
DASHED1
 62
7
 10
316.893
 20
535.937
 11
303.893
 21
535.937
  0
LINE
  8
Layer1
  6
DASHED1
 62
7
 10
316.893
 20
538.937
 11
303.893
 21
538.937
  0
LINE
  8
Layer1
  6
DASHED1
 62
7
 10
330.893
 20
535.937
 11
343.893
 21
535.937
  0
LINE
  8
Layer1
  6
DASHED1
 62
7
 10
330.893
 20
538.937
 11
343.893
 21
538.937
  0
LINE
  8
Layer1
  6
DASHED1
 62
7
 10
316.893
 20
565.437
 11
303.893
 21
565.437
  0
LINE
  8
Layer1
  6
DASHED1
 62
7
 10
316.893
 20
557.437
 11
303.893
 21
557.437
  0
LINE
  8
Layer1
  6
CONTINUOUS
 62
7
 10
319.874
 20
518.456
 11
343.95
 21
518.467
  0
LINE
  8
Layer1
  6
CONTINUOUS
 62
7
 10
331.893
 20
506.437
 11
342.893
 21
506.437
  0
LINE
  8
Layer1
  6
CONTINUOUS
 62
7
 10
303.95
 20
534.38
 11
331.95
 21
506.38
  0
LINE
  8
Layer1
  6
CONTINUOUS
 62
7
 10
303.893
 20
560.437
 11
304.893
 21
559.437
  0
LINE
  8
Layer1
  6
CONTINUOUS
 62
7
 10
342.893
 20
559.437
 11
343.893
 21
560.437
  0
LINE
  8
Layer1
  6
CONTINUOUS
 62
7
 10
279.69
 20
481.084
 11
302.778
 21
481.084
  0
LINE
  8
Layer1
  6
CONTINUOUS
 62
7
 10
270.867
 20
514.538
 11
323.792
 21
514.538
  0
LINE
  8
Layer1
  6
CONTINUOUS
 62
7
 10
241.867
 20
514.538
 11
240.95
 21
515.455
  0
LINE
  8
Layer1
  6
CONTINUOUS
 62
7
 10
344.893
 20
673.508
 11
343.893
 21
672.508
  0
LINE
  8
Layer1
  6
CONTINUOUS
 62
7
 10
344.893
 20
613.508
 11
343.893
 21
614.508
  0
LINE
  8
Layer1
  6
CONTINUOUS
 62
7
 10
342.95
 20
672.508
 11
321.151
 21
672.508
  0
LINE
  8
Layer1
  6
CONTINUOUS
 62
7
 10
304.95
 20
614.508
 11
342.95
 21
614.508
  0
LINE
  8
Layer1
  6
CONTINUOUS
 62
7
 10
343.95
 20
615.508
 11
343.95
 21
671.508
  0
LINE
  8
Layer1
  6
CONTINUOUS
 62
7
 10
303.95
 20
615.508
 11
303.95
 21
647.867
  0
LINE
  8
Layer1
  6
CONTINUOUS
 62
7
 10
304.95
 20
672.508
 11
303.95
 21
671.508
  0
LINE
  8
Layer1
  6
CONTINUOUS
 62
7
 10
342.95
 20
672.508
 11
343.95
 21
671.508
  0
LINE
  8
Layer1
  6
CONTINUOUS
 62
7
 10
342.95
 20
614.508
 11
343.95
 21
615.508
  0
LINE
  8
Layer1
  6
CONTINUOUS
 62
7
 10
303.95
 20
615.508
 11
304.95
 21
614.508
  0
LINE
  8
Layer1
  6
CENTER1
 62
7
 10
301.532
 20
664.508
 11
319.916
 21
664.508
  0
LINE
  8
Layer1
  6
CENTER1
 62
7
 10
302.306
 20
622.508
 11
319.142
 21
622.508
  0
LINE
  8
Layer1
  6
CENTER1
 62
7
 10
311.95
 20
672.586
 11
311.95
 21
657.304
  0
LINE
  8
Layer1
  6
CENTER1
 62
7
 10
335.745
 20
672.508
 11
335.745
 21
656.259
  0
CIRCLE
  8
Layer1
  6
CONTINUOUS
 62
7
 10
335.745
 20
664.508
 40
3.5
  0
CIRCLE
  8
Layer1
  6
CONTINUOUS
 62
7
 10
311.95
 20
622.508
 40
3.5
  0
CIRCLE
  8
Layer1
  6
CONTINUOUS
 62
7
 10
335.95
 20
622.508
 40
3.5
  0
CIRCLE
  8
Layer1
  6
DASHED1
 62
7
 10
335.745
 20
664.508
 40
5.5
  0
CIRCLE
  8
Layer1
  6
DASHED1
 62
7
 10
335.95
 20
622.508
 40
5.5
  0
CIRCLE
  8
Layer1
  6
DASHED1
 62
7
 10
311.95
 20
622.508
 40
5.5
  0
CIRCLE
  8
Layer1
  6
CONTINUOUS
 62
7
 10
323.745
 20
643.508
 40
7
  0
LINE
  8
Layer1
  6
CENTER1
 62
7
 10
324.85
 20
664.508
 11
343.428
 21
664.508
  0
LINE
  8
Layer1
  6
CENTER1
 62
7
 10
311.95
 20
633.394
 11
311.95
 21
614.623
  0
LINE
  8
Layer1
  6
CENTER1
 62
7
 10
335.95
 20
631.188
 11
335.95
 21
612.223
  0
LINE
  8
Layer1
  6
DASHED1
 62
7
 10
272.867
 20
658.508
 11
302.778
 21
658.508
  0
LINE
  8
Layer1
  6
DASHED1
 62
7
 10
272.867
 20
628.508
 11
343.95
 21
628.508
  0
CIRCLE
  8
Layer1
  6
CONTINUOUS
 62
7
 10
271.666
 20
643.508
 40
3.76681
  0
ARC
  8
Layer1
  6
CONTINUOUS
 62
7
 10
267.194
 20
643.542
 40
1
 50
140.711
 51
225
  0
LINE
  8
Layer1
  6
CONTINUOUS
 62
7
 10
276.177
 20
645.152
 11
278.44
 21
645.152
  0
LINE
  8
Layer1
  6
CONTINUOUS
 62
7
 10
276.177
 20
641.667
 11
278.44
 21
641.667
  0
LINE
  8
Layer1
  6
CONTINUOUS
 62
7
 10
278.44
 20
645.152
 11
278.44
 21
641.667
  0
ARC
  8
Layer1
  6
CONTINUOUS
 62
7
 10
271.666
 20
643.508
 40
4.80058
 50
20.031
 51
140.098
  0
ARC
  8
Layer1
  6
CONTINUOUS
 62
7
 10
271.666
 20
643.508
 40
4.80058
 50
218.056
 51
337.793
  0
ARC
  8
Layer1
  6
CONTINUOUS
 62
7
 10
258.774
 20
636.258
 40
10.1292
 50
24.1178
 51
40.4581
  0
ARC
  8
Layer1
  6
CONTINUOUS
 62
7
 10
258.713
 20
650.748
 40
10.1292
 50
319.542
 51
335.882
  0
ARC
  8
Layer1
  6
CONTINUOUS
 62
7
 10
277.308
 20
645.152
 40
0.542282
 50
0
 51
180
  0
ARC
  8
Layer1
  6
CONTINUOUS
 62
7
 10
277.308
 20
641.667
 40
0.657613
 50
180
 51
2.03555e-013
  0
LINE
  8
Layer1
  6
CONTINUOUS
 62
7
 10
297.135
 20
519.445
 11
297.135
 21
514.538
  0
LINE
  8
Layer1
  6
CONTINUOUS
 62
7
 10
292.135
 20
519.445
 11
292.135
 21
514.538
  0
LINE
  8
Layer1
  6
CONTINUOUS
 62
7
 10
301.893
 20
514.538
 11
239.942
 21
514.538
  0
LINE
  8
Layer1
  6
CONTINUOUS
 62
7
 10
239.792
 20
484.538
 11
240.95
 21
484.538
  0
LINE
  8
Layer1
  6
CONTINUOUS
 62
7
 10
238.95
 20
485.38
 11
238.95
 21
513.546
  0
LINE
  8
Layer1
  6
CONTINUOUS
 62
7
 10
238.867
 20
513.538
 11
237.867
 21
514.538
  0
LINE
  8
Layer1
  6
CONTINUOUS
 62
7
 10
238.867
 20
485.463
 11
237.867
 21
484.463
  0
LINE
  8
Layer1
  6
CONTINUOUS
 62
7
 10
238.867
 20
510.963
 11
225.978
 21
510.963
  0
LINE
  8
Layer1
  6
CONTINUOUS
 62
7
 10
238.867
 20
504.963
 11
225.978
 21
504.963
  0
POLYLINE
  8
Layer1
  6
CONTINUOUS
 62
7
 66
1
 10
0
 20
0
 30
0
 70
1
  0
VERTEX
  8
Layer1
 10
299.95
 20
666.508
  0
VERTEX
  8
Layer1
 10
299.907
 20
667.161
  0
VERTEX
  8
Layer1
 10
299.78
 20
667.802
  0
VERTEX
  8
Layer1
 10
299.569
 20
668.422
  0
VERTEX
  8
Layer1
 10
299.28
 20
669.008
  0
VERTEX
  8
Layer1
 10
298.917
 20
669.552
  0
VERTEX
  8
Layer1
 10
298.486
 20
670.044
  0
VERTEX
  8
Layer1
 10
297.994
 20
670.475
  0
VERTEX
  8
Layer1
 10
297.45
 20
670.838
  0
VERTEX
  8
Layer1
 10
296.863
 20
671.128
  0
VERTEX
  8
Layer1
 10
296.244
 20
671.338
  0
VERTEX
  8
Layer1
 10
295.603
 20
671.465
  0
VERTEX
  8
Layer1
 10
294.95
 20
671.508
  0
VERTEX
  8
Layer1
 10
294.297
 20
671.465
  0
VERTEX
  8
Layer1
 10
293.656
 20
671.338
  0
VERTEX
  8
Layer1
 10
293.037
 20
671.128
  0
VERTEX
  8
Layer1
 10
292.45
 20
670.838
  0
VERTEX
  8
Layer1
 10
291.906
 20
670.475
  0
VERTEX
  8
Layer1
 10
291.414
 20
670.044
  0
VERTEX
  8
Layer1
 10
290.983
 20
669.552
  0
VERTEX
  8
Layer1
 10
290.62
 20
669.008
  0
VERTEX
  8
Layer1
 10
290.331
 20
668.422
  0
VERTEX
  8
Layer1
 10
290.12
 20
667.802
  0
VERTEX
  8
Layer1
 10
289.993
 20
667.161
  0
VERTEX
  8
Layer1
 10
289.95
 20
666.508
  0
VERTEX
  8
Layer1
 10
289.993
 20
665.855
  0
VERTEX
  8
Layer1
 10
290.12
 20
665.214
  0
VERTEX
  8
Layer1
 10
290.331
 20
664.595
  0
VERTEX
  8
Layer1
 10
290.62
 20
664.008
  0
VERTEX
  8
Layer1
 10
290.983
 20
663.464
  0
VERTEX
  8
Layer1
 10
291.414
 20
662.973
  0
VERTEX
  8
Layer1
 10
291.906
 20
662.541
  0
VERTEX
  8
Layer1
 10
292.45
 20
662.178
  0
VERTEX
  8
Layer1
 10
293.037
 20
661.889
  0
VERTEX
  8
Layer1
 10
293.656
 20
661.679
  0
VERTEX
  8
Layer1
 10
294.297
 20
661.551
  0
VERTEX
  8
Layer1
 10
294.95
 20
661.508
  0
VERTEX
  8
Layer1
 10
295.603
 20
661.551
  0
VERTEX
  8
Layer1
 10
296.244
 20
661.679
  0
VERTEX
  8
Layer1
 10
296.863
 20
661.889
  0
VERTEX
  8
Layer1
 10
297.45
 20
662.178
  0
VERTEX
  8
Layer1
 10
297.994
 20
662.541
  0
VERTEX
  8
Layer1
 10
298.486
 20
662.973
  0
VERTEX
  8
Layer1
 10
298.917
 20
663.464
  0
VERTEX
  8
Layer1
 10
299.28
 20
664.008
  0
VERTEX
  8
Layer1
 10
299.569
 20
664.595
  0
VERTEX
  8
Layer1
 10
299.78
 20
665.214
  0
VERTEX
  8
Layer1
 10
299.907
 20
665.855
  0
SEQEND
  0
POLYLINE
  8
Layer1
  6
CONTINUOUS
 62
7
 66
1
 10
0
 20
0
 30
0
 70
1
  0
VERTEX
  8
Layer1
 10
294.95
 20
670.083
  0
VERTEX
  8
Layer1
 10
291.854
 20
668.296
  0
VERTEX
  8
Layer1
 10
291.854
 20
664.721
  0
VERTEX
  8
Layer1
 10
294.95
 20
662.933
  0
VERTEX
  8
Layer1
 10
298.046
 20
664.721
  0
VERTEX
  8
Layer1
 10
298.046
 20
668.296
  0
SEQEND
  0
POLYLINE
  8
Layer1
  6
CONTINUOUS
 62
7
 66
1
 10
0
 20
0
 30
0
 70
1
  0
VERTEX
  8
Layer1
 10
298.525
 20
666.508
  0
VERTEX
  8
Layer1
 10
298.494
 20
666.975
  0
VERTEX
  8
Layer1
 10
298.403
 20
667.433
  0
VERTEX
  8
Layer1
 10
298.253
 20
667.876
  0
VERTEX
  8
Layer1
 10
298.046
 20
668.296
  0
VERTEX
  8
Layer1
 10
297.786
 20
668.684
  0
VERTEX
  8
Layer1
 10
297.478
 20
669.036
  0
VERTEX
  8
Layer1
 10
297.126
 20
669.344
  0
VERTEX
  8
Layer1
 10
296.737
 20
669.604
  0
VERTEX
  8
Layer1
 10
296.318
 20
669.811
  0
VERTEX
  8
Layer1
 10
295.875
 20
669.961
  0
VERTEX
  8
Layer1
 10
295.417
 20
670.053
  0
VERTEX
  8
Layer1
 10
294.95
 20
670.083
  0
VERTEX
  8
Layer1
 10
294.483
 20
670.053
  0
VERTEX
  8
Layer1
 10
294.025
 20
669.961
  0
VERTEX
  8
Layer1
 10
293.582
 20
669.811
  0
VERTEX
  8
Layer1
 10
293.163
 20
669.604
  0
VERTEX
  8
Layer1
 10
292.774
 20
669.344
  0
VERTEX
  8
Layer1
 10
292.422
 20
669.036
  0
VERTEX
  8
Layer1
 10
292.114
 20
668.684
  0
VERTEX
  8
Layer1
 10
291.854
 20
668.296
  0
VERTEX
  8
Layer1
 10
291.647
 20
667.876
  0
VERTEX
  8
Layer1
 10
291.497
 20
667.433
  0
VERTEX
  8
Layer1
 10
291.406
 20
666.975
  0
VERTEX
  8
Layer1
 10
291.375
 20
666.508
  0
VERTEX
  8
Layer1
 10
291.406
 20
666.041
  0
VERTEX
  8
Layer1
 10
291.497
 20
665.583
  0
VERTEX
  8
Layer1
 10
291.647
 20
665.14
  0
VERTEX
  8
Layer1
 10
291.854
 20
664.721
  0
VERTEX
  8
Layer1
 10
292.114
 20
664.332
  0
VERTEX
  8
Layer1
 10
292.422
 20
663.98
  0
VERTEX
  8
Layer1
 10
292.774
 20
663.672
  0
VERTEX
  8
Layer1
 10
293.163
 20
663.412
  0
VERTEX
  8
Layer1
 10
293.582
 20
663.205
  0
VERTEX
  8
Layer1
 10
294.025
 20
663.055
  0
VERTEX
  8
Layer1
 10
294.483
 20
662.964
  0
VERTEX
  8
Layer1
 10
294.95
 20
662.933
  0
VERTEX
  8
Layer1
 10
295.417
 20
662.964
  0
VERTEX
  8
Layer1
 10
295.875
 20
663.055
  0
VERTEX
  8
Layer1
 10
296.318
 20
663.205
  0
VERTEX
  8
Layer1
 10
296.737
 20
663.412
  0
VERTEX
  8
Layer1
 10
297.126
 20
663.672
  0
VERTEX
  8
Layer1
 10
297.478
 20
663.98
  0
VERTEX
  8
Layer1
 10
297.786
 20
664.332
  0
VERTEX
  8
Layer1
 10
298.046
 20
664.721
  0
VERTEX
  8
Layer1
 10
298.253
 20
665.14
  0
VERTEX
  8
Layer1
 10
298.403
 20
665.583
  0
VERTEX
  8
Layer1
 10
298.494
 20
666.041
  0
SEQEND
  0
POLYLINE
  8
Layer1
  6
CONTINUOUS
 62
7
 66
1
 10
0
 20
0
 30
0
 70
1
  0
VERTEX
  8
Layer1
 10
253.95
 20
666.508
  0
VERTEX
  8
Layer1
 10
253.907
 20
667.161
  0
VERTEX
  8
Layer1
 10
253.78
 20
667.802
  0
VERTEX
  8
Layer1
 10
253.569
 20
668.422
  0
VERTEX
  8
Layer1
 10
253.28
 20
669.008
  0
VERTEX
  8
Layer1
 10
252.917
 20
669.552
  0
VERTEX
  8
Layer1
 10
252.486
 20
670.044
  0
VERTEX
  8
Layer1
 10
251.994
 20
670.475
  0
VERTEX
  8
Layer1
 10
251.45
 20
670.838
  0
VERTEX
  8
Layer1
 10
250.863
 20
671.128
  0
VERTEX
  8
Layer1
 10
250.244
 20
671.338
  0
VERTEX
  8
Layer1
 10
249.603
 20
671.465
  0
VERTEX
  8
Layer1
 10
248.95
 20
671.508
  0
VERTEX
  8
Layer1
 10
248.297
 20
671.465
  0
VERTEX
  8
Layer1
 10
247.656
 20
671.338
  0
VERTEX
  8
Layer1
 10
247.037
 20
671.128
  0
VERTEX
  8
Layer1
 10
246.45
 20
670.838
  0
VERTEX
  8
Layer1
 10
245.906
 20
670.475
  0
VERTEX
  8
Layer1
 10
245.414
 20
670.044
  0
VERTEX
  8
Layer1
 10
244.983
 20
669.552
  0
VERTEX
  8
Layer1
 10
244.62
 20
669.008
  0
VERTEX
  8
Layer1
 10
244.331
 20
668.422
  0
VERTEX
  8
Layer1
 10
244.12
 20
667.802
  0
VERTEX
  8
Layer1
 10
243.993
 20
667.161
  0
VERTEX
  8
Layer1
 10
243.95
 20
666.508
  0
VERTEX
  8
Layer1
 10
243.993
 20
665.855
  0
VERTEX
  8
Layer1
 10
244.12
 20
665.214
  0
VERTEX
  8
Layer1
 10
244.331
 20
664.595
  0
VERTEX
  8
Layer1
 10
244.62
 20
664.008
  0
VERTEX
  8
Layer1
 10
244.983
 20
663.464
  0
VERTEX
  8
Layer1
 10
245.414
 20
662.973
  0
VERTEX
  8
Layer1
 10
245.906
 20
662.541
  0
VERTEX
  8
Layer1
 10
246.45
 20
662.178
  0
VERTEX
  8
Layer1
 10
247.037
 20
661.889
  0
VERTEX
  8
Layer1
 10
247.656
 20
661.679
  0
VERTEX
  8
Layer1
 10
248.297
 20
661.551
  0
VERTEX
  8
Layer1
 10
248.95
 20
661.508
  0
VERTEX
  8
Layer1
 10
249.603
 20
661.551
  0
VERTEX
  8
Layer1
 10
250.244
 20
661.679
  0
VERTEX
  8
Layer1
 10
250.863
 20
661.889
  0
VERTEX
  8
Layer1
 10
251.45
 20
662.178
  0
VERTEX
  8
Layer1
 10
251.994
 20
662.541
  0
VERTEX
  8
Layer1
 10
252.486
 20
662.973
  0
VERTEX
  8
Layer1
 10
252.917
 20
663.464
  0
VERTEX
  8
Layer1
 10
253.28
 20
664.008
  0
VERTEX
  8
Layer1
 10
253.569
 20
664.595
  0
VERTEX
  8
Layer1
 10
253.78
 20
665.214
  0
VERTEX
  8
Layer1
 10
253.907
 20
665.855
  0
SEQEND
  0
POLYLINE
  8
Layer1
  6
CONTINUOUS
 62
7
 66
1
 10
0
 20
0
 30
0
 70
1
  0
VERTEX
  8
Layer1
 10
248.95
 20
670.083
  0
VERTEX
  8
Layer1
 10
245.854
 20
668.296
  0
VERTEX
  8
Layer1
 10
245.854
 20
664.721
  0
VERTEX
  8
Layer1
 10
248.95
 20
662.933
  0
VERTEX
  8
Layer1
 10
252.046
 20
664.721
  0
VERTEX
  8
Layer1
 10
252.046
 20
668.296
  0
SEQEND
  0
POLYLINE
  8
Layer1
  6
CONTINUOUS
 62
7
 66
1
 10
0
 20
0
 30
0
 70
1
  0
VERTEX
  8
Layer1
 10
252.525
 20
666.508
  0
VERTEX
  8
Layer1
 10
252.494
 20
666.975
  0
VERTEX
  8
Layer1
 10
252.403
 20
667.433
  0
VERTEX
  8
Layer1
 10
252.253
 20
667.876
  0
VERTEX
  8
Layer1
 10
252.046
 20
668.296
  0
VERTEX
  8
Layer1
 10
251.786
 20
668.684
  0
VERTEX
  8
Layer1
 10
251.478
 20
669.036
  0
VERTEX
  8
Layer1
 10
251.126
 20
669.344
  0
VERTEX
  8
Layer1
 10
250.737
 20
669.604
  0
VERTEX
  8
Layer1
 10
250.318
 20
669.811
  0
VERTEX
  8
Layer1
 10
249.875
 20
669.961
  0
VERTEX
  8
Layer1
 10
249.417
 20
670.053
  0
VERTEX
  8
Layer1
 10
248.95
 20
670.083
  0
VERTEX
  8
Layer1
 10
248.483
 20
670.053
  0
VERTEX
  8
Layer1
 10
248.025
 20
669.961
  0
VERTEX
  8
Layer1
 10
247.582
 20
669.811
  0
VERTEX
  8
Layer1
 10
247.163
 20
669.604
  0
VERTEX
  8
Layer1
 10
246.774
 20
669.344
  0
VERTEX
  8
Layer1
 10
246.422
 20
669.036
  0
VERTEX
  8
Layer1
 10
246.114
 20
668.684
  0
VERTEX
  8
Layer1
 10
245.854
 20
668.296
  0
VERTEX
  8
Layer1
 10
245.647
 20
667.876
  0
VERTEX
  8
Layer1
 10
245.497
 20
667.433
  0
VERTEX
  8
Layer1
 10
245.406
 20
666.975
  0
VERTEX
  8
Layer1
 10
245.375
 20
666.508
  0
VERTEX
  8
Layer1
 10
245.406
 20
666.041
  0
VERTEX
  8
Layer1
 10
245.497
 20
665.583
  0
VERTEX
  8
Layer1
 10
245.647
 20
665.14
  0
VERTEX
  8
Layer1
 10
245.854
 20
664.721
  0
VERTEX
  8
Layer1
 10
246.114
 20
664.332
  0
VERTEX
  8
Layer1
 10
246.422
 20
663.98
  0
VERTEX
  8
Layer1
 10
246.774
 20
663.672
  0
VERTEX
  8
Layer1
 10
247.163
 20
663.412
  0
VERTEX
  8
Layer1
 10
247.582
 20
663.205
  0
VERTEX
  8
Layer1
 10
248.025
 20
663.055
  0
VERTEX
  8
Layer1
 10
248.483
 20
662.964
  0
VERTEX
  8
Layer1
 10
248.95
 20
662.933
  0
VERTEX
  8
Layer1
 10
249.417
 20
662.964
  0
VERTEX
  8
Layer1
 10
249.875
 20
663.055
  0
VERTEX
  8
Layer1
 10
250.318
 20
663.205
  0
VERTEX
  8
Layer1
 10
250.737
 20
663.412
  0
VERTEX
  8
Layer1
 10
251.126
 20
663.672
  0
VERTEX
  8
Layer1
 10
251.478
 20
663.98
  0
VERTEX
  8
Layer1
 10
251.786
 20
664.332
  0
VERTEX
  8
Layer1
 10
252.046
 20
664.721
  0
VERTEX
  8
Layer1
 10
252.253
 20
665.14
  0
VERTEX
  8
Layer1
 10
252.403
 20
665.583
  0
VERTEX
  8
Layer1
 10
252.494
 20
666.041
  0
SEQEND
  0
POLYLINE
  8
Layer1
  6
CONTINUOUS
 62
7
 66
1
 10
0
 20
0
 30
0
 70
1
  0
VERTEX
  8
Layer1
 10
97.9479
 20
491.038
  0
VERTEX
  8
Layer1
 10
97.9049
 20
491.691
  0
VERTEX
  8
Layer1
 10
97.7769
 20
492.332
  0
VERTEX
  8
Layer1
 10
97.5669
 20
492.951
  0
VERTEX
  8
Layer1
 10
97.2779
 20
493.538
  0
VERTEX
  8
Layer1
 10
96.9139
 20
494.082
  0
VERTEX
  8
Layer1
 10
96.4829
 20
494.574
  0
VERTEX
  8
Layer1
 10
95.9919
 20
495.005
  0
VERTEX
  8
Layer1
 10
95.4479
 20
495.368
  0
VERTEX
  8
Layer1
 10
94.8609
 20
495.657
  0
VERTEX
  8
Layer1
 10
94.2419
 20
495.868
  0
VERTEX
  8
Layer1
 10
93.5999
 20
495.995
  0
VERTEX
  8
Layer1
 10
92.9479
 20
496.038
  0
VERTEX
  8
Layer1
 10
92.2949
 20
495.995
  0
VERTEX
  8
Layer1
 10
91.6539
 20
495.868
  0
VERTEX
  8
Layer1
 10
91.0339
 20
495.657
  0
VERTEX
  8
Layer1
 10
90.4479
 20
495.368
  0
VERTEX
  8
Layer1
 10
89.9039
 20
495.005
  0
VERTEX
  8
Layer1
 10
89.4119
 20
494.574
  0
VERTEX
  8
Layer1
 10
88.9809
 20
494.082
  0
VERTEX
  8
Layer1
 10
88.6179
 20
493.538
  0
VERTEX
  8
Layer1
 10
88.3279
 20
492.951
  0
VERTEX
  8
Layer1
 10
88.1179
 20
492.332
  0
VERTEX
  8
Layer1
 10
87.9899
 20
491.691
  0
VERTEX
  8
Layer1
 10
87.9479
 20
491.038
  0
VERTEX
  8
Layer1
 10
87.9899
 20
490.385
  0
VERTEX
  8
Layer1
 10
88.1179
 20
489.744
  0
VERTEX
  8
Layer1
 10
88.3279
 20
489.125
  0
VERTEX
  8
Layer1
 10
88.6179
 20
488.538
  0
VERTEX
  8
Layer1
 10
88.9809
 20
487.994
  0
VERTEX
  8
Layer1
 10
89.4119
 20
487.502
  0
VERTEX
  8
Layer1
 10
89.9039
 20
487.071
  0
VERTEX
  8
Layer1
 10
90.4479
 20
486.708
  0
VERTEX
  8
Layer1
 10
91.0339
 20
486.419
  0
VERTEX
  8
Layer1
 10
91.6539
 20
486.208
  0
VERTEX
  8
Layer1
 10
92.2949
 20
486.081
  0
VERTEX
  8
Layer1
 10
92.9479
 20
486.038
  0
VERTEX
  8
Layer1
 10
93.5999
 20
486.081
  0
VERTEX
  8
Layer1
 10
94.2419
 20
486.208
  0
VERTEX
  8
Layer1
 10
94.8609
 20
486.419
  0
VERTEX
  8
Layer1
 10
95.4479
 20
486.708
  0
VERTEX
  8
Layer1
 10
95.9919
 20
487.071
  0
VERTEX
  8
Layer1
 10
96.4829
 20
487.502
  0
VERTEX
  8
Layer1
 10
96.9139
 20
487.994
  0
VERTEX
  8
Layer1
 10
97.2779
 20
488.538
  0
VERTEX
  8
Layer1
 10
97.5669
 20
489.125
  0
VERTEX
  8
Layer1
 10
97.7769
 20
489.744
  0
VERTEX
  8
Layer1
 10
97.9049
 20
490.385
  0
SEQEND
  0
POLYLINE
  8
Layer1
  6
CONTINUOUS
 62
7
 66
1
 10
0
 20
0
 30
0
 70
1
  0
VERTEX
  8
Layer1
 10
92.9479
 20
494.613
  0
VERTEX
  8
Layer1
 10
89.8519
 20
492.826
  0
VERTEX
  8
Layer1
 10
89.8519
 20
489.25
  0
VERTEX
  8
Layer1
 10
92.9479
 20
487.463
  0
VERTEX
  8
Layer1
 10
96.0439
 20
489.25
  0
VERTEX
  8
Layer1
 10
96.0439
 20
492.826
  0
SEQEND
  0
POLYLINE
  8
Layer1
  6
CONTINUOUS
 62
7
 66
1
 10
0
 20
0
 30
0
 70
1
  0
VERTEX
  8
Layer1
 10
96.5229
 20
491.038
  0
VERTEX
  8
Layer1
 10
96.4919
 20
491.505
  0
VERTEX
  8
Layer1
 10
96.4009
 20
491.963
  0
VERTEX
  8
Layer1
 10
96.2509
 20
492.406
  0
VERTEX
  8
Layer1
 10
96.0439
 20
492.826
  0
VERTEX
  8
Layer1
 10
95.7839
 20
493.214
  0
VERTEX
  8
Layer1
 10
95.4759
 20
493.566
  0
VERTEX
  8
Layer1
 10
95.1239
 20
493.874
  0
VERTEX
  8
Layer1
 10
94.7349
 20
494.134
  0
VERTEX
  8
Layer1
 10
94.3159
 20
494.341
  0
VERTEX
  8
Layer1
 10
93.8729
 20
494.491
  0
VERTEX
  8
Layer1
 10
93.4139
 20
494.582
  0
VERTEX
  8
Layer1
 10
92.9479
 20
494.613
  0
VERTEX
  8
Layer1
 10
92.4809
 20
494.582
  0
VERTEX
  8
Layer1
 10
92.0219
 20
494.491
  0
VERTEX
  8
Layer1
 10
91.5799
 20
494.341
  0
VERTEX
  8
Layer1
 10
91.1599
 20
494.134
  0
VERTEX
  8
Layer1
 10
90.7709
 20
493.874
  0
VERTEX
  8
Layer1
 10
90.4199
 20
493.566
  0
VERTEX
  8
Layer1
 10
90.1109
 20
493.214
  0
VERTEX
  8
Layer1
 10
89.8519
 20
492.826
  0
VERTEX
  8
Layer1
 10
89.6449
 20
492.406
  0
VERTEX
  8
Layer1
 10
89.4949
 20
491.963
  0
VERTEX
  8
Layer1
 10
89.4029
 20
491.505
  0
VERTEX
  8
Layer1
 10
89.3729
 20
491.038
  0
VERTEX
  8
Layer1
 10
89.4029
 20
490.571
  0
VERTEX
  8
Layer1
 10
89.4949
 20
490.113
  0
VERTEX
  8
Layer1
 10
89.6449
 20
489.67
  0
VERTEX
  8
Layer1
 10
89.8519
 20
489.25
  0
VERTEX
  8
Layer1
 10
90.1109
 20
488.862
  0
VERTEX
  8
Layer1
 10
90.4199
 20
488.51
  0
VERTEX
  8
Layer1
 10
90.7709
 20
488.202
  0
VERTEX
  8
Layer1
 10
91.1599
 20
487.942
  0
VERTEX
  8
Layer1
 10
91.5799
 20
487.735
  0
VERTEX
  8
Layer1
 10
92.0219
 20
487.585
  0
VERTEX
  8
Layer1
 10
92.4809
 20
487.494
  0
VERTEX
  8
Layer1
 10
92.9479
 20
487.463
  0
VERTEX
  8
Layer1
 10
93.4139
 20
487.494
  0
VERTEX
  8
Layer1
 10
93.8729
 20
487.585
  0
VERTEX
  8
Layer1
 10
94.3159
 20
487.735
  0
VERTEX
  8
Layer1
 10
94.7349
 20
487.942
  0
VERTEX
  8
Layer1
 10
95.1239
 20
488.202
  0
VERTEX
  8
Layer1
 10
95.4759
 20
488.51
  0
VERTEX
  8
Layer1
 10
95.7839
 20
488.862
  0
VERTEX
  8
Layer1
 10
96.0439
 20
489.25
  0
VERTEX
  8
Layer1
 10
96.2509
 20
489.67
  0
VERTEX
  8
Layer1
 10
96.4009
 20
490.113
  0
VERTEX
  8
Layer1
 10
96.4919
 20
490.571
  0
SEQEND
  0
POLYLINE
  8
Layer1
  6
CONTINUOUS
 62
7
 66
1
 10
0
 20
0
 30
0
 70
1
  0
VERTEX
  8
Layer1
 10
114.948
 20
508.038
  0
VERTEX
  8
Layer1
 10
114.905
 20
508.691
  0
VERTEX
  8
Layer1
 10
114.777
 20
509.332
  0
VERTEX
  8
Layer1
 10
114.567
 20
509.951
  0
VERTEX
  8
Layer1
 10
114.278
 20
510.538
  0
VERTEX
  8
Layer1
 10
113.914
 20
511.082
  0
VERTEX
  8
Layer1
 10
113.483
 20
511.574
  0
VERTEX
  8
Layer1
 10
112.992
 20
512.005
  0
VERTEX
  8
Layer1
 10
112.448
 20
512.368
  0
VERTEX
  8
Layer1
 10
111.861
 20
512.657
  0
VERTEX
  8
Layer1
 10
111.242
 20
512.868
  0
VERTEX
  8
Layer1
 10
110.6
 20
512.995
  0
VERTEX
  8
Layer1
 10
109.948
 20
513.038
  0
VERTEX
  8
Layer1
 10
109.295
 20
512.995
  0
VERTEX
  8
Layer1
 10
108.654
 20
512.868
  0
VERTEX
  8
Layer1
 10
108.034
 20
512.657
  0
VERTEX
  8
Layer1
 10
107.448
 20
512.368
  0
VERTEX
  8
Layer1
 10
106.904
 20
512.005
  0
VERTEX
  8
Layer1
 10
106.412
 20
511.574
  0
VERTEX
  8
Layer1
 10
105.981
 20
511.082
  0
VERTEX
  8
Layer1
 10
105.618
 20
510.538
  0
VERTEX
  8
Layer1
 10
105.328
 20
509.951
  0
VERTEX
  8
Layer1
 10
105.118
 20
509.332
  0
VERTEX
  8
Layer1
 10
104.99
 20
508.691
  0
VERTEX
  8
Layer1
 10
104.948
 20
508.038
  0
VERTEX
  8
Layer1
 10
104.99
 20
507.385
  0
VERTEX
  8
Layer1
 10
105.118
 20
506.744
  0
VERTEX
  8
Layer1
 10
105.328
 20
506.125
  0
VERTEX
  8
Layer1
 10
105.618
 20
505.538
  0
VERTEX
  8
Layer1
 10
105.981
 20
504.994
  0
VERTEX
  8
Layer1
 10
106.412
 20
504.502
  0
VERTEX
  8
Layer1
 10
106.904
 20
504.071
  0
VERTEX
  8
Layer1
 10
107.448
 20
503.708
  0
VERTEX
  8
Layer1
 10
108.034
 20
503.419
  0
VERTEX
  8
Layer1
 10
108.654
 20
503.208
  0
VERTEX
  8
Layer1
 10
109.295
 20
503.081
  0
VERTEX
  8
Layer1
 10
109.948
 20
503.038
  0
VERTEX
  8
Layer1
 10
110.6
 20
503.081
  0
VERTEX
  8
Layer1
 10
111.242
 20
503.208
  0
VERTEX
  8
Layer1
 10
111.861
 20
503.419
  0
VERTEX
  8
Layer1
 10
112.448
 20
503.708
  0
VERTEX
  8
Layer1
 10
112.992
 20
504.071
  0
VERTEX
  8
Layer1
 10
113.483
 20
504.502
  0
VERTEX
  8
Layer1
 10
113.914
 20
504.994
  0
VERTEX
  8
Layer1
 10
114.278
 20
505.538
  0
VERTEX
  8
Layer1
 10
114.567
 20
506.125
  0
VERTEX
  8
Layer1
 10
114.777
 20
506.744
  0
VERTEX
  8
Layer1
 10
114.905
 20
507.385
  0
SEQEND
  0
POLYLINE
  8
Layer1
  6
CONTINUOUS
 62
7
 66
1
 10
0
 20
0
 30
0
 70
1
  0
VERTEX
  8
Layer1
 10
109.948
 20
511.613
  0
VERTEX
  8
Layer1
 10
106.852
 20
509.826
  0
VERTEX
  8
Layer1
 10
106.852
 20
506.25
  0
VERTEX
  8
Layer1
 10
109.948
 20
504.463
  0
VERTEX
  8
Layer1
 10
113.044
 20
506.25
  0
VERTEX
  8
Layer1
 10
113.044
 20
509.826
  0
SEQEND
  0
POLYLINE
  8
Layer1
  6
CONTINUOUS
 62
7
 66
1
 10
0
 20
0
 30
0
 70
1
  0
VERTEX
  8
Layer1
 10
113.523
 20
508.038
  0
VERTEX
  8
Layer1
 10
113.492
 20
508.505
  0
VERTEX
  8
Layer1
 10
113.401
 20
508.963
  0
VERTEX
  8
Layer1
 10
113.251
 20
509.406
  0
VERTEX
  8
Layer1
 10
113.044
 20
509.826
  0
VERTEX
  8
Layer1
 10
112.784
 20
510.214
  0
VERTEX
  8
Layer1
 10
112.476
 20
510.566
  0
VERTEX
  8
Layer1
 10
112.124
 20
510.874
  0
VERTEX
  8
Layer1
 10
111.735
 20
511.134
  0
VERTEX
  8
Layer1
 10
111.316
 20
511.341
  0
VERTEX
  8
Layer1
 10
110.873
 20
511.491
  0
VERTEX
  8
Layer1
 10
110.414
 20
511.582
  0
VERTEX
  8
Layer1
 10
109.948
 20
511.613
  0
VERTEX
  8
Layer1
 10
109.481
 20
511.582
  0
VERTEX
  8
Layer1
 10
109.022
 20
511.491
  0
VERTEX
  8
Layer1
 10
108.58
 20
511.341
  0
VERTEX
  8
Layer1
 10
108.16
 20
511.134
  0
VERTEX
  8
Layer1
 10
107.771
 20
510.874
  0
VERTEX
  8
Layer1
 10
107.42
 20
510.566
  0
VERTEX
  8
Layer1
 10
107.111
 20
510.214
  0
VERTEX
  8
Layer1
 10
106.852
 20
509.826
  0
VERTEX
  8
Layer1
 10
106.645
 20
509.406
  0
VERTEX
  8
Layer1
 10
106.495
 20
508.963
  0
VERTEX
  8
Layer1
 10
106.403
 20
508.505
  0
VERTEX
  8
Layer1
 10
106.373
 20
508.038
  0
VERTEX
  8
Layer1
 10
106.403
 20
507.571
  0
VERTEX
  8
Layer1
 10
106.495
 20
507.113
  0
VERTEX
  8
Layer1
 10
106.645
 20
506.67
  0
VERTEX
  8
Layer1
 10
106.852
 20
506.25
  0
VERTEX
  8
Layer1
 10
107.111
 20
505.862
  0
VERTEX
  8
Layer1
 10
107.42
 20
505.51
  0
VERTEX
  8
Layer1
 10
107.771
 20
505.202
  0
VERTEX
  8
Layer1
 10
108.16
 20
504.942
  0
VERTEX
  8
Layer1
 10
108.58
 20
504.735
  0
VERTEX
  8
Layer1
 10
109.022
 20
504.585
  0
VERTEX
  8
Layer1
 10
109.481
 20
504.494
  0
VERTEX
  8
Layer1
 10
109.948
 20
504.463
  0
VERTEX
  8
Layer1
 10
110.414
 20
504.494
  0
VERTEX
  8
Layer1
 10
110.873
 20
504.585
  0
VERTEX
  8
Layer1
 10
111.316
 20
504.735
  0
VERTEX
  8
Layer1
 10
111.735
 20
504.942
  0
VERTEX
  8
Layer1
 10
112.124
 20
505.202
  0
VERTEX
  8
Layer1
 10
112.476
 20
505.51
  0
VERTEX
  8
Layer1
 10
112.784
 20
505.862
  0
VERTEX
  8
Layer1
 10
113.044
 20
506.25
  0
VERTEX
  8
Layer1
 10
113.251
 20
506.67
  0
VERTEX
  8
Layer1
 10
113.401
 20
507.113
  0
VERTEX
  8
Layer1
 10
113.492
 20
507.571
  0
SEQEND
  0
LINE
  8
Layer1
  6
PHANTOM1
 62
7
 10
303.893
 20
551.538
 11
343.893
 21
551.538
  0
LINE
  8
Layer1
  6
PHANTOM1
 62
7
 10
303.893
 20
539.538
 11
343.893
 21
539.538
  0
LINE
  8
Layer1
  6
CENTER1
 62
7
 10
313.95
 20
675.611
 11
313.95
 21
658.508
  0
LINE
  8
Layer1
  6
CONTINUOUS
 62
7
 10
282.327
 20
620.508
 11
323.745
 21
620.508
  0
LINE
  8
Layer1
  6
CENTER1
 62
7
 10
308.892
 20
666.508
 11
321.448
 21
666.508
  0
CIRCLE
  8
Layer1
  6
DASHED1
 62
7
 10
313.95
 20
620.508
 40
3.5
  0
CIRCLE
  8
Layer1
  6
CONTINUOUS
 62
7
 10
313.893
 20
666.641
 40
3.5
  0
POLYLINE
  8
Layer1
  6
CONTINUOUS
 62
7
 66
1
 10
0
 20
0
 30
0
  0
VERTEX
  8
Layer1
 10
321.151
 20
672.508
  0
VERTEX
  8
Layer1
 10
321.103
 20
672.018
  0
VERTEX
  8
Layer1
 10
321.054
 20
671.527
  0
VERTEX
  8
Layer1
 10
321.004
 20
671.036
  0
VERTEX
  8
Layer1
 10
320.952
 20
670.545
  0
VERTEX
  8
Layer1
 10
320.897
 20
670.054
  0
VERTEX
  8
Layer1
 10
320.839
 20
669.562
  0
VERTEX
  8
Layer1
 10
320.778
 20
669.069
  0
VERTEX
  8
Layer1
 10
320.711
 20
668.575
  0
VERTEX
  8
Layer1
 10
320.64
 20
668.081
  0
VERTEX
  8
Layer1
 10
320.562
 20
667.586
  0
VERTEX
  8
Layer1
 10
320.478
 20
667.09
  0
VERTEX
  8
Layer1
 10
320.387
 20
666.592
  0
VERTEX
  8
Layer1
 10
320.288
 20
666.094
  0
VERTEX
  8
Layer1
 10
320.18
 20
665.594
  0
VERTEX
  8
Layer1
 10
320.064
 20
665.092
  0
VERTEX
  8
Layer1
 10
319.937
 20
664.589
  0
VERTEX
  8
Layer1
 10
319.801
 20
664.085
  0
VERTEX
  8
Layer1
 10
319.653
 20
663.58
  0
VERTEX
  8
Layer1
 10
319.493
 20
663.077
  0
VERTEX
  8
Layer1
 10
319.322
 20
662.576
  0
VERTEX
  8
Layer1
 10
319.138
 20
662.08
  0
VERTEX
  8
Layer1
 10
318.941
 20
661.59
  0
VERTEX
  8
Layer1
 10
318.73
 20
661.109
  0
VERTEX
  8
Layer1
 10
318.505
 20
660.636
  0
VERTEX
  8
Layer1
 10
318.265
 20
660.175
  0
VERTEX
  8
Layer1
 10
318.01
 20
659.727
  0
VERTEX
  8
Layer1
 10
317.738
 20
659.293
  0
VERTEX
  8
Layer1
 10
317.451
 20
658.875
  0
VERTEX
  8
Layer1
 10
317.147
 20
658.475
  0
VERTEX
  8
Layer1
 10
316.825
 20
658.094
  0
VERTEX
  8
Layer1
 10
316.485
 20
657.735
  0
VERTEX
  8
Layer1
 10
316.126
 20
657.397
  0
VERTEX
  8
Layer1
 10
315.749
 20
657.084
  0
VERTEX
  8
Layer1
 10
315.352
 20
656.798
  0
VERTEX
  8
Layer1
 10
314.935
 20
656.538
  0
VERTEX
  8
Layer1
 10
314.499
 20
656.304
  0
VERTEX
  8
Layer1
 10
314.047
 20
656.093
  0
VERTEX
  8
Layer1
 10
313.582
 20
655.9
  0
VERTEX
  8
Layer1
 10
313.107
 20
655.721
  0
VERTEX
  8
Layer1
 10
312.625
 20
655.553
  0
VERTEX
  8
Layer1
 10
312.138
 20
655.392
  0
VERTEX
  8
Layer1
 10
311.65
 20
655.234
  0
VERTEX
  8
Layer1
 10
311.163
 20
655.075
  0
VERTEX
  8
Layer1
 10
310.68
 20
654.911
  0
VERTEX
  8
Layer1
 10
310.204
 20
654.739
  0
VERTEX
  8
Layer1
 10
309.738
 20
654.555
  0
VERTEX
  8
Layer1
 10
309.285
 20
654.354
  0
VERTEX
  8
Layer1
 10
308.847
 20
654.133
  0
VERTEX
  8
Layer1
 10
308.428
 20
653.889
  0
VERTEX
  8
Layer1
 10
308.029
 20
653.617
  0
VERTEX
  8
Layer1
 10
307.652
 20
653.319
  0
VERTEX
  8
Layer1
 10
307.293
 20
652.995
  0
VERTEX
  8
Layer1
 10
306.952
 20
652.649
  0
VERTEX
  8
Layer1
 10
306.628
 20
652.281
  0
VERTEX
  8
Layer1
 10
306.318
 20
651.894
  0
VERTEX
  8
Layer1
 10
306.022
 20
651.49
  0
VERTEX
  8
Layer1
 10
305.737
 20
651.071
  0
VERTEX
  8
Layer1
 10
305.462
 20
650.638
  0
VERTEX
  8
Layer1
 10
305.197
 20
650.194
  0
VERTEX
  8
Layer1
 10
304.939
 20
649.74
  0
VERTEX
  8
Layer1
 10
304.686
 20
649.279
  0
VERTEX
  8
Layer1
 10
304.438
 20
648.811
  0
VERTEX
  8
Layer1
 10
304.193
 20
648.34
  0
VERTEX
  8
Layer1
 10
303.95
 20
647.867
  0
SEQEND
  0
LINE
  8
Layer1
  6
PHANTOM1
 62
7
 10
321.151
 20
672.508
 11
304.95
 21
672.508
  0
LINE
  8
Layer1
  6
PHANTOM1
 62
7
 10
303.95
 20
671.508
 11
303.95
 21
647.867
  0
LINE
  8
Layer1
  6
CONTINUOUS
 62
7
 10
317.172
 20
658.508
 11
302.778
 21
658.508
  0
LINE
  8
Layer1
  6
DASHED1
 62
7
 10
317.172
 20
658.508
 11
343.893
 21
658.508
  0
CIRCLE
  8
Layer1
  6
CONTINUOUS
 62
7
 10
263.95
 20
666.508
 40
3.5
  0
CIRCLE
  8
Layer1
  6
CONTINUOUS
 62
7
 10
279.95
 20
666.508
 40
3.5
  0
LINE
  8
Layer1
  6
CONTINUOUS
 62
7
 10
291.635
 20
514.538
 11
291.635
 21
519.445
  0
LINE
  8
Layer1
  6
CONTINUOUS
 62
7
 10
297.635
 20
514.538
 11
297.635
 21
519.445
  0
LINE
  8
Layer1
  6
PHANTOM1
 62
7
 10
303.792
 20
514.538
 11
322.281
 21
496.049
  0
LINE
  8
Layer1
  6
PHANTOM1
 62
7
 10
322.281
 20
496.049
 11
322.281
 21
484.463
  0
LINE
  8
Layer1
  6
CONTINUOUS
 62
7
 10
280.368
 20
466.084
 11
303.047
 21
466.084
  0
LINE
  8
Layer1
  6
CONTINUOUS
 62
7
 10
326.867
 20
466.084
 11
326.867
 21
469.834
  0
LINE
  8
Layer1
  6
CONTINUOUS
 62
7
 10
289.771
 20
481.084
 11
287.428
 21
481.084
  0
LINE
  8
Layer1
  6
CONTINUOUS
 62
7
 10
285.085
 20
481.084
 11
282.742
 21
481.084
  0
LINE
  8
Layer1
  6
CONTINUOUS
 62
7
 10
280.399
 20
481.084
 11
278.982
 21
481.084
  0
LINE
  8
Layer1
  6
CONTINUOUS
 62
7
 10
288.99
 20
466.084
 11
291.333
 21
466.084
  0
LINE
  8
Layer1
  6
CONTINUOUS
 62
7
 10
312.419
 20
466.084
 11
314.762
 21
466.084
  0
LINE
  8
Layer1
  6
CONTINUOUS
 62
7
 10
326.867
 20
481.084
 11
324.915
 21
481.084
  0
LINE
  8
Layer1
  6
CONTINUOUS
 62
7
 10
310.857
 20
477.339
 11
313.2
 21
477.339
  0
LINE
  8
Layer1
  6
CONTINUOUS
 62
7
 10
312.419
 20
469.849
 11
314.762
 21
469.849
  0
LINE
  8
Layer1
  6
CONTINUOUS
 62
7
 10
313.2
 20
481.084
 11
313.2
 21
477.339
  0
LINE
  8
Layer1
  6
CONTINUOUS
 62
7
 10
310.857
 20
481.084
 11
310.857
 21
477.339
  0
LINE
  8
Layer1
  6
CONTINUOUS
 62
7
 10
312.419
 20
469.849
 11
312.419
 21
466.084
  0
LINE
  8
Layer1
  6
CONTINUOUS
 62
7
 10
314.762
 20
469.849
 11
314.762
 21
466.084
  0
LINE
  8
Layer1
  6
CONTINUOUS
 62
7
 10
310.857
 20
477.339
 11
312.419
 21
469.849
  0
LINE
  8
Layer1
  6
CONTINUOUS
 62
7
 10
313.2
 20
477.339
 11
314.762
 21
469.849
  0
LINE
  8
Layer1
  6
CONTINUOUS
 62
7
 10
311.638
 20
473.594
 11
312.419
 21
466.084
  0
LINE
  8
Layer1
  6
CONTINUOUS
 62
7
 10
313.395
 20
481.084
 11
313.981
 21
473.594
  0
LINE
  8
Layer1
  6
CONTINUOUS
 62
7
 10
317.105
 20
466.084
 11
319.448
 21
466.084
  0
LINE
  8
Layer1
  6
CONTINUOUS
 62
7
 10
317.886
 20
481.084
 11
315.543
 21
481.084
  0
LINE
  8
Layer1
  6
CONTINUOUS
 62
7
 10
315.543
 20
477.339
 11
317.886
 21
477.339
  0
LINE
  8
Layer1
  6
CONTINUOUS
 62
7
 10
317.105
 20
469.849
 11
319.448
 21
469.849
  0
LINE
  8
Layer1
  6
CONTINUOUS
 62
7
 10
317.886
 20
481.084
 11
317.886
 21
477.339
  0
LINE
  8
Layer1
  6
CONTINUOUS
 62
7
 10
315.543
 20
481.084
 11
315.543
 21
477.339
  0
LINE
  8
Layer1
  6
CONTINUOUS
 62
7
 10
317.105
 20
469.849
 11
317.105
 21
466.084
  0
LINE
  8
Layer1
  6
CONTINUOUS
 62
7
 10
319.448
 20
469.849
 11
319.448
 21
466.084
  0
LINE
  8
Layer1
  6
CONTINUOUS
 62
7
 10
315.543
 20
477.339
 11
317.105
 21
469.849
  0
LINE
  8
Layer1
  6
CONTINUOUS
 62
7
 10
317.886
 20
477.339
 11
319.448
 21
469.849
  0
LINE
  8
Layer1
  6
CONTINUOUS
 62
7
 10
316.324
 20
473.594
 11
317.105
 21
466.084
  0
LINE
  8
Layer1
  6
CONTINUOUS
 62
7
 10
318.081
 20
481.084
 11
318.667
 21
473.594
  0
LINE
  8
Layer1
  6
CONTINUOUS
 62
7
 10
321.791
 20
466.084
 11
324.134
 21
466.084
  0
LINE
  8
Layer1
  6
CONTINUOUS
 62
7
 10
322.572
 20
481.084
 11
320.229
 21
481.084
  0
LINE
  8
Layer1
  6
CONTINUOUS
 62
7
 10
320.229
 20
477.339
 11
322.572
 21
477.339
  0
LINE
  8
Layer1
  6
CONTINUOUS
 62
7
 10
321.791
 20
469.849
 11
324.134
 21
469.849
  0
LINE
  8
Layer1
  6
CONTINUOUS
 62
7
 10
322.572
 20
481.084
 11
322.572
 21
477.339
  0
LINE
  8
Layer1
  6
CONTINUOUS
 62
7
 10
320.229
 20
481.084
 11
320.229
 21
477.339
  0
LINE
  8
Layer1
  6
CONTINUOUS
 62
7
 10
321.791
 20
469.849
 11
321.791
 21
466.084
  0
LINE
  8
Layer1
  6
CONTINUOUS
 62
7
 10
324.134
 20
469.849
 11
324.134
 21
466.084
  0
LINE
  8
Layer1
  6
CONTINUOUS
 62
7
 10
320.229
 20
477.339
 11
321.791
 21
469.849
  0
LINE
  8
Layer1
  6
CONTINUOUS
 62
7
 10
322.572
 20
477.339
 11
324.134
 21
469.849
  0
LINE
  8
Layer1
  6
CONTINUOUS
 62
7
 10
321.01
 20
473.594
 11
321.791
 21
466.084
  0
LINE
  8
Layer1
  6
CONTINUOUS
 62
7
 10
322.767
 20
481.084
 11
323.353
 21
473.594
  0
LINE
  8
Layer1
  6
CONTINUOUS
 62
7
 10
324.915
 20
477.339
 11
326.867
 21
477.334
  0
LINE
  8
Layer1
  6
CONTINUOUS
 62
7
 10
324.915
 20
481.084
 11
324.915
 21
477.339
  0
LINE
  8
Layer1
  6
CONTINUOUS
 62
7
 10
324.915
 20
477.339
 11
326.477
 21
469.849
  0
LINE
  8
Layer1
  6
CONTINUOUS
 62
7
 10
325.696
 20
473.594
 11
326.477
 21
466.084
  0
LINE
  8
Layer1
  6
CONTINUOUS
 62
7
 10
313.2
 20
481.084
 11
310.857
 21
481.084
  0
LINE
  8
Layer1
  6
CONTINUOUS
 62
7
 10
308.514
 20
481.084
 11
306.171
 21
481.084
  0
LINE
  8
Layer1
  6
CONTINUOUS
 62
7
 10
303.828
 20
481.084
 11
301.485
 21
481.084
  0
LINE
  8
Layer1
  6
CONTINUOUS
 62
7
 10
289.771
 20
481.084
 11
287.428
 21
481.084
  0
LINE
  8
Layer1
  6
CONTINUOUS
 62
7
 10
287.428
 20
477.339
 11
289.771
 21
477.339
  0
LINE
  8
Layer1
  6
CONTINUOUS
 62
7
 10
288.99
 20
469.849
 11
291.333
 21
469.849
  0
LINE
  8
Layer1
  6
CONTINUOUS
 62
7
 10
289.771
 20
481.084
 11
289.771
 21
477.339
  0
LINE
  8
Layer1
  6
CONTINUOUS
 62
7
 10
287.428
 20
481.084
 11
287.428
 21
477.339
  0
LINE
  8
Layer1
  6
CONTINUOUS
 62
7
 10
288.99
 20
469.849
 11
288.99
 21
466.084
  0
LINE
  8
Layer1
  6
CONTINUOUS
 62
7
 10
291.333
 20
469.849
 11
291.333
 21
466.084
  0
LINE
  8
Layer1
  6
CONTINUOUS
 62
7
 10
287.428
 20
477.339
 11
288.99
 21
469.849
  0
LINE
  8
Layer1
  6
CONTINUOUS
 62
7
 10
289.771
 20
477.339
 11
291.333
 21
469.849
  0
LINE
  8
Layer1
  6
CONTINUOUS
 62
7
 10
288.209
 20
473.594
 11
288.99
 21
466.084
  0
LINE
  8
Layer1
  6
CONTINUOUS
 62
7
 10
289.966
 20
481.084
 11
290.552
 21
473.594
  0
LINE
  8
Layer1
  6
CONTINUOUS
 62
7
 10
293.676
 20
466.084
 11
296.018
 21
466.084
  0
LINE
  8
Layer1
  6
CONTINUOUS
 62
7
 10
294.456
 20
481.084
 11
292.114
 21
481.084
  0
LINE
  8
Layer1
  6
CONTINUOUS
 62
7
 10
292.114
 20
477.339
 11
294.456
 21
477.339
  0
LINE
  8
Layer1
  6
CONTINUOUS
 62
7
 10
293.676
 20
469.849
 11
296.018
 21
469.849
  0
LINE
  8
Layer1
  6
CONTINUOUS
 62
7
 10
294.456
 20
481.084
 11
294.456
 21
477.339
  0
LINE
  8
Layer1
  6
CONTINUOUS
 62
7
 10
292.114
 20
481.084
 11
292.114
 21
477.339
  0
LINE
  8
Layer1
  6
CONTINUOUS
 62
7
 10
293.676
 20
469.849
 11
293.676
 21
466.084
  0
LINE
  8
Layer1
  6
CONTINUOUS
 62
7
 10
296.018
 20
469.849
 11
296.018
 21
466.084
  0
LINE
  8
Layer1
  6
CONTINUOUS
 62
7
 10
292.114
 20
477.339
 11
293.676
 21
469.849
  0
LINE
  8
Layer1
  6
CONTINUOUS
 62
7
 10
294.456
 20
477.339
 11
296.018
 21
469.849
  0
LINE
  8
Layer1
  6
CONTINUOUS
 62
7
 10
292.895
 20
473.594
 11
293.676
 21
466.084
  0
LINE
  8
Layer1
  6
CONTINUOUS
 62
7
 10
294.652
 20
481.084
 11
295.237
 21
473.594
  0
LINE
  8
Layer1
  6
CONTINUOUS
 62
7
 10
298.361
 20
466.084
 11
300.704
 21
466.084
  0
LINE
  8
Layer1
  6
CONTINUOUS
 62
7
 10
299.142
 20
481.084
 11
296.799
 21
481.084
  0
LINE
  8
Layer1
  6
CONTINUOUS
 62
7
 10
296.799
 20
477.339
 11
299.142
 21
477.339
  0
LINE
  8
Layer1
  6
CONTINUOUS
 62
7
 10
298.361
 20
469.849
 11
300.704
 21
469.849
  0
LINE
  8
Layer1
  6
CONTINUOUS
 62
7
 10
299.142
 20
481.084
 11
299.142
 21
477.339
  0
LINE
  8
Layer1
  6
CONTINUOUS
 62
7
 10
296.799
 20
481.084
 11
296.799
 21
477.339
  0
LINE
  8
Layer1
  6
CONTINUOUS
 62
7
 10
298.361
 20
469.849
 11
298.361
 21
466.084
  0
LINE
  8
Layer1
  6
CONTINUOUS
 62
7
 10
300.704
 20
469.849
 11
300.704
 21
466.084
  0
LINE
  8
Layer1
  6
CONTINUOUS
 62
7
 10
296.799
 20
477.339
 11
298.361
 21
469.849
  0
LINE
  8
Layer1
  6
CONTINUOUS
 62
7
 10
299.142
 20
477.339
 11
300.704
 21
469.849
  0
LINE
  8
Layer1
  6
CONTINUOUS
 62
7
 10
297.58
 20
473.594
 11
298.361
 21
466.084
  0
LINE
  8
Layer1
  6
CONTINUOUS
 62
7
 10
299.338
 20
481.084
 11
299.923
 21
473.594
  0
LINE
  8
Layer1
  6
CONTINUOUS
 62
7
 10
303.047
 20
466.084
 11
305.39
 21
466.084
  0
LINE
  8
Layer1
  6
CONTINUOUS
 62
7
 10
303.828
 20
481.084
 11
301.485
 21
481.084
  0
LINE
  8
Layer1
  6
CONTINUOUS
 62
7
 10
301.485
 20
477.339
 11
303.828
 21
477.339
  0
LINE
  8
Layer1
  6
CONTINUOUS
 62
7
 10
303.047
 20
469.849
 11
305.39
 21
469.849
  0
LINE
  8
Layer1
  6
CONTINUOUS
 62
7
 10
303.828
 20
481.084
 11
303.828
 21
477.339
  0
LINE
  8
Layer1
  6
CONTINUOUS
 62
7
 10
301.485
 20
481.084
 11
301.485
 21
477.339
  0
LINE
  8
Layer1
  6
CONTINUOUS
 62
7
 10
303.047
 20
469.849
 11
303.047
 21
466.084
  0
LINE
  8
Layer1
  6
CONTINUOUS
 62
7
 10
305.39
 20
469.849
 11
305.39
 21
466.084
  0
LINE
  8
Layer1
  6
CONTINUOUS
 62
7
 10
301.485
 20
477.339
 11
303.047
 21
469.849
  0
LINE
  8
Layer1
  6
CONTINUOUS
 62
7
 10
303.828
 20
477.339
 11
305.39
 21
469.849
  0
LINE
  8
Layer1
  6
CONTINUOUS
 62
7
 10
302.266
 20
473.594
 11
303.047
 21
466.084
  0
LINE
  8
Layer1
  6
CONTINUOUS
 62
7
 10
304.023
 20
481.084
 11
304.609
 21
473.594
  0
LINE
  8
Layer1
  6
CONTINUOUS
 62
7
 10
307.733
 20
466.084
 11
310.076
 21
466.084
  0
LINE
  8
Layer1
  6
CONTINUOUS
 62
7
 10
308.514
 20
481.084
 11
306.171
 21
481.084
  0
LINE
  8
Layer1
  6
CONTINUOUS
 62
7
 10
306.171
 20
477.339
 11
308.514
 21
477.339
  0
LINE
  8
Layer1
  6
CONTINUOUS
 62
7
 10
307.733
 20
469.849
 11
310.076
 21
469.849
  0
LINE
  8
Layer1
  6
CONTINUOUS
 62
7
 10
308.514
 20
481.084
 11
308.514
 21
477.339
  0
LINE
  8
Layer1
  6
CONTINUOUS
 62
7
 10
306.171
 20
481.084
 11
306.171
 21
477.339
  0
LINE
  8
Layer1
  6
CONTINUOUS
 62
7
 10
307.733
 20
469.849
 11
307.733
 21
466.084
  0
LINE
  8
Layer1
  6
CONTINUOUS
 62
7
 10
310.076
 20
469.849
 11
310.076
 21
466.084
  0
LINE
  8
Layer1
  6
CONTINUOUS
 62
7
 10
306.171
 20
477.339
 11
307.733
 21
469.849
  0
LINE
  8
Layer1
  6
CONTINUOUS
 62
7
 10
308.514
 20
477.339
 11
310.076
 21
469.849
  0
LINE
  8
Layer1
  6
CONTINUOUS
 62
7
 10
306.952
 20
473.594
 11
307.733
 21
466.084
  0
LINE
  8
Layer1
  6
CONTINUOUS
 62
7
 10
308.709
 20
481.084
 11
309.295
 21
473.594
  0
LINE
  8
Layer1
  6
CONTINUOUS
 62
7
 10
312.419
 20
466.084
 11
314.762
 21
466.084
  0
LINE
  8
Layer1
  6
CONTINUOUS
 62
7
 10
313.2
 20
481.084
 11
310.857
 21
481.084
  0
LINE
  8
Layer1
  6
CONTINUOUS
 62
7
 10
310.857
 20
477.339
 11
313.2
 21
477.339
  0
LINE
  8
Layer1
  6
CONTINUOUS
 62
7
 10
312.419
 20
469.849
 11
314.762
 21
469.849
  0
LINE
  8
Layer1
  6
CONTINUOUS
 62
7
 10
313.2
 20
481.084
 11
313.2
 21
477.339
  0
LINE
  8
Layer1
  6
CONTINUOUS
 62
7
 10
310.857
 20
481.084
 11
310.857
 21
477.339
  0
LINE
  8
Layer1
  6
CONTINUOUS
 62
7
 10
312.419
 20
469.849
 11
312.419
 21
466.084
  0
LINE
  8
Layer1
  6
CONTINUOUS
 62
7
 10
314.762
 20
469.849
 11
314.762
 21
466.084
  0
LINE
  8
Layer1
  6
CONTINUOUS
 62
7
 10
310.857
 20
477.339
 11
312.419
 21
469.849
  0
LINE
  8
Layer1
  6
CONTINUOUS
 62
7
 10
313.2
 20
477.339
 11
314.762
 21
469.849
  0
LINE
  8
Layer1
  6
CONTINUOUS
 62
7
 10
311.638
 20
473.594
 11
312.419
 21
466.084
  0
LINE
  8
Layer1
  6
CONTINUOUS
 62
7
 10
313.395
 20
481.084
 11
313.981
 21
473.594
  0
LINE
  8
Layer1
  6
CONTINUOUS
 62
7
 10
284.304
 20
466.084
 11
286.647
 21
466.084
  0
LINE
  8
Layer1
  6
CONTINUOUS
 62
7
 10
285.085
 20
481.084
 11
282.742
 21
481.084
  0
LINE
  8
Layer1
  6
CONTINUOUS
 62
7
 10
282.742
 20
477.339
 11
285.085
 21
477.339
  0
LINE
  8
Layer1
  6
CONTINUOUS
 62
7
 10
284.304
 20
469.849
 11
286.647
 21
469.849
  0
LINE
  8
Layer1
  6
CONTINUOUS
 62
7
 10
285.085
 20
481.084
 11
285.085
 21
477.339
  0
LINE
  8
Layer1
  6
CONTINUOUS
 62
7
 10
282.742
 20
481.084
 11
282.742
 21
477.339
  0
LINE
  8
Layer1
  6
CONTINUOUS
 62
7
 10
284.304
 20
469.849
 11
284.304
 21
466.084
  0
LINE
  8
Layer1
  6
CONTINUOUS
 62
7
 10
286.647
 20
469.849
 11
286.647
 21
466.084
  0
LINE
  8
Layer1
  6
CONTINUOUS
 62
7
 10
282.742
 20
477.339
 11
284.304
 21
469.849
  0
LINE
  8
Layer1
  6
CONTINUOUS
 62
7
 10
285.085
 20
477.339
 11
286.647
 21
469.849
  0
LINE
  8
Layer1
  6
CONTINUOUS
 62
7
 10
283.523
 20
473.594
 11
284.304
 21
466.084
  0
LINE
  8
Layer1
  6
CONTINUOUS
 62
7
 10
285.28
 20
481.084
 11
285.866
 21
473.594
  0
LINE
  8
Layer1
  6
CONTINUOUS
 62
7
 10
278.876
 20
477.339
 11
280.399
 21
477.339
  0
LINE
  8
Layer1
  6
CONTINUOUS
 62
7
 10
279.618
 20
469.849
 11
281.961
 21
469.849
  0
LINE
  8
Layer1
  6
CONTINUOUS
 62
7
 10
280.399
 20
481.084
 11
280.399
 21
477.339
  0
LINE
  8
Layer1
  6
CONTINUOUS
 62
7
 10
281.961
 20
469.849
 11
281.961
 21
466.981
  0
LINE
  8
Layer1
  6
CONTINUOUS
 62
7
 10
278.837
 20
473.594
 11
279.618
 21
469.849
  0
LINE
  8
Layer1
  6
CONTINUOUS
 62
7
 10
280.399
 20
477.339
 11
281.961
 21
469.849
  0
LINE
  8
Layer1
  6
CONTINUOUS
 62
7
 10
280.594
 20
481.084
 11
281.18
 21
473.594
  0
LINE
  8
Layer1
  6
CONTINUOUS
 62
7
 10
326.477
 20
466.084
 11
326.867
 21
466.084
  0
LINE
  8
Layer1
  6
CONTINUOUS
 62
7
 10
326.477
 20
469.849
 11
326.867
 21
469.834
  0
LINE
  8
Layer1
  6
CONTINUOUS
 62
7
 10
326.477
 20
469.849
 11
326.477
 21
466.084
  0
LINE
  8
Layer1
  6
CONTINUOUS
 62
7
 10
302.778
 20
466.084
 11
302.778
 21
461.538
  0
LINE
  8
Layer1
  6
CONTINUOUS
 62
7
 10
272.867
 20
504.546
 11
272.867
 21
514.538
  0
LINE
  8
Layer1
  6
CONTINUOUS
 62
7
 10
270.867
 20
506.61
 11
270.867
 21
514.538
  0
TEXT
  8
Layer1
 62
7
 10
209.832
 20
451.243
 72
1
 11
209.832
 21
451.243
 40
8
 41
1
  1
20ストローク 
  0
POLYLINE
  8
Layer1
  6
CONTINUOUS
 62
7
 66
1
 10
0
 20
0
 30
0
  0
VERTEX
  8
Layer1
 10
198.867
 20
461.538
  0
VERTEX
  8
Layer1
 10
218.867
 20
461.538
  0
SEQEND
  0
POLYLINE
  8
Layer1
  6
CONTINUOUS
 62
7
 66
1
 10
0
 20
0
 30
0
 70
1
  0
VERTEX
  8
Layer1
 10
202.731
 20
460.503
  0
VERTEX
  8
Layer1
 10
198.867
 20
461.538
  0
VERTEX
  8
Layer1
 10
202.731
 20
462.573
  0
SEQEND
  0
POLYLINE
  8
Layer1
  6
CONTINUOUS
 62
7
 66
1
 10
0
 20
0
 30
0
 70
1
  0
VERTEX
  8
Layer1
 10
215.003
 20
462.573
  0
VERTEX
  8
Layer1
 10
218.867
 20
461.538
  0
VERTEX
  8
Layer1
 10
215.003
 20
460.503
  0
SEQEND
  0
TEXT
  8
Layer1
 62
7
 10
402.558
 20
506.538
 72
1
 11
402.558
 21
506.538
 40
8
 41
1
 50
90
  1
 90 
  0
LINE
  8
Layer1
  6
CONTINUOUS
 62
7
 10
387.504
 20
461.538
 11
402.558
 21
461.538
  0
LINE
  8
Layer1
  6
CONTINUOUS
 62
7
 10
343.893
 20
551.538
 11
402.558
 21
551.538
  0
POLYLINE
  8
Layer1
  6
CONTINUOUS
 62
7
 66
1
 10
0
 20
0
 30
0
  0
VERTEX
  8
Layer1
 10
402.558
 20
461.538
  0
VERTEX
  8
Layer1
 10
402.558
 20
551.538
  0
SEQEND
  0
POLYLINE
  8
Layer1
  6
CONTINUOUS
 62
7
 66
1
 10
0
 20
0
 30
0
 70
1
  0
VERTEX
  8
Layer1
 10
403.593
 20
465.402
  0
VERTEX
  8
Layer1
 10
402.558
 20
461.538
  0
VERTEX
  8
Layer1
 10
401.523
 20
465.402
  0
SEQEND
  0
POLYLINE
  8
Layer1
  6
CONTINUOUS
 62
7
 66
1
 10
0
 20
0
 30
0
 70
1
  0
VERTEX
  8
Layer1
 10
401.523
 20
547.674
  0
VERTEX
  8
Layer1
 10
402.558
 20
551.538
  0
VERTEX
  8
Layer1
 10
403.593
 20
547.674
  0
SEQEND
  0
TEXT
  8
Layer1
 62
7
 10
416.777
 20
516.538
 72
1
 11
416.777
 21
516.538
 40
8
 41
1
 50
90
  1
 110 
  0
LINE
  8
Layer1
  6
CONTINUOUS
 62
7
 10
340.077
 20
571.538
 11
416.777
 21
571.538
  0
LINE
  8
Layer1
  6
CONTINUOUS
 62
7
 10
397.047
 20
461.538
 11
416.777
 21
461.538
  0
POLYLINE
  8
Layer1
  6
CONTINUOUS
 62
7
 66
1
 10
0
 20
0
 30
0
  0
VERTEX
  8
Layer1
 10
416.777
 20
571.538
  0
VERTEX
  8
Layer1
 10
416.777
 20
461.538
  0
SEQEND
  0
POLYLINE
  8
Layer1
  6
CONTINUOUS
 62
7
 66
1
 10
0
 20
0
 30
0
 70
1
  0
VERTEX
  8
Layer1
 10
415.741
 20
567.674
  0
VERTEX
  8
Layer1
 10
416.777
 20
571.538
  0
VERTEX
  8
Layer1
 10
417.812
 20
567.674
  0
SEQEND
  0
POLYLINE
  8
Layer1
  6
CONTINUOUS
 62
7
 66
1
 10
0
 20
0
 30
0
 70
1
  0
VERTEX
  8
Layer1
 10
417.812
 20
465.402
  0
VERTEX
  8
Layer1
 10
416.777
 20
461.538
  0
VERTEX
  8
Layer1
 10
415.741
 20
465.402
  0
SEQEND
  0
TEXT
  8
Layer1
 62
7
 10
402.558
 20
485.446
 73
3
 11
402.558
 21
485.446
 40
6
 41
1
 50
90
  1
（シャットハイト）
  0
TEXT
  8
Layer1
 62
7
 10
418.014
 20
497.051
 73
3
 11
418.014
 21
497.051
 40
6
 41
1
 50
90
  1
（オープンハイト）
  0
TEXT
  8
Layer1
 62
7
 10
177.304
 20
494.038
 72
1
 11
177.304
 21
494.038
 40
8
 41
1
 50
90
  1
 65 
  0
LINE
  8
Layer1
  6
CONTINUOUS
 62
7
 10
130.26
 20
526.538
 11
177.304
 21
526.538
  0
LINE
  8
Layer1
  6
CONTINUOUS
 62
7
 10
130.473
 20
461.538
 11
177.304
 21
461.538
  0
POLYLINE
  8
Layer1
  6
CONTINUOUS
 62
7
 66
1
 10
0
 20
0
 30
0
  0
VERTEX
  8
Layer1
 10
177.304
 20
526.538
  0
VERTEX
  8
Layer1
 10
177.304
 20
461.538
  0
SEQEND
  0
POLYLINE
  8
Layer1
  6
CONTINUOUS
 62
7
 66
1
 10
0
 20
0
 30
0
 70
1
  0
VERTEX
  8
Layer1
 10
176.269
 20
522.674
  0
VERTEX
  8
Layer1
 10
177.304
 20
526.538
  0
VERTEX
  8
Layer1
 10
178.339
 20
522.674
  0
SEQEND
  0
POLYLINE
  8
Layer1
  6
CONTINUOUS
 62
7
 66
1
 10
0
 20
0
 30
0
 70
1
  0
VERTEX
  8
Layer1
 10
178.339
 20
465.402
  0
VERTEX
  8
Layer1
 10
177.304
 20
461.538
  0
VERTEX
  8
Layer1
 10
176.269
 20
465.402
  0
SEQEND
  0
TEXT
  8
Layer1
 62
7
 10
143.013
 20
499.538
 72
1
 11
143.013
 21
499.538
 40
8
 41
1
 50
90
  1
17
  0
LINE
  8
Layer1
  6
CONTINUOUS
 62
7
 10
109.948
 20
508.038
 11
143.013
 21
508.038
  0
LINE
  8
Layer1
  6
CONTINUOUS
 62
7
 10
98.2289
 20
491.038
 11
143.013
 21
491.038
  0
POLYLINE
  8
Layer1
  6
CONTINUOUS
 62
7
 66
1
 10
0
 20
0
 30
0
  0
VERTEX
  8
Layer1
 10
143.013
 20
508.038
  0
VERTEX
  8
Layer1
 10
143.013
 20
491.038
  0
SEQEND
  0
POLYLINE
  8
Layer1
  6
CONTINUOUS
 62
7
 66
1
 10
0
 20
0
 30
0
 70
1
  0
VERTEX
  8
Layer1
 10
141.977
 20
504.174
  0
VERTEX
  8
Layer1
 10
143.013
 20
508.038
  0
VERTEX
  8
Layer1
 10
144.048
 20
504.174
  0
SEQEND
  0
POLYLINE
  8
Layer1
  6
CONTINUOUS
 62
7
 66
1
 10
0
 20
0
 30
0
 70
1
  0
VERTEX
  8
Layer1
 10
144.048
 20
494.902
  0
VERTEX
  8
Layer1
 10
143.013
 20
491.038
  0
VERTEX
  8
Layer1
 10
141.977
 20
494.902
  0
SEQEND
  0
TEXT
  8
Layer1
 62
7
 10
153.258
 20
499.538
 72
1
 11
153.258
 21
499.538
 40
8
 41
1
 50
90
  1
 30 
  0
LINE
  8
Layer1
  6
CONTINUOUS
 62
7
 10
115.448
 20
514.538
 11
153.258
 21
514.538
  0
LINE
  8
Layer1
  6
CONTINUOUS
 62
7
 10
115.448
 20
484.538
 11
153.258
 21
484.538
  0
POLYLINE
  8
Layer1
  6
CONTINUOUS
 62
7
 66
1
 10
0
 20
0
 30
0
  0
VERTEX
  8
Layer1
 10
153.258
 20
514.538
  0
VERTEX
  8
Layer1
 10
153.258
 20
484.538
  0
SEQEND
  0
POLYLINE
  8
Layer1
  6
CONTINUOUS
 62
7
 66
1
 10
0
 20
0
 30
0
 70
1
  0
VERTEX
  8
Layer1
 10
152.223
 20
510.674
  0
VERTEX
  8
Layer1
 10
153.258
 20
514.538
  0
VERTEX
  8
Layer1
 10
154.294
 20
510.674
  0
SEQEND
  0
POLYLINE
  8
Layer1
  6
CONTINUOUS
 62
7
 66
1
 10
0
 20
0
 30
0
 70
1
  0
VERTEX
  8
Layer1
 10
154.294
 20
488.402
  0
VERTEX
  8
Layer1
 10
153.258
 20
484.538
  0
VERTEX
  8
Layer1
 10
152.223
 20
488.402
  0
SEQEND
  0
TEXT
  8
Layer1
 62
7
 10
165.386
 20
480.538
 72
1
 11
165.386
 21
480.538
 40
8
 41
1
 50
90
  1
 38 
  0
LINE
  8
Layer1
  6
CONTINUOUS
 62
7
 10
116.916
 20
499.538
 11
165.386
 21
499.538
  0
LINE
  8
Layer1
  6
CONTINUOUS
 62
7
 10
163.922
 20
461.538
 11
165.386
 21
461.538
  0
POLYLINE
  8
Layer1
  6
CONTINUOUS
 62
7
 66
1
 10
0
 20
0
 30
0
  0
VERTEX
  8
Layer1
 10
165.386
 20
499.538
  0
VERTEX
  8
Layer1
 10
165.386
 20
461.538
  0
SEQEND
  0
POLYLINE
  8
Layer1
  6
CONTINUOUS
 62
7
 66
1
 10
0
 20
0
 30
0
 70
1
  0
VERTEX
  8
Layer1
 10
164.35
 20
495.674
  0
VERTEX
  8
Layer1
 10
165.386
 20
499.538
  0
VERTEX
  8
Layer1
 10
166.421
 20
495.674
  0
SEQEND
  0
POLYLINE
  8
Layer1
  6
CONTINUOUS
 62
7
 66
1
 10
0
 20
0
 30
0
 70
1
  0
VERTEX
  8
Layer1
 10
166.421
 20
465.402
  0
VERTEX
  8
Layer1
 10
165.386
 20
461.538
  0
VERTEX
  8
Layer1
 10
164.35
 20
465.402
  0
SEQEND
  0
TEXT
  8
Layer1
 62
7
 10
170.162
 20
481.038
 72
1
 11
170.162
 21
481.038
 40
6
 41
1
 50
90
  1
(中心間距離）
  0
TEXT
  8
Layer1
 62
7
 10
50.1759
 20
539.038
 72
1
 11
50.1759
 21
539.038
 40
8
 41
1
 50
90
  1
 65 
  0
LINE
  8
Layer1
  6
CONTINUOUS
 62
7
 10
88.4479
 20
506.538
 11
50.1759
 21
506.538
  0
LINE
  8
Layer1
  6
CONTINUOUS
 62
7
 10
80.3369
 20
571.538
 11
50.1759
 21
571.538
  0
POLYLINE
  8
Layer1
  6
CONTINUOUS
 62
7
 66
1
 10
0
 20
0
 30
0
  0
VERTEX
  8
Layer1
 10
50.1759
 20
506.538
  0
VERTEX
  8
Layer1
 10
50.1759
 20
571.538
  0
SEQEND
  0
POLYLINE
  8
Layer1
  6
CONTINUOUS
 62
7
 66
1
 10
0
 20
0
 30
0
 70
1
  0
VERTEX
  8
Layer1
 10
51.2109
 20
510.402
  0
VERTEX
  8
Layer1
 10
50.1759
 20
506.538
  0
VERTEX
  8
Layer1
 10
49.1399
 20
510.402
  0
SEQEND
  0
POLYLINE
  8
Layer1
  6
CONTINUOUS
 62
7
 66
1
 10
0
 20
0
 30
0
 70
1
  0
VERTEX
  8
Layer1
 10
49.1399
 20
567.674
  0
VERTEX
  8
Layer1
 10
50.1759
 20
571.538
  0
VERTEX
  8
Layer1
 10
51.2109
 20
567.674
  0
SEQEND
  0
TEXT
  8
Layer1
 62
7
 10
64.3939
 20
565.538
 72
1
 11
64.3939
 21
565.538
 40
8
 41
1
 50
90
  1
12 
  0
LINE
  8
Layer1
  6
CONTINUOUS
 62
7
 10
80.3369
 20
571.538
 11
64.3939
 21
571.538
  0
LINE
  8
Layer1
  6
CONTINUOUS
 62
7
 10
73.4479
 20
559.538
 11
64.3939
 21
559.538
  0
POLYLINE
  8
Layer1
  6
CONTINUOUS
 62
7
 66
1
 10
0
 20
0
 30
0
  0
VERTEX
  8
Layer1
 10
64.3939
 20
571.538
  0
VERTEX
  8
Layer1
 10
64.3939
 20
559.538
  0
SEQEND
  0
POLYLINE
  8
Layer1
  6
CONTINUOUS
 62
7
 66
1
 10
0
 20
0
 30
0
 70
1
  0
VERTEX
  8
Layer1
 10
63.3589
 20
567.674
  0
VERTEX
  8
Layer1
 10
64.3939
 20
571.538
  0
VERTEX
  8
Layer1
 10
65.4289
 20
567.674
  0
SEQEND
  0
POLYLINE
  8
Layer1
  6
CONTINUOUS
 62
7
 66
1
 10
0
 20
0
 30
0
 70
1
  0
VERTEX
  8
Layer1
 10
65.4289
 20
563.402
  0
VERTEX
  8
Layer1
 10
64.3939
 20
559.538
  0
VERTEX
  8
Layer1
 10
63.3589
 20
563.402
  0
SEQEND
  0
TEXT
  8
Layer1
 62
7
 10
323.95
 20
592.293
 72
1
 11
323.95
 21
592.293
 40
8
 41
1
  1
 40 
  0
LINE
  8
Layer1
  6
CONTINUOUS
 62
7
 10
303.95
 20
615.508
 11
303.95
 21
588.293
  0
LINE
  8
Layer1
  6
CONTINUOUS
 62
7
 10
343.95
 20
615.508
 11
343.95
 21
588.293
  0
POLYLINE
  8
Layer1
  6
CONTINUOUS
 62
7
 66
1
 10
0
 20
0
 30
0
  0
VERTEX
  8
Layer1
 10
303.95
 20
592.293
  0
VERTEX
  8
Layer1
 10
343.95
 20
592.293
  0
SEQEND
  0
POLYLINE
  8
Layer1
  6
CONTINUOUS
 62
7
 66
1
 10
0
 20
0
 30
0
 70
1
  0
VERTEX
  8
Layer1
 10
307.814
 20
591.257
  0
VERTEX
  8
Layer1
 10
303.95
 20
592.293
  0
VERTEX
  8
Layer1
 10
307.814
 20
593.328
  0
SEQEND
  0
POLYLINE
  8
Layer1
  6
CONTINUOUS
 62
7
 66
1
 10
0
 20
0
 30
0
 70
1
  0
VERTEX
  8
Layer1
 10
340.086
 20
593.328
  0
VERTEX
  8
Layer1
 10
343.95
 20
592.293
  0
VERTEX
  8
Layer1
 10
340.086
 20
591.257
  0
SEQEND
  0
LINE
  8
Layer1
  6
CONTINUOUS
 62
7
 10
311.95
 20
614.623
 11
311.95
 21
597.075
  0
POLYLINE
  8
Layer1
  6
CONTINUOUS
 62
7
 66
1
 10
0
 20
0
 30
0
  0
VERTEX
  8
Layer1
 10
315.95
 20
601.075
  0
VERTEX
  8
Layer1
 10
311.95
 20
601.075
  0
SEQEND
  0
POLYLINE
  8
Layer1
  6
CONTINUOUS
 62
7
 66
1
 10
0
 20
0
 30
0
 70
1
  0
VERTEX
  8
Layer1
 10
315.814
 20
600.039
  0
VERTEX
  8
Layer1
 10
311.95
 20
601.075
  0
VERTEX
  8
Layer1
 10
315.814
 20
602.11
  0
SEQEND
  0
TEXT
  8
Layer1
 62
7
 10
323.95
 20
601.075
 72
1
 11
323.95
 21
601.075
 40
8
 41
1
  1
 24 
  0
LINE
  8
Layer1
  6
CONTINUOUS
 62
7
 10
311.95
 20
610.893
 11
311.95
 21
597.075
  0
LINE
  8
Layer1
  6
CONTINUOUS
 62
7
 10
335.95
 20
612.223
 11
335.95
 21
597.075
  0
POLYLINE
  8
Layer1
  6
CONTINUOUS
 62
7
 66
1
 10
0
 20
0
 30
0
  0
VERTEX
  8
Layer1
 10
311.95
 20
601.075
  0
VERTEX
  8
Layer1
 10
335.95
 20
601.075
  0
SEQEND
  0
POLYLINE
  8
Layer1
  6
CONTINUOUS
 62
7
 66
1
 10
0
 20
0
 30
0
 70
1
  0
VERTEX
  8
Layer1
 10
315.814
 20
600.039
  0
VERTEX
  8
Layer1
 10
311.95
 20
601.075
  0
VERTEX
  8
Layer1
 10
315.814
 20
602.11
  0
SEQEND
  0
POLYLINE
  8
Layer1
  6
CONTINUOUS
 62
7
 66
1
 10
0
 20
0
 30
0
 70
1
  0
VERTEX
  8
Layer1
 10
332.086
 20
602.11
  0
VERTEX
  8
Layer1
 10
335.95
 20
601.075
  0
VERTEX
  8
Layer1
 10
332.086
 20
600.039
  0
SEQEND
  0
TEXT
  8
Layer1
 62
7
 10
288.95
 20
691.473
 72
1
 11
288.95
 21
691.473
 40
8
 41
1
  1
 50 
  0
LINE
  8
Layer1
  6
CONTINUOUS
 62
7
 10
313.95
 20
673.508
 11
313.95
 21
695.473
  0
LINE
  8
Layer1
  6
CONTINUOUS
 62
7
 10
263.95
 20
678.051
 11
263.95
 21
695.473
  0
POLYLINE
  8
Layer1
  6
CONTINUOUS
 62
7
 66
1
 10
0
 20
0
 30
0
  0
VERTEX
  8
Layer1
 10
313.95
 20
691.473
  0
VERTEX
  8
Layer1
 10
263.95
 20
691.473
  0
SEQEND
  0
POLYLINE
  8
Layer1
  6
CONTINUOUS
 62
7
 66
1
 10
0
 20
0
 30
0
 70
1
  0
VERTEX
  8
Layer1
 10
310.086
 20
692.508
  0
VERTEX
  8
Layer1
 10
313.95
 20
691.473
  0
VERTEX
  8
Layer1
 10
310.086
 20
690.437
  0
SEQEND
  0
POLYLINE
  8
Layer1
  6
CONTINUOUS
 62
7
 66
1
 10
0
 20
0
 30
0
 70
1
  0
VERTEX
  8
Layer1
 10
267.814
 20
690.437
  0
VERTEX
  8
Layer1
 10
263.95
 20
691.473
  0
VERTEX
  8
Layer1
 10
267.814
 20
692.508
  0
SEQEND
  0
TEXT
  8
Layer1
 62
7
 10
252.45
 20
691.473
 72
1
 11
252.45
 21
691.473
 40
8
 41
1
  1
 23 
  0
LINE
  8
Layer1
  6
CONTINUOUS
 62
7
 10
263.95
 20
682.344
 11
263.95
 21
695.473
  0
LINE
  8
Layer1
  6
CONTINUOUS
 62
7
 10
240.95
 20
672.685
 11
240.95
 21
695.473
  0
POLYLINE
  8
Layer1
  6
CONTINUOUS
 62
7
 66
1
 10
0
 20
0
 30
0
  0
VERTEX
  8
Layer1
 10
263.95
 20
691.473
  0
VERTEX
  8
Layer1
 10
240.95
 20
691.473
  0
SEQEND
  0
POLYLINE
  8
Layer1
  6
CONTINUOUS
 62
7
 66
1
 10
0
 20
0
 30
0
 70
1
  0
VERTEX
  8
Layer1
 10
260.086
 20
692.508
  0
VERTEX
  8
Layer1
 10
263.95
 20
691.473
  0
VERTEX
  8
Layer1
 10
260.086
 20
690.437
  0
SEQEND
  0
POLYLINE
  8
Layer1
  6
CONTINUOUS
 62
7
 66
1
 10
0
 20
0
 30
0
 70
1
  0
VERTEX
  8
Layer1
 10
244.814
 20
690.437
  0
VERTEX
  8
Layer1
 10
240.95
 20
691.473
  0
VERTEX
  8
Layer1
 10
244.814
 20
692.508
  0
SEQEND
  0
TEXT
  8
Layer1
 62
7
 10
331.372
 20
524.664
 72
1
 11
331.372
 21
524.664
 40
8
 41
1
 50
22.5
  1
 45°
  0
ARC
  8
Layer1
  6
CONTINUOUS
 62
7
 10
343.893
 20
494.437
 40
32.7184
 50
90
 51
135
  0
TEXT
  8
Layer1
 62
7
 10
337.922
 20
510.537
 72
1
 11
337.922
 21
510.537
 40
8
 41
1
  1
12
  0
LINE
  8
Layer1
  6
CONTINUOUS
 62
7
 10
343.893
 20
507.437
 11
343.893
 21
514.537
  0
LINE
  8
Layer1
  6
CONTINUOUS
 62
7
 10
331.95
 20
506.38
 11
331.95
 21
514.537
  0
POLYLINE
  8
Layer1
  6
CONTINUOUS
 62
7
 66
1
 10
0
 20
0
 30
0
  0
VERTEX
  8
Layer1
 10
343.893
 20
510.537
  0
VERTEX
  8
Layer1
 10
331.95
 20
510.537
  0
SEQEND
  0
POLYLINE
  8
Layer1
  6
CONTINUOUS
 62
7
 66
1
 10
0
 20
0
 30
0
 70
1
  0
VERTEX
  8
Layer1
 10
340.03
 20
511.573
  0
VERTEX
  8
Layer1
 10
343.893
 20
510.537
  0
VERTEX
  8
Layer1
 10
340.03
 20
509.502
  0
SEQEND
  0
POLYLINE
  8
Layer1
  6
CONTINUOUS
 62
7
 66
1
 10
0
 20
0
 30
0
 70
1
  0
VERTEX
  8
Layer1
 10
335.814
 20
509.502
  0
VERTEX
  8
Layer1
 10
331.95
 20
510.537
  0
VERTEX
  8
Layer1
 10
335.814
 20
511.573
  0
SEQEND
  0
TEXT
  8
Layer1
 62
7
 10
191.108
 20
688.567
 40
6
 41
1
  1
ベース取付穴
  0
POLYLINE
  8
Layer1
  6
CONTINUOUS
 62
7
 66
1
 10
0
 20
0
 30
0
  0
VERTEX
  8
Layer1
 10
277.279
 20
618.033
  0
VERTEX
  8
Layer1
 10
261.366
 20
597.238
  0
VERTEX
  8
Layer1
 10
261.366
 20
597.238
  0
SEQEND
  0
POLYLINE
  8
Layer1
  6
CONTINUOUS
 62
7
 66
1
 10
0
 20
0
 30
0
 70
1
  0
VERTEX
  8
Layer1
 10
274.109
 20
615.594
  0
VERTEX
  8
Layer1
 10
277.279
 20
618.033
  0
VERTEX
  8
Layer1
 10
275.753
 20
614.336
  0
SEQEND
  0
LINE
  8
Layer1
  6
CONTINUOUS
 62
7
 10
261.366
 20
597.238
 11
246.366
 21
597.238
  0
TEXT
  8
Layer1
 62
7
 10
246.366
 20
599.238
 40
6
 41
1
  1
2-φ7
  0
TEXT
  8
Layer1
 62
7
 10
244.309
 20
591.418
 40
4
 41
1
  1
ベースノック下穴
  0
POLYLINE
  8
Layer1
  6
CONTINUOUS
 62
7
 66
1
 10
0
 20
0
 30
0
  0
VERTEX
  8
Layer1
 10
313.386
 20
549.667
  0
VERTEX
  8
Layer1
 10
294.294
 20
578.072
  0
VERTEX
  8
Layer1
 10
294.294
 20
578.072
  0
SEQEND
  0
CIRCLE
  8
Layer1
  6
CONTINUOUS
 62
7
 10
313.386
 20
549.667
 40
1
  0
CIRCLE
  8
Layer1
  6
CONTINUOUS
 62
7
 10
292.423
 20
580.855
 40
3.3541
  0
TEXT
  8
Layer1
 62
7
 10
292.423
 20
580.855
 72
1
 73
2
 11
292.423
 21
580.855
 40
6
 41
1
  1
3
  0
POLYLINE
  8
Layer1
  6
CONTINUOUS
 62
7
 66
1
 10
0
 20
0
 30
0
  0
VERTEX
  8
Layer1
 10
349.898
 20
513.851
  0
VERTEX
  8
Layer1
 10
374.661
 20
577.802
  0
VERTEX
  8
Layer1
 10
374.661
 20
577.802
  0
SEQEND
  0
CIRCLE
  8
Layer1
  6
CONTINUOUS
 62
7
 10
349.898
 20
513.851
 40
1
  0
CIRCLE
  8
Layer1
  6
CONTINUOUS
 62
7
 10
375.873
 20
580.93
 40
3.3541
  0
TEXT
  8
Layer1
 62
7
 10
375.873
 20
580.93
 72
1
 73
2
 11
375.873
 21
580.93
 40
6
 41
1
  1
5
  0
POLYLINE
  8
Layer1
  6
CONTINUOUS
 62
7
 66
1
 10
0
 20
0
 30
0
  0
VERTEX
  8
Layer1
 10
361.636
 20
508.038
  0
VERTEX
  8
Layer1
 10
391.047
 20
578.003
  0
VERTEX
  8
Layer1
 10
391.047
 20
578.003
  0
SEQEND
  0
CIRCLE
  8
Layer1
  6
CONTINUOUS
 62
7
 10
361.636
 20
508.038
 40
1
  0
CIRCLE
  8
Layer1
  6
CONTINUOUS
 62
7
 10
392.347
 20
581.095
 40
3.3541
  0
TEXT
  8
Layer1
 62
7
 10
392.347
 20
581.095
 72
1
 73
2
 11
392.347
 21
581.095
 40
6
 41
1
  1
9
  0
POLYLINE
  8
Layer1
  6
CONTINUOUS
 62
7
 66
1
 10
0
 20
0
 30
0
  0
VERTEX
  8
Layer1
 10
338.239
 20
478.528
  0
VERTEX
  8
Layer1
 10
329.372
 20
435.77
  0
VERTEX
  8
Layer1
 10
329.372
 20
435.77
  0
SEQEND
  0
CIRCLE
  8
Layer1
  6
CONTINUOUS
 62
7
 10
338.239
 20
478.528
 40
1
  0
CIRCLE
  8
Layer1
  6
CONTINUOUS
 62
7
 10
328.51
 20
431.616
 40
4.24264
  0
TEXT
  8
Layer1
 62
7
 10
328.51
 20
431.616
 72
1
 73
2
 11
328.51
 21
431.616
 40
6
 41
1
  1
10
  0
POLYLINE
  8
Layer1
  6
CONTINUOUS
 62
7
 66
1
 10
0
 20
0
 30
0
  0
VERTEX
  8
Layer1
 10
331.036
 20
480.522
  0
VERTEX
  8
Layer1
 10
316.835
 20
434.224
  0
VERTEX
  8
Layer1
 10
316.835
 20
434.224
  0
SEQEND
  0
CIRCLE
  8
Layer1
  6
CONTINUOUS
 62
7
 10
331.036
 20
480.522
 40
1
  0
CIRCLE
  8
Layer1
  6
CONTINUOUS
 62
7
 10
315.851
 20
431.018
 40
3.3541
  0
TEXT
  8
Layer1
 62
7
 10
315.851
 20
431.018
 72
1
 73
2
 11
315.851
 21
431.018
 40
6
 41
1
  1
6
  0
POLYLINE
  8
Layer1
  6
CONTINUOUS
 62
7
 66
1
 10
0
 20
0
 30
0
  0
VERTEX
  8
Layer1
 10
314.791
 20
469.849
  0
VERTEX
  8
Layer1
 10
302.211
 20
435.033
  0
VERTEX
  8
Layer1
 10
302.211
 20
435.033
  0
SEQEND
  0
CIRCLE
  8
Layer1
  6
CONTINUOUS
 62
7
 10
314.791
 20
469.849
 40
1
  0
CIRCLE
  8
Layer1
  6
CONTINUOUS
 62
7
 10
301.071
 20
431.878
 40
3.3541
  0
TEXT
  8
Layer1
 62
7
 10
301.071
 20
431.878
 72
1
 73
2
 11
301.071
 21
431.878
 40
6
 41
1
  1
7
  0
POLYLINE
  8
Layer1
  6
CONTINUOUS
 62
7
 66
1
 10
0
 20
0
 30
0
  0
VERTEX
  8
Layer1
 10
252.754
 20
465.324
  0
VERTEX
  8
Layer1
 10
236.595
 20
435.47
  0
VERTEX
  8
Layer1
 10
236.595
 20
435.47
  0
SEQEND
  0
CIRCLE
  8
Layer1
  6
CONTINUOUS
 62
7
 10
252.754
 20
465.324
 40
1
  0
CIRCLE
  8
Layer1
  6
CONTINUOUS
 62
7
 10
234.998
 20
432.52
 40
3.3541
  0
TEXT
  8
Layer1
 62
7
 10
234.998
 20
432.52
 72
1
 73
2
 11
234.998
 21
432.52
 40
6
 41
1
  1
1
  0
POLYLINE
  8
Layer1
  6
CONTINUOUS
 62
7
 66
1
 10
0
 20
0
 30
0
  0
VERTEX
  8
Layer1
 10
287.162
 20
487.74
  0
VERTEX
  8
Layer1
 10
260.487
 20
435.638
  0
VERTEX
  8
Layer1
 10
260.487
 20
435.638
  0
SEQEND
  0
CIRCLE
  8
Layer1
  6
CONTINUOUS
 62
7
 10
287.162
 20
487.74
 40
1
  0
CIRCLE
  8
Layer1
  6
CONTINUOUS
 62
7
 10
258.959
 20
432.653
 40
3.3541
  0
TEXT
  8
Layer1
 62
7
 10
258.959
 20
432.653
 72
1
 73
2
 11
258.959
 21
432.653
 40
6
 41
1
  1
2
  0
LINE
  8
Layer1
  6
CONTINUOUS
 62
7
 10
337.393
 20
538.937
 11
337.393
 21
535.937
  0
LINE
  8
Layer1
  6
CONTINUOUS
 62
7
 10
310.393
 20
538.937
 11
310.393
 21
535.937
  0
LINE
  8
Layer1
  6
CONTINUOUS
 62
7
 10
355.95
 20
660.008
 11
363.45
 21
660.008
  0
LINE
  8
Layer1
  6
CONTINUOUS
 62
7
 10
355.95
 20
673.008
 11
363.45
 21
673.008
  0
LINE
  8
Layer1
  6
CONTINUOUS
 62
7
 10
363.45
 20
660.008
 11
363.45
 21
673.008
  0
LINE
  8
Layer1
  6
CONTINUOUS
 62
7
 10
363.95
 20
660.508
 11
363.95
 21
672.508
  0
LINE
  8
Layer1
  6
CONTINUOUS
 62
7
 10
363.45
 20
660.008
 11
363.95
 21
660.508
  0
LINE
  8
Layer1
  6
CONTINUOUS
 62
7
 10
363.45
 20
673.008
 11
363.95
 21
672.508
  0
LINE
  8
Layer1
  6
CONTINUOUS
 62
7
 10
355.95
 20
673.008
 11
355.95
 21
660.008
  0
LINE
  8
Layer1
  6
CONTINUOUS
 62
7
 10
356.527
 20
672.008
 11
362.873
 21
672.008
  0
LINE
  8
Layer1
  6
CONTINUOUS
 62
7
 10
357.104
 20
671.008
 11
362.296
 21
671.008
  0
LINE
  8
Layer1
  6
CONTINUOUS
 62
7
 10
357.681
 20
670.008
 11
361.719
 21
670.008
  0
LINE
  8
Layer1
  6
CONTINUOUS
 62
7
 10
358.258
 20
669.008
 11
361.142
 21
669.008
  0
LINE
  8
Layer1
  6
CONTINUOUS
 62
7
 10
355.95
 20
614.508
 11
355.95
 21
672.508
  0
LINE
  8
Layer1
  6
CONTINUOUS
 62
7
 10
354.95
 20
673.508
 11
344.893
 21
673.508
  0
LINE
  8
Layer1
  6
CONTINUOUS
 62
7
 10
344.893
 20
613.508
 11
354.95
 21
613.508
  0
LINE
  8
Layer1
  6
CONTINUOUS
 62
7
 10
354.95
 20
673.508
 11
355.95
 21
672.508
  0
LINE
  8
Layer1
  6
CONTINUOUS
 62
7
 10
355.95
 20
614.508
 11
354.95
 21
613.508
  0
LINE
  8
Layer1
  6
CENTER1
 62
7
 10
335.51
 20
666.508
 11
358.819
 21
666.508
  0
LINE
  8
Layer1
  6
CENTER1
 62
7
 10
335.828
 20
620.508
 11
360.175
 21
620.508
  0
LINE
  8
Layer1
  6
CONTINUOUS
 62
7
 10
355.95
 20
614.008
 11
363.45
 21
614.008
  0
LINE
  8
Layer1
  6
CONTINUOUS
 62
7
 10
355.95
 20
627.008
 11
363.45
 21
627.008
  0
LINE
  8
Layer1
  6
CONTINUOUS
 62
7
 10
363.45
 20
614.008
 11
363.45
 21
627.008
  0
LINE
  8
Layer1
  6
CONTINUOUS
 62
7
 10
363.95
 20
614.508
 11
363.95
 21
626.508
  0
LINE
  8
Layer1
  6
CONTINUOUS
 62
7
 10
363.45
 20
614.008
 11
363.95
 21
614.508
  0
LINE
  8
Layer1
  6
CONTINUOUS
 62
7
 10
363.45
 20
627.008
 11
363.95
 21
626.508
  0
LINE
  8
Layer1
  6
CONTINUOUS
 62
7
 10
355.95
 20
627.008
 11
355.95
 21
614.008
  0
LINE
  8
Layer1
  6
CONTINUOUS
 62
7
 10
356.527
 20
626.008
 11
362.873
 21
626.008
  0
LINE
  8
Layer1
  6
CONTINUOUS
 62
7
 10
357.104
 20
625.008
 11
362.296
 21
625.008
  0
LINE
  8
Layer1
  6
CONTINUOUS
 62
7
 10
357.681
 20
624.008
 11
361.719
 21
624.008
  0
LINE
  8
Layer1
  6
CONTINUOUS
 62
7
 10
358.258
 20
623.008
 11
361.142
 21
623.008
  0
TEXT
  8
Layer1
 62
7
 10
380.477
 20
643.508
 72
1
 11
380.477
 21
643.508
 40
8
 41
1
 50
90
  1
 46 
  0
LINE
  8
Layer1
  6
CONTINUOUS
 62
7
 10
361.747
 20
666.508
 11
384.477
 21
666.508
  0
LINE
  8
Layer1
  6
CONTINUOUS
 62
7
 10
363.102
 20
620.508
 11
384.477
 21
620.508
  0
POLYLINE
  8
Layer1
  6
CONTINUOUS
 62
7
 66
1
 10
0
 20
0
 30
0
  0
VERTEX
  8
Layer1
 10
380.477
 20
666.508
  0
VERTEX
  8
Layer1
 10
380.477
 20
620.508
  0
SEQEND
  0
POLYLINE
  8
Layer1
  6
CONTINUOUS
 62
7
 66
1
 10
0
 20
0
 30
0
 70
1
  0
VERTEX
  8
Layer1
 10
379.442
 20
662.644
  0
VERTEX
  8
Layer1
 10
380.477
 20
666.508
  0
VERTEX
  8
Layer1
 10
381.513
 20
662.644
  0
SEQEND
  0
POLYLINE
  8
Layer1
  6
CONTINUOUS
 62
7
 66
1
 10
0
 20
0
 30
0
 70
1
  0
VERTEX
  8
Layer1
 10
381.513
 20
624.372
  0
VERTEX
  8
Layer1
 10
380.477
 20
620.508
  0
VERTEX
  8
Layer1
 10
379.442
 20
624.372
  0
SEQEND
  0
TEXT
  8
Layer1
 62
7
 10
391.768
 20
643.508
 72
1
 11
391.768
 21
643.508
 40
8
 41
1
 50
90
  1
 58 
  0
LINE
  8
Layer1
  6
CONTINUOUS
 62
7
 10
340.75
 20
672.508
 11
395.768
 21
672.508
  0
LINE
  8
Layer1
  6
CONTINUOUS
 62
7
 10
343.033
 20
614.508
 11
395.768
 21
614.508
  0
POLYLINE
  8
Layer1
  6
CONTINUOUS
 62
7
 66
1
 10
0
 20
0
 30
0
  0
VERTEX
  8
Layer1
 10
391.768
 20
672.508
  0
VERTEX
  8
Layer1
 10
391.768
 20
614.508
  0
SEQEND
  0
POLYLINE
  8
Layer1
  6
CONTINUOUS
 62
7
 66
1
 10
0
 20
0
 30
0
 70
1
  0
VERTEX
  8
Layer1
 10
390.733
 20
668.644
  0
VERTEX
  8
Layer1
 10
391.768
 20
672.508
  0
VERTEX
  8
Layer1
 10
392.804
 20
668.644
  0
SEQEND
  0
POLYLINE
  8
Layer1
  6
CONTINUOUS
 62
7
 66
1
 10
0
 20
0
 30
0
 70
1
  0
VERTEX
  8
Layer1
 10
392.804
 20
618.372
  0
VERTEX
  8
Layer1
 10
391.768
 20
614.508
  0
VERTEX
  8
Layer1
 10
390.733
 20
618.372
  0
SEQEND
  0
TEXT
  8
Layer1
 62
7
 10
369.186
 20
643.515
 72
1
 11
369.186
 21
643.515
 40
8
 41
1
 50
90
  1
 42 
  0
LINE
  8
Layer1
  6
CONTINUOUS
 62
7
 10
346.124
 20
664.508
 11
373.186
 21
664.508
  0
LINE
  8
Layer1
  6
CONTINUOUS
 62
7
 10
344.033
 20
622.522
 11
373.186
 21
622.522
  0
POLYLINE
  8
Layer1
  6
CONTINUOUS
 62
7
 66
1
 10
0
 20
0
 30
0
  0
VERTEX
  8
Layer1
 10
369.186
 20
664.508
  0
VERTEX
  8
Layer1
 10
369.186
 20
622.522
  0
SEQEND
  0
POLYLINE
  8
Layer1
  6
CONTINUOUS
 62
7
 66
1
 10
0
 20
0
 30
0
 70
1
  0
VERTEX
  8
Layer1
 10
368.151
 20
660.644
  0
VERTEX
  8
Layer1
 10
369.186
 20
664.508
  0
VERTEX
  8
Layer1
 10
370.222
 20
660.644
  0
SEQEND
  0
POLYLINE
  8
Layer1
  6
CONTINUOUS
 62
7
 66
1
 10
0
 20
0
 30
0
 70
1
  0
VERTEX
  8
Layer1
 10
370.222
 20
626.386
  0
VERTEX
  8
Layer1
 10
369.186
 20
622.522
  0
VERTEX
  8
Layer1
 10
368.151
 20
626.386
  0
SEQEND
  0
TEXT
  8
Layer1
 62
7
 10
349.991
 20
704.994
 72
1
 11
349.991
 21
704.994
 40
8
 41
1
  1
12
  0
LINE
  8
Layer1
  6
CONTINUOUS
 62
7
 10
355.95
 20
672.508
 11
355.95
 21
708.994
  0
POLYLINE
  8
Layer1
  6
CONTINUOUS
 62
7
 66
1
 10
0
 20
0
 30
0
  0
VERTEX
  8
Layer1
 10
355.95
 20
704.994
  0
VERTEX
  8
Layer1
 10
344.033
 20
704.994
  0
SEQEND
  0
POLYLINE
  8
Layer1
  6
CONTINUOUS
 62
7
 66
1
 10
0
 20
0
 30
0
 70
1
  0
VERTEX
  8
Layer1
 10
352.086
 20
706.029
  0
VERTEX
  8
Layer1
 10
355.95
 20
704.994
  0
VERTEX
  8
Layer1
 10
352.086
 20
703.958
  0
SEQEND
  0
POLYLINE
  8
Layer1
  6
CONTINUOUS
 62
7
 66
1
 10
0
 20
0
 30
0
 70
1
  0
VERTEX
  8
Layer1
 10
347.897
 20
703.958
  0
VERTEX
  8
Layer1
 10
344.033
 20
704.994
  0
VERTEX
  8
Layer1
 10
347.897
 20
706.029
  0
SEQEND
  0
POLYLINE
  8
Layer1
  6
CONTINUOUS
 62
7
 66
1
 10
0
 20
0
 30
0
  0
VERTEX
  8
Layer1
 10
338.692
 20
666.508
  0
VERTEX
  8
Layer1
 10
373.147
 20
699.489
  0
VERTEX
  8
Layer1
 10
373.147
 20
699.489
  0
SEQEND
  0
POLYLINE
  8
Layer1
  6
CONTINUOUS
 62
7
 66
1
 10
0
 20
0
 30
0
 70
1
  0
VERTEX
  8
Layer1
 10
342.199
 20
668.432
  0
VERTEX
  8
Layer1
 10
338.692
 20
666.508
  0
VERTEX
  8
Layer1
 10
340.767
 20
669.928
  0
SEQEND
  0
LINE
  8
Layer1
  6
CONTINUOUS
 62
7
 10
373.147
 20
699.489
 11
388.147
 21
699.489
  0
TEXT
  8
Layer1
 62
7
 10
388.147
 20
701.489
 72
2
 11
388.147
 21
701.489
 40
6
 41
1
  1
4-φ7
  0
TEXT
  8
Layer1
 62
7
 10
372.81
 20
689.739
 40
6
 41
1
  1
アッパー取付穴
  0
LINE
  8
Layer1
  6
CONTINUOUS
 62
7
 10
238.893
 20
629.508
 11
238.893
 21
657.508
  0
LINE
  8
Layer1
  6
CONTINUOUS
 62
7
 10
239.893
 20
658.508
 11
238.893
 21
657.508
  0
LINE
  8
Layer1
  6
CONTINUOUS
 62
7
 10
238.893
 20
629.508
 11
239.893
 21
628.508
  0
LINE
  8
Layer1
  6
DASHED1
 62
7
 10
270.893
 20
658.508
 11
239.893
 21
658.508
  0
LINE
  8
Layer1
  6
CENTER1
 62
7
 10
240.861
 20
666.508
 11
302.835
 21
666.508
  0
LINE
  8
Layer1
  6
CENTER1
 62
7
 10
302.804
 20
620.508
 11
240.804
 21
620.508
  0
LINE
  8
Layer1
  6
CONTINUOUS
 62
7
 10
241.804
 20
613.682
 11
240.804
 21
614.682
  0
LINE
  8
Layer1
  6
CONTINUOUS
 62
7
 10
240.804
 20
672.334
 11
241.804
 21
673.334
  0
LINE
  8
Layer1
  6
CONTINUOUS
 62
7
 10
240.95
 20
614.508
 11
240.95
 21
672.508
  0
LINE
  8
Layer1
  6
CONTINUOUS
 62
7
 10
241.893
 20
613.508
 11
342.893
 21
613.508
  0
LINE
  8
Layer1
  6
CONTINUOUS
 62
7
 10
342.893
 20
673.508
 11
241.893
 21
673.508
  0
LINE
  8
Layer1
  6
CENTER1
 62
7
 10
213.141
 20
643.508
 11
360.43
 21
643.508
  0
LINE
  8
Layer1
  6
CONTINUOUS
 62
7
 10
240.893
 20
672.508
 11
241.893
 21
673.508
  0
LINE
  8
Layer1
  6
CONTINUOUS
 62
7
 10
240.893
 20
614.508
 11
241.893
 21
613.508
  0
TEXT
  8
Layer1
 62
7
 10
209.801
 20
643.508
 72
1
 11
209.801
 21
643.508
 40
8
 41
1
 50
90
  1
 60 
  0
LINE
  8
Layer1
  6
CONTINUOUS
 62
7
 10
244.719
 20
673.508
 11
205.801
 21
673.508
  0
LINE
  8
Layer1
  6
CONTINUOUS
 62
7
 10
241.893
 20
613.508
 11
205.801
 21
613.508
  0
POLYLINE
  8
Layer1
  6
CONTINUOUS
 62
7
 66
1
 10
0
 20
0
 30
0
  0
VERTEX
  8
Layer1
 10
209.801
 20
673.508
  0
VERTEX
  8
Layer1
 10
209.801
 20
613.508
  0
SEQEND
  0
POLYLINE
  8
Layer1
  6
CONTINUOUS
 62
7
 66
1
 10
0
 20
0
 30
0
 70
1
  0
VERTEX
  8
Layer1
 10
208.765
 20
669.644
  0
VERTEX
  8
Layer1
 10
209.801
 20
673.508
  0
VERTEX
  8
Layer1
 10
210.836
 20
669.644
  0
SEQEND
  0
POLYLINE
  8
Layer1
  6
CONTINUOUS
 62
7
 66
1
 10
0
 20
0
 30
0
 70
1
  0
VERTEX
  8
Layer1
 10
210.836
 20
617.372
  0
VERTEX
  8
Layer1
 10
209.801
 20
613.508
  0
VERTEX
  8
Layer1
 10
208.765
 20
617.372
  0
SEQEND
  0
TEXT
  8
Layer1
 62
7
 10
292.507
 20
707.161
 72
1
 11
292.507
 21
707.161
 40
8
 41
1
  1
103
  0
LINE
  8
Layer1
  6
CONTINUOUS
 62
7
 10
240.95
 20
669.814
 11
240.95
 21
711.161
  0
LINE
  8
Layer1
  6
CONTINUOUS
 62
7
 10
344.065
 20
673.676
 11
344.065
 21
711.161
  0
POLYLINE
  8
Layer1
  6
CONTINUOUS
 62
7
 66
1
 10
0
 20
0
 30
0
  0
VERTEX
  8
Layer1
 10
240.95
 20
707.161
  0
VERTEX
  8
Layer1
 10
344.065
 20
707.161
  0
SEQEND
  0
POLYLINE
  8
Layer1
  6
CONTINUOUS
 62
7
 66
1
 10
0
 20
0
 30
0
 70
1
  0
VERTEX
  8
Layer1
 10
244.814
 20
706.126
  0
VERTEX
  8
Layer1
 10
240.95
 20
707.161
  0
VERTEX
  8
Layer1
 10
244.814
 20
708.197
  0
SEQEND
  0
POLYLINE
  8
Layer1
  6
CONTINUOUS
 62
7
 66
1
 10
0
 20
0
 30
0
 70
1
  0
VERTEX
  8
Layer1
 10
340.201
 20
708.197
  0
VERTEX
  8
Layer1
 10
344.065
 20
707.161
  0
VERTEX
  8
Layer1
 10
340.201
 20
706.126
  0
SEQEND
  0
POLYLINE
  8
Layer1
  6
CONTINUOUS
 62
7
 66
1
 10
0
 20
0
 30
0
  0
VERTEX
  8
Layer1
 10
259.912
 20
670.53
  0
VERTEX
  8
Layer1
 10
229.447
 20
698.243
  0
VERTEX
  8
Layer1
 10
229.447
 20
698.243
  0
SEQEND
  0
POLYLINE
  8
Layer1
  6
CONTINUOUS
 62
7
 66
1
 10
0
 20
0
 30
0
 70
1
  0
VERTEX
  8
Layer1
 10
257.75
 20
673.895
  0
VERTEX
  8
Layer1
 10
259.912
 20
670.53
  0
VERTEX
  8
Layer1
 10
256.357
 20
672.364
  0
SEQEND
  0
LINE
  8
Layer1
  6
CONTINUOUS
 62
7
 10
229.447
 20
698.243
 11
214.447
 21
698.243
  0
TEXT
  8
Layer1
 62
7
 10
214.447
 20
700.243
 40
6
 41
1
  1
4-φ7
  0
TEXT
  8
Layer1
 62
7
 10
260.45
 20
579.852
 72
1
 11
260.45
 21
579.852
 40
8
 41
1
  1
 39 
  0
LINE
  8
Layer1
  6
CONTINUOUS
 62
7
 10
240.95
 20
617.643
 11
240.95
 21
575.852
  0
LINE
  8
Layer1
  6
CONTINUOUS
 62
7
 10
279.95
 20
611.658
 11
279.95
 21
575.852
  0
POLYLINE
  8
Layer1
  6
CONTINUOUS
 62
7
 66
1
 10
0
 20
0
 30
0
  0
VERTEX
  8
Layer1
 10
240.95
 20
579.852
  0
VERTEX
  8
Layer1
 10
279.95
 20
579.852
  0
SEQEND
  0
POLYLINE
  8
Layer1
  6
CONTINUOUS
 62
7
 66
1
 10
0
 20
0
 30
0
 70
1
  0
VERTEX
  8
Layer1
 10
244.814
 20
578.817
  0
VERTEX
  8
Layer1
 10
240.95
 20
579.852
  0
VERTEX
  8
Layer1
 10
244.814
 20
580.888
  0
SEQEND
  0
POLYLINE
  8
Layer1
  6
CONTINUOUS
 62
7
 66
1
 10
0
 20
0
 30
0
 70
1
  0
VERTEX
  8
Layer1
 10
276.086
 20
580.888
  0
VERTEX
  8
Layer1
 10
279.95
 20
579.852
  0
VERTEX
  8
Layer1
 10
276.086
 20
578.817
  0
SEQEND
  0
LINE
  8
Layer1
  6
CENTER1
 62
7
 10
215.205
 20
635.008
 11
242.069
 21
635.008
  0
LINE
  8
Layer1
  6
CONTINUOUS
 62
7
 10
218.995
 20
629.471
 11
218.995
 21
657.546
  0
LINE
  8
Layer1
  6
CONTINUOUS
 62
7
 10
237.995
 20
658.546
 11
219.995
 21
658.546
  0
LINE
  8
Layer1
  6
CONTINUOUS
 62
7
 10
219.995
 20
628.471
 11
237.995
 21
628.471
  0
LINE
  8
Layer1
  6
CONTINUOUS
 62
7
 10
218.995
 20
657.546
 11
219.995
 21
658.546
  0
LINE
  8
Layer1
  6
CONTINUOUS
 62
7
 10
238.995
 20
657.546
 11
237.995
 21
658.546
  0
LINE
  8
Layer1
  6
CONTINUOUS
 62
7
 10
238.995
 20
629.471
 11
237.995
 21
628.471
  0
LINE
  8
Layer1
  6
CONTINUOUS
 62
7
 10
219.995
 20
628.471
 11
218.995
 21
629.471
  0
LINE
  8
Layer1
  6
CENTER1
 62
7
 10
214.958
 20
652.008
 11
241.835
 21
652.008
  0
LINE
  8
Layer1
  6
CENTER1
 62
7
 10
263.95
 20
660.033
 11
263.95
 21
679.473
  0
LINE
  8
Layer1
  6
CENTER1
 62
7
 10
279.95
 20
658.508
 11
279.95
 21
675.693
  0
LINE
  8
Layer1
  6
CENTER1
 62
7
 10
294.95
 20
675.693
 11
294.95
 21
658.508
  0
CIRCLE
  8
Layer1
  6
CONTINUOUS
 62
7
 10
279.95
 20
620.508
 40
5.5
  0
POLYLINE
  8
Layer1
  6
CONTINUOUS
 62
7
 66
1
 10
0
 20
0
 30
0
 70
1
  0
VERTEX
  8
Layer1
 10
253.95
 20
620.508
  0
VERTEX
  8
Layer1
 10
253.907
 20
621.161
  0
VERTEX
  8
Layer1
 10
253.78
 20
621.802
  0
VERTEX
  8
Layer1
 10
253.569
 20
622.422
  0
VERTEX
  8
Layer1
 10
253.28
 20
623.008
  0
VERTEX
  8
Layer1
 10
252.917
 20
623.552
  0
VERTEX
  8
Layer1
 10
252.486
 20
624.044
  0
VERTEX
  8
Layer1
 10
251.994
 20
624.475
  0
VERTEX
  8
Layer1
 10
251.45
 20
624.838
  0
VERTEX
  8
Layer1
 10
250.863
 20
625.128
  0
VERTEX
  8
Layer1
 10
250.244
 20
625.338
  0
VERTEX
  8
Layer1
 10
249.603
 20
625.465
  0
VERTEX
  8
Layer1
 10
248.95
 20
625.508
  0
VERTEX
  8
Layer1
 10
248.297
 20
625.465
  0
VERTEX
  8
Layer1
 10
247.656
 20
625.338
  0
VERTEX
  8
Layer1
 10
247.037
 20
625.128
  0
VERTEX
  8
Layer1
 10
246.45
 20
624.838
  0
VERTEX
  8
Layer1
 10
245.906
 20
624.475
  0
VERTEX
  8
Layer1
 10
245.414
 20
624.044
  0
VERTEX
  8
Layer1
 10
244.983
 20
623.552
  0
VERTEX
  8
Layer1
 10
244.62
 20
623.008
  0
VERTEX
  8
Layer1
 10
244.331
 20
622.422
  0
VERTEX
  8
Layer1
 10
244.12
 20
621.802
  0
VERTEX
  8
Layer1
 10
243.993
 20
621.161
  0
VERTEX
  8
Layer1
 10
243.95
 20
620.508
  0
VERTEX
  8
Layer1
 10
243.993
 20
619.856
  0
VERTEX
  8
Layer1
 10
244.12
 20
619.214
  0
VERTEX
  8
Layer1
 10
244.331
 20
618.595
  0
VERTEX
  8
Layer1
 10
244.62
 20
618.008
  0
VERTEX
  8
Layer1
 10
244.983
 20
617.464
  0
VERTEX
  8
Layer1
 10
245.414
 20
616.973
  0
VERTEX
  8
Layer1
 10
245.906
 20
616.541
  0
VERTEX
  8
Layer1
 10
246.45
 20
616.178
  0
VERTEX
  8
Layer1
 10
247.037
 20
615.889
  0
VERTEX
  8
Layer1
 10
247.656
 20
615.679
  0
VERTEX
  8
Layer1
 10
248.297
 20
615.551
  0
VERTEX
  8
Layer1
 10
248.95
 20
615.508
  0
VERTEX
  8
Layer1
 10
249.603
 20
615.551
  0
VERTEX
  8
Layer1
 10
250.244
 20
615.679
  0
VERTEX
  8
Layer1
 10
250.863
 20
615.889
  0
VERTEX
  8
Layer1
 10
251.45
 20
616.178
  0
VERTEX
  8
Layer1
 10
251.994
 20
616.541
  0
VERTEX
  8
Layer1
 10
252.486
 20
616.973
  0
VERTEX
  8
Layer1
 10
252.917
 20
617.464
  0
VERTEX
  8
Layer1
 10
253.28
 20
618.008
  0
VERTEX
  8
Layer1
 10
253.569
 20
618.595
  0
VERTEX
  8
Layer1
 10
253.78
 20
619.214
  0
VERTEX
  8
Layer1
 10
253.907
 20
619.856
  0
SEQEND
  0
POLYLINE
  8
Layer1
  6
CONTINUOUS
 62
7
 66
1
 10
0
 20
0
 30
0
 70
1
  0
VERTEX
  8
Layer1
 10
248.95
 20
624.083
  0
VERTEX
  8
Layer1
 10
245.854
 20
622.296
  0
VERTEX
  8
Layer1
 10
245.854
 20
618.721
  0
VERTEX
  8
Layer1
 10
248.95
 20
616.933
  0
VERTEX
  8
Layer1
 10
252.046
 20
618.721
  0
VERTEX
  8
Layer1
 10
252.046
 20
622.296
  0
SEQEND
  0
POLYLINE
  8
Layer1
  6
CONTINUOUS
 62
7
 66
1
 10
0
 20
0
 30
0
 70
1
  0
VERTEX
  8
Layer1
 10
252.525
 20
620.508
  0
VERTEX
  8
Layer1
 10
252.494
 20
620.975
  0
VERTEX
  8
Layer1
 10
252.403
 20
621.433
  0
VERTEX
  8
Layer1
 10
252.253
 20
621.876
  0
VERTEX
  8
Layer1
 10
252.046
 20
622.296
  0
VERTEX
  8
Layer1
 10
251.786
 20
622.684
  0
VERTEX
  8
Layer1
 10
251.478
 20
623.036
  0
VERTEX
  8
Layer1
 10
251.126
 20
623.344
  0
VERTEX
  8
Layer1
 10
250.737
 20
623.604
  0
VERTEX
  8
Layer1
 10
250.318
 20
623.811
  0
VERTEX
  8
Layer1
 10
249.875
 20
623.961
  0
VERTEX
  8
Layer1
 10
249.417
 20
624.053
  0
VERTEX
  8
Layer1
 10
248.95
 20
624.083
  0
VERTEX
  8
Layer1
 10
248.483
 20
624.053
  0
VERTEX
  8
Layer1
 10
248.025
 20
623.961
  0
VERTEX
  8
Layer1
 10
247.582
 20
623.811
  0
VERTEX
  8
Layer1
 10
247.162
 20
623.604
  0
VERTEX
  8
Layer1
 10
246.774
 20
623.344
  0
VERTEX
  8
Layer1
 10
246.422
 20
623.036
  0
VERTEX
  8
Layer1
 10
246.114
 20
622.684
  0
VERTEX
  8
Layer1
 10
245.854
 20
622.296
  0
VERTEX
  8
Layer1
 10
245.647
 20
621.876
  0
VERTEX
  8
Layer1
 10
245.497
 20
621.433
  0
VERTEX
  8
Layer1
 10
245.406
 20
620.975
  0
VERTEX
  8
Layer1
 10
245.375
 20
620.508
  0
VERTEX
  8
Layer1
 10
245.406
 20
620.042
  0
VERTEX
  8
Layer1
 10
245.497
 20
619.583
  0
VERTEX
  8
Layer1
 10
245.647
 20
619.14
  0
VERTEX
  8
Layer1
 10
245.854
 20
618.721
  0
VERTEX
  8
Layer1
 10
246.114
 20
618.332
  0
VERTEX
  8
Layer1
 10
246.422
 20
617.98
  0
VERTEX
  8
Layer1
 10
246.774
 20
617.672
  0
VERTEX
  8
Layer1
 10
247.162
 20
617.412
  0
VERTEX
  8
Layer1
 10
247.582
 20
617.205
  0
VERTEX
  8
Layer1
 10
248.025
 20
617.055
  0
VERTEX
  8
Layer1
 10
248.483
 20
616.964
  0
VERTEX
  8
Layer1
 10
248.95
 20
616.933
  0
VERTEX
  8
Layer1
 10
249.417
 20
616.964
  0
VERTEX
  8
Layer1
 10
249.875
 20
617.055
  0
VERTEX
  8
Layer1
 10
250.318
 20
617.205
  0
VERTEX
  8
Layer1
 10
250.737
 20
617.412
  0
VERTEX
  8
Layer1
 10
251.126
 20
617.672
  0
VERTEX
  8
Layer1
 10
251.478
 20
617.98
  0
VERTEX
  8
Layer1
 10
251.786
 20
618.332
  0
VERTEX
  8
Layer1
 10
252.046
 20
618.721
  0
VERTEX
  8
Layer1
 10
252.253
 20
619.14
  0
VERTEX
  8
Layer1
 10
252.403
 20
619.583
  0
VERTEX
  8
Layer1
 10
252.494
 20
620.042
  0
SEQEND
  0
POLYLINE
  8
Layer1
  6
CONTINUOUS
 62
7
 66
1
 10
0
 20
0
 30
0
 70
1
  0
VERTEX
  8
Layer1
 10
299.95
 20
620.508
  0
VERTEX
  8
Layer1
 10
299.907
 20
621.161
  0
VERTEX
  8
Layer1
 10
299.78
 20
621.802
  0
VERTEX
  8
Layer1
 10
299.569
 20
622.422
  0
VERTEX
  8
Layer1
 10
299.28
 20
623.008
  0
VERTEX
  8
Layer1
 10
298.917
 20
623.552
  0
VERTEX
  8
Layer1
 10
298.486
 20
624.044
  0
VERTEX
  8
Layer1
 10
297.994
 20
624.475
  0
VERTEX
  8
Layer1
 10
297.45
 20
624.838
  0
VERTEX
  8
Layer1
 10
296.863
 20
625.128
  0
VERTEX
  8
Layer1
 10
296.244
 20
625.338
  0
VERTEX
  8
Layer1
 10
295.603
 20
625.465
  0
VERTEX
  8
Layer1
 10
294.95
 20
625.508
  0
VERTEX
  8
Layer1
 10
294.297
 20
625.465
  0
VERTEX
  8
Layer1
 10
293.656
 20
625.338
  0
VERTEX
  8
Layer1
 10
293.037
 20
625.128
  0
VERTEX
  8
Layer1
 10
292.45
 20
624.838
  0
VERTEX
  8
Layer1
 10
291.906
 20
624.475
  0
VERTEX
  8
Layer1
 10
291.414
 20
624.044
  0
VERTEX
  8
Layer1
 10
290.983
 20
623.552
  0
VERTEX
  8
Layer1
 10
290.62
 20
623.008
  0
VERTEX
  8
Layer1
 10
290.331
 20
622.422
  0
VERTEX
  8
Layer1
 10
290.12
 20
621.802
  0
VERTEX
  8
Layer1
 10
289.993
 20
621.161
  0
VERTEX
  8
Layer1
 10
289.95
 20
620.508
  0
VERTEX
  8
Layer1
 10
289.993
 20
619.856
  0
VERTEX
  8
Layer1
 10
290.12
 20
619.214
  0
VERTEX
  8
Layer1
 10
290.331
 20
618.595
  0
VERTEX
  8
Layer1
 10
290.62
 20
618.008
  0
VERTEX
  8
Layer1
 10
290.983
 20
617.464
  0
VERTEX
  8
Layer1
 10
291.414
 20
616.973
  0
VERTEX
  8
Layer1
 10
291.906
 20
616.541
  0
VERTEX
  8
Layer1
 10
292.45
 20
616.178
  0
VERTEX
  8
Layer1
 10
293.037
 20
615.889
  0
VERTEX
  8
Layer1
 10
293.656
 20
615.679
  0
VERTEX
  8
Layer1
 10
294.297
 20
615.551
  0
VERTEX
  8
Layer1
 10
294.95
 20
615.508
  0
VERTEX
  8
Layer1
 10
295.603
 20
615.551
  0
VERTEX
  8
Layer1
 10
296.244
 20
615.679
  0
VERTEX
  8
Layer1
 10
296.863
 20
615.889
  0
VERTEX
  8
Layer1
 10
297.45
 20
616.178
  0
VERTEX
  8
Layer1
 10
297.994
 20
616.541
  0
VERTEX
  8
Layer1
 10
298.486
 20
616.973
  0
VERTEX
  8
Layer1
 10
298.917
 20
617.464
  0
VERTEX
  8
Layer1
 10
299.28
 20
618.008
  0
VERTEX
  8
Layer1
 10
299.569
 20
618.595
  0
VERTEX
  8
Layer1
 10
299.78
 20
619.214
  0
VERTEX
  8
Layer1
 10
299.907
 20
619.856
  0
SEQEND
  0
POLYLINE
  8
Layer1
  6
CONTINUOUS
 62
7
 66
1
 10
0
 20
0
 30
0
 70
1
  0
VERTEX
  8
Layer1
 10
294.95
 20
624.083
  0
VERTEX
  8
Layer1
 10
291.854
 20
622.296
  0
VERTEX
  8
Layer1
 10
291.854
 20
618.721
  0
VERTEX
  8
Layer1
 10
294.95
 20
616.933
  0
VERTEX
  8
Layer1
 10
298.046
 20
618.721
  0
VERTEX
  8
Layer1
 10
298.046
 20
622.296
  0
SEQEND
  0
POLYLINE
  8
Layer1
  6
CONTINUOUS
 62
7
 66
1
 10
0
 20
0
 30
0
 70
1
  0
VERTEX
  8
Layer1
 10
298.525
 20
620.508
  0
VERTEX
  8
Layer1
 10
298.494
 20
620.975
  0
VERTEX
  8
Layer1
 10
298.403
 20
621.433
  0
VERTEX
  8
Layer1
 10
298.253
 20
621.876
  0
VERTEX
  8
Layer1
 10
298.046
 20
622.296
  0
VERTEX
  8
Layer1
 10
297.786
 20
622.684
  0
VERTEX
  8
Layer1
 10
297.478
 20
623.036
  0
VERTEX
  8
Layer1
 10
297.126
 20
623.344
  0
VERTEX
  8
Layer1
 10
296.737
 20
623.604
  0
VERTEX
  8
Layer1
 10
296.318
 20
623.811
  0
VERTEX
  8
Layer1
 10
295.875
 20
623.961
  0
VERTEX
  8
Layer1
 10
295.417
 20
624.053
  0
VERTEX
  8
Layer1
 10
294.95
 20
624.083
  0
VERTEX
  8
Layer1
 10
294.483
 20
624.053
  0
VERTEX
  8
Layer1
 10
294.025
 20
623.961
  0
VERTEX
  8
Layer1
 10
293.582
 20
623.811
  0
VERTEX
  8
Layer1
 10
293.163
 20
623.604
  0
VERTEX
  8
Layer1
 10
292.774
 20
623.344
  0
VERTEX
  8
Layer1
 10
292.422
 20
623.036
  0
VERTEX
  8
Layer1
 10
292.114
 20
622.684
  0
VERTEX
  8
Layer1
 10
291.854
 20
622.296
  0
VERTEX
  8
Layer1
 10
291.647
 20
621.876
  0
VERTEX
  8
Layer1
 10
291.497
 20
621.433
  0
VERTEX
  8
Layer1
 10
291.406
 20
620.975
  0
VERTEX
  8
Layer1
 10
291.375
 20
620.508
  0
VERTEX
  8
Layer1
 10
291.406
 20
620.042
  0
VERTEX
  8
Layer1
 10
291.497
 20
619.583
  0
VERTEX
  8
Layer1
 10
291.647
 20
619.14
  0
VERTEX
  8
Layer1
 10
291.854
 20
618.721
  0
VERTEX
  8
Layer1
 10
292.114
 20
618.332
  0
VERTEX
  8
Layer1
 10
292.422
 20
617.98
  0
VERTEX
  8
Layer1
 10
292.774
 20
617.672
  0
VERTEX
  8
Layer1
 10
293.163
 20
617.412
  0
VERTEX
  8
Layer1
 10
293.582
 20
617.205
  0
VERTEX
  8
Layer1
 10
294.025
 20
617.055
  0
VERTEX
  8
Layer1
 10
294.483
 20
616.964
  0
VERTEX
  8
Layer1
 10
294.95
 20
616.933
  0
VERTEX
  8
Layer1
 10
295.417
 20
616.964
  0
VERTEX
  8
Layer1
 10
295.875
 20
617.055
  0
VERTEX
  8
Layer1
 10
296.318
 20
617.205
  0
VERTEX
  8
Layer1
 10
296.737
 20
617.412
  0
VERTEX
  8
Layer1
 10
297.126
 20
617.672
  0
VERTEX
  8
Layer1
 10
297.478
 20
617.98
  0
VERTEX
  8
Layer1
 10
297.786
 20
618.332
  0
VERTEX
  8
Layer1
 10
298.046
 20
618.721
  0
VERTEX
  8
Layer1
 10
298.253
 20
619.14
  0
VERTEX
  8
Layer1
 10
298.403
 20
619.583
  0
VERTEX
  8
Layer1
 10
298.494
 20
620.042
  0
SEQEND
  0
CIRCLE
  8
Layer1
  6
CONTINUOUS
 62
7
 10
263.95
 20
620.508
 40
3.5
  0
CIRCLE
  8
Layer1
  6
CONTINUOUS
 62
7
 10
279.95
 20
620.508
 40
3.5
  0
LINE
  8
Layer1
  6
CENTER1
 62
7
 10
248.95
 20
631.018
 11
248.95
 21
611.158
  0
LINE
  8
Layer1
  6
CENTER1
 62
7
 10
263.95
 20
631.503
 11
263.95
 21
612.063
  0
LINE
  8
Layer1
  6
CENTER1
 62
7
 10
279.95
 20
631.098
 11
279.95
 21
611.658
  0
LINE
  8
Layer1
  6
CENTER1
 62
7
 10
294.95
 20
627.211
 11
294.95
 21
607.096
  0
LINE
  8
Layer1
  6
CENTER1
 62
7
 10
327.387
 20
622.508
 11
343.867
 21
622.508
  0
LINE
  8
Layer1
  6
CENTER1
 62
7
 10
311.95
 20
575.119
 11
311.95
 21
557.37
  0
LINE
  8
Layer1
  6
CENTER1
 62
7
 10
335.95
 20
575.379
 11
335.95
 21
554.971
  0
LINE
  8
Layer1
  6
CENTER1
 62
7
 10
363.064
 20
481.538
 11
333.859
 21
481.538
  0
LINE
  8
Layer1
  6
CONTINUOUS
 62
7
 10
355.95
 20
495.312
 11
360.446
 21
495.312
  0
LINE
  8
Layer1
  6
CONTINUOUS
 62
7
 10
360.446
 20
495.312
 11
360.95
 21
494.438
  0
LINE
  8
Layer1
  6
CONTINUOUS
 62
7
 10
360.95
 20
494.438
 11
360.95
 21
484.638
  0
LINE
  8
Layer1
  6
CONTINUOUS
 62
7
 10
360.95
 20
484.638
 11
360.446
 21
483.764
  0
LINE
  8
Layer1
  6
CONTINUOUS
 62
7
 10
360.446
 20
483.764
 11
355.95
 21
483.764
  0
LINE
  8
Layer1
  6
CONTINUOUS
 62
7
 10
355.95
 20
492.425
 11
360.446
 21
492.425
  0
LINE
  8
Layer1
  6
CONTINUOUS
 62
7
 10
355.95
 20
486.651
 11
360.446
 21
486.651
  0
LINE
  8
Layer1
  6
CONTINUOUS
 62
7
 10
360.95
 20
492.538
 11
363.91
 21
492.538
  0
LINE
  8
Layer1
  6
CONTINUOUS
 62
7
 10
360.95
 20
486.538
 11
363.91
 21
486.538
  0
LINE
  8
Layer1
  6
CONTINUOUS
 62
7
 10
363.91
 20
492.538
 11
363.91
 21
486.538
  0
LINE
  8
Layer1
  6
CONTINUOUS
 62
7
 10
360.95
 20
492.138
 11
364.31
 21
492.138
  0
LINE
  8
Layer1
  6
CONTINUOUS
 62
7
 10
360.95
 20
486.938
 11
364.31
 21
486.938
  0
ARC
  8
Layer1
  6
CONTINUOUS
 62
7
 10
351.339
 20
489.538
 40
9.553
 50
342.412
 51
17.588
  0
ARC
  8
Layer1
  6
CONTINUOUS
 62
7
 10
358.336
 20
493.868
 40
2.556
 50
325.616
 51
34.384
  0
ARC
  8
Layer1
  6
CONTINUOUS
 62
7
 10
358.336
 20
485.208
 40
2.556
 50
325.616
 51
34.384
  0
LINE
  8
Layer1
  6
CONTINUOUS
 62
7
 10
364.91
 20
491.538
 11
364.91
 21
487.538
  0
LINE
  8
Layer1
  6
CONTINUOUS
 62
7
 10
363.91
 20
492.538
 11
364.91
 21
491.538
  0
LINE
  8
Layer1
  6
CONTINUOUS
 62
7
 10
363.91
 20
486.538
 11
364.91
 21
487.538
  0
LINE
  8
Layer1
  6
CONTINUOUS
 62
7
 10
355.95
 20
495.312
 11
355.95
 21
483.764
  0
LINE
  8
Layer1
  6
CONTINUOUS
 62
7
 10
355.95
 20
472.538
 11
355.95
 21
518.538
  0
LINE
  8
Layer1
  6
CONTINUOUS
 62
7
 10
344.867
 20
471.538
 11
354.95
 21
471.538
  0
LINE
  8
Layer1
  6
CENTER1
 62
7
 10
339.961
 20
489.538
 11
371.08
 21
489.538
  0
LINE
  8
Layer1
  6
CONTINUOUS
 62
7
 10
354.95
 20
519.538
 11
355.95
 21
518.538
  0
LINE
  8
Layer1
  6
CONTINUOUS
 62
7
 10
355.95
 20
472.538
 11
354.95
 21
471.538
  0
LINE
  8
Layer1
  6
CONTINUOUS
 62
7
 10
355.95
 20
475.207
 11
363.45
 21
475.207
  0
LINE
  8
Layer1
  6
CONTINUOUS
 62
7
 10
355.95
 20
498.038
 11
363.45
 21
498.038
  0
LINE
  8
Layer1
  6
CONTINUOUS
 62
7
 10
355.95
 20
511.038
 11
363.45
 21
511.038
  0
LINE
  8
Layer1
  6
CONTINUOUS
 62
7
 10
363.45
 20
498.038
 11
363.45
 21
511.038
  0
LINE
  8
Layer1
  6
CONTINUOUS
 62
7
 10
363.95
 20
498.538
 11
363.95
 21
510.538
  0
LINE
  8
Layer1
  6
CONTINUOUS
 62
7
 10
363.45
 20
498.038
 11
363.95
 21
498.538
  0
LINE
  8
Layer1
  6
CONTINUOUS
 62
7
 10
363.45
 20
511.038
 11
363.95
 21
510.538
  0
LINE
  8
Layer1
  6
CONTINUOUS
 62
7
 10
355.95
 20
511.038
 11
355.95
 21
498.038
  0
LINE
  8
Layer1
  6
CONTINUOUS
 62
7
 10
356.527
 20
510.038
 11
362.873
 21
510.038
  0
LINE
  8
Layer1
  6
CONTINUOUS
 62
7
 10
357.104
 20
509.038
 11
362.296
 21
509.038
  0
LINE
  8
Layer1
  6
CONTINUOUS
 62
7
 10
357.681
 20
508.038
 11
361.719
 21
508.038
  0
LINE
  8
Layer1
  6
CONTINUOUS
 62
7
 10
358.258
 20
507.038
 11
361.142
 21
507.038
  0
LINE
  8
Layer1
  6
CONTINUOUS
 62
7
 10
363.45
 20
475.207
 11
363.45
 21
486.547
  0
LINE
  8
Layer1
  6
CONTINUOUS
 62
7
 10
363.95
 20
475.707
 11
363.95
 21
486.944
  0
LINE
  8
Layer1
  6
CONTINUOUS
 62
7
 10
363.45
 20
475.207
 11
363.95
 21
475.707
  0
LINE
  8
Layer1
  6
CONTINUOUS
 62
7
 10
355.95
 20
488.207
 11
355.95
 21
475.207
  0
TEXT
  8
Layer1
 62
7
 10
387.586
 20
466.538
 72
1
 11
387.586
 21
466.538
 40
8
 41
1
 50
90
  1
10
  0
LINE
  8
Layer1
  6
CONTINUOUS
 62
7
 10
342.867
 20
461.538
 11
387.586
 21
461.538
  0
LINE
  8
Layer1
  6
CONTINUOUS
 62
7
 10
354.95
 20
471.538
 11
387.586
 21
471.538
  0
POLYLINE
  8
Layer1
  6
CONTINUOUS
 62
7
 66
1
 10
0
 20
0
 30
0
  0
VERTEX
  8
Layer1
 10
387.586
 20
461.538
  0
VERTEX
  8
Layer1
 10
387.586
 20
471.538
  0
SEQEND
  0
POLYLINE
  8
Layer1
  6
CONTINUOUS
 62
7
 66
1
 10
0
 20
0
 30
0
 70
1
  0
VERTEX
  8
Layer1
 10
388.622
 20
465.402
  0
VERTEX
  8
Layer1
 10
387.586
 20
461.538
  0
VERTEX
  8
Layer1
 10
386.551
 20
465.402
  0
SEQEND
  0
POLYLINE
  8
Layer1
  6
CONTINUOUS
 62
7
 66
1
 10
0
 20
0
 30
0
 70
1
  0
VERTEX
  8
Layer1
 10
386.551
 20
467.674
  0
VERTEX
  8
Layer1
 10
387.586
 20
471.538
  0
VERTEX
  8
Layer1
 10
388.622
 20
467.674
  0
SEQEND
  0
TEXT
  8
Layer1
 62
7
 10
387.586
 20
476.623
 72
1
 11
387.586
 21
476.623
 40
8
 41
1
 50
90
  1
10
  0
LINE
  8
Layer1
  6
CONTINUOUS
 62
7
 10
363.064
 20
481.707
 11
387.586
 21
481.707
  0
POLYLINE
  8
Layer1
  6
CONTINUOUS
 62
7
 66
1
 10
0
 20
0
 30
0
  0
VERTEX
  8
Layer1
 10
387.586
 20
481.707
  0
VERTEX
  8
Layer1
 10
387.586
 20
471.538
  0
SEQEND
  0
POLYLINE
  8
Layer1
  6
CONTINUOUS
 62
7
 66
1
 10
0
 20
0
 30
0
 70
1
  0
VERTEX
  8
Layer1
 10
386.551
 20
477.843
  0
VERTEX
  8
Layer1
 10
387.586
 20
481.707
  0
VERTEX
  8
Layer1
 10
388.622
 20
477.843
  0
SEQEND
  0
POLYLINE
  8
Layer1
  6
CONTINUOUS
 62
7
 66
1
 10
0
 20
0
 30
0
 70
1
  0
VERTEX
  8
Layer1
 10
388.622
 20
475.402
  0
VERTEX
  8
Layer1
 10
387.586
 20
471.538
  0
VERTEX
  8
Layer1
 10
386.551
 20
475.402
  0
SEQEND
  0
TEXT
  8
Layer1
 62
7
 10
387.586
 20
493.123
 72
1
 11
387.586
 21
493.123
 40
8
 41
1
 50
90
  1
23
  0
LINE
  8
Layer1
  6
CONTINUOUS
 62
7
 10
363.95
 20
504.538
 11
387.586
 21
504.538
  0
POLYLINE
  8
Layer1
  6
CONTINUOUS
 62
7
 66
1
 10
0
 20
0
 30
0
  0
VERTEX
  8
Layer1
 10
387.586
 20
504.538
  0
VERTEX
  8
Layer1
 10
387.586
 20
481.707
  0
SEQEND
  0
POLYLINE
  8
Layer1
  6
CONTINUOUS
 62
7
 66
1
 10
0
 20
0
 30
0
 70
1
  0
VERTEX
  8
Layer1
 10
386.551
 20
500.674
  0
VERTEX
  8
Layer1
 10
387.586
 20
504.538
  0
VERTEX
  8
Layer1
 10
388.622
 20
500.674
  0
SEQEND
  0
POLYLINE
  8
Layer1
  6
CONTINUOUS
 62
7
 66
1
 10
0
 20
0
 30
0
 70
1
  0
VERTEX
  8
Layer1
 10
388.622
 20
485.571
  0
VERTEX
  8
Layer1
 10
387.586
 20
481.707
  0
VERTEX
  8
Layer1
 10
386.551
 20
485.571
  0
SEQEND
  0
POLYLINE
  8
Layer1
  6
CONTINUOUS
 62
7
 66
1
 10
0
 20
0
 30
0
  0
VERTEX
  8
Layer1
 10
360.57
 20
486.651
  0
VERTEX
  8
Layer1
 10
382.304
 20
435.429
  0
VERTEX
  8
Layer1
 10
382.304
 20
435.429
  0
SEQEND
  0
CIRCLE
  8
Layer1
  6
CONTINUOUS
 62
7
 10
360.57
 20
486.651
 40
1
  0
CIRCLE
  8
Layer1
  6
CONTINUOUS
 62
7
 10
383.961
 20
431.524
 40
4.24264
  0
TEXT
  8
Layer1
 62
7
 10
383.961
 20
431.524
 72
1
 73
2
 11
383.961
 21
431.524
 40
6
 41
1
  1
12
  0
LINE
  8
Layer1
  6
CONTINUOUS
 62
7
 10
344.867
 20
519.538
 11
354.95
 21
519.538
  0
LINE
  8
Layer1
  6
CENTER1
 62
7
 10
216.955
 20
490.963
 11
245.857
 21
490.963
  0
LINE
  8
Layer1
  6
CONTINUOUS
 62
7
 10
225.95
 20
510.463
 11
238.95
 21
510.463
  0
LINE
  8
Layer1
  6
CONTINUOUS
 62
7
 10
218.95
 20
485.463
 11
218.95
 21
513.538
  0
LINE
  8
Layer1
  6
CONTINUOUS
 62
7
 10
237.95
 20
514.538
 11
219.95
 21
514.538
  0
LINE
  8
Layer1
  6
CONTINUOUS
 62
7
 10
219.875
 20
484.538
 11
237.942
 21
484.538
  0
LINE
  8
Layer1
  6
CONTINUOUS
 62
7
 10
218.95
 20
513.538
 11
219.95
 21
514.538
  0
LINE
  8
Layer1
  6
CONTINUOUS
 62
7
 10
219.875
 20
484.538
 11
218.95
 21
485.463
  0
LINE
  8
Layer1
  6
CONTINUOUS
 62
7
 10
219.95
 20
503.963
 11
219.95
 21
511.963
  0
LINE
  8
Layer1
  6
CONTINUOUS
 62
7
 10
225.95
 20
505.463
 11
238.95
 21
505.463
  0
LINE
  8
Layer1
  6
CONTINUOUS
 62
7
 10
220.95
 20
512.963
 11
225.95
 21
512.963
  0
LINE
  8
Layer1
  6
CONTINUOUS
 62
7
 10
220.95
 20
502.963
 11
225.95
 21
502.963
  0
LINE
  8
Layer1
  6
CONTINUOUS
 62
7
 10
225.95
 20
513.463
 11
225.95
 21
502.463
  0
LINE
  8
Layer1
  6
CONTINUOUS
 62
7
 10
219.95
 20
503.963
 11
220.95
 21
502.963
  0
LINE
  8
Layer1
  6
CONTINUOUS
 62
7
 10
225.95
 20
513.463
 11
218.95
 21
513.463
  0
LINE
  8
Layer1
  6
CONTINUOUS
 62
7
 10
225.95
 20
502.463
 11
218.95
 21
502.463
  0
LINE
  8
Layer1
  6
CONTINUOUS
 62
7
 10
220.95
 20
512.963
 11
220.95
 21
502.963
  0
LINE
  8
Layer1
  6
CONTINUOUS
 62
7
 10
220.95
 20
512.963
 11
225.95
 21
512.963
  0
LINE
  8
Layer1
  6
CONTINUOUS
 62
7
 10
219.95
 20
511.963
 11
220.95
 21
512.963
  0
LINE
  8
Layer1
  6
CONTINUOUS
 62
7
 10
225.95
 20
512.963
 11
220.95
 21
512.963
  0
LINE
  8
Layer1
  6
CONTINUOUS
 62
7
 10
225.7
 20
512.463
 11
221.2
 21
512.463
  0
LINE
  8
Layer1
  6
CONTINUOUS
 62
7
 10
225.2
 20
511.463
 11
221.7
 21
511.463
  0
LINE
  8
Layer1
  6
CONTINUOUS
 62
7
 10
224.7
 20
510.463
 11
222.2
 21
510.463
  0
POLYLINE
  8
Layer1
  6
CONTINUOUS
 62
7
 66
1
 10
0
 20
0
 30
0
  0
VERTEX
  8
Layer1
 10
218.95
 20
499.5
  0
VERTEX
  8
Layer1
 10
219.273
 20
499.513
  0
VERTEX
  8
Layer1
 10
219.596
 20
499.527
  0
VERTEX
  8
Layer1
 10
219.919
 20
499.542
  0
VERTEX
  8
Layer1
 10
220.242
 20
499.558
  0
VERTEX
  8
Layer1
 10
220.565
 20
499.577
  0
VERTEX
  8
Layer1
 10
220.888
 20
499.598
  0
VERTEX
  8
Layer1
 10
221.211
 20
499.623
  0
VERTEX
  8
Layer1
 10
221.533
 20
499.652
  0
VERTEX
  8
Layer1
 10
221.856
 20
499.686
  0
VERTEX
  8
Layer1
 10
222.178
 20
499.725
  0
VERTEX
  8
Layer1
 10
222.5
 20
499.769
  0
VERTEX
  8
Layer1
 10
222.822
 20
499.82
  0
VERTEX
  8
Layer1
 10
223.144
 20
499.878
  0
VERTEX
  8
Layer1
 10
223.465
 20
499.943
  0
VERTEX
  8
Layer1
 10
223.786
 20
500.016
  0
VERTEX
  8
Layer1
 10
224.107
 20
500.098
  0
VERTEX
  8
Layer1
 10
224.427
 20
500.189
  0
VERTEX
  8
Layer1
 10
224.747
 20
500.289
  0
VERTEX
  8
Layer1
 10
225.067
 20
500.4
  0
VERTEX
  8
Layer1
 10
225.386
 20
500.52
  0
VERTEX
  8
Layer1
 10
225.705
 20
500.648
  0
VERTEX
  8
Layer1
 10
226.024
 20
500.783
  0
VERTEX
  8
Layer1
 10
226.342
 20
500.923
  0
VERTEX
  8
Layer1
 10
226.659
 20
501.066
  0
VERTEX
  8
Layer1
 10
226.977
 20
501.212
  0
VERTEX
  8
Layer1
 10
227.294
 20
501.358
  0
VERTEX
  8
Layer1
 10
227.61
 20
501.503
  0
VERTEX
  8
Layer1
 10
227.926
 20
501.646
  0
VERTEX
  8
Layer1
 10
228.241
 20
501.786
  0
VERTEX
  8
Layer1
 10
228.556
 20
501.92
  0
VERTEX
  8
Layer1
 10
228.871
 20
502.047
  0
VERTEX
  8
Layer1
 10
229.185
 20
502.166
  0
VERTEX
  8
Layer1
 10
229.498
 20
502.276
  0
VERTEX
  8
Layer1
 10
229.811
 20
502.374
  0
VERTEX
  8
Layer1
 10
230.124
 20
502.46
  0
VERTEX
  8
Layer1
 10
230.435
 20
502.532
  0
VERTEX
  8
Layer1
 10
230.747
 20
502.588
  0
VERTEX
  8
Layer1
 10
231.057
 20
502.627
  0
VERTEX
  8
Layer1
 10
231.368
 20
502.648
  0
VERTEX
  8
Layer1
 10
231.677
 20
502.649
  0
VERTEX
  8
Layer1
 10
231.986
 20
502.628
  0
VERTEX
  8
Layer1
 10
232.294
 20
502.585
  0
VERTEX
  8
Layer1
 10
232.602
 20
502.517
  0
VERTEX
  8
Layer1
 10
232.909
 20
502.424
  0
VERTEX
  8
Layer1
 10
233.216
 20
502.306
  0
VERTEX
  8
Layer1
 10
233.521
 20
502.169
  0
VERTEX
  8
Layer1
 10
233.827
 20
502.018
  0
VERTEX
  8
Layer1
 10
234.131
 20
501.858
  0
VERTEX
  8
Layer1
 10
234.436
 20
501.696
  0
VERTEX
  8
Layer1
 10
234.739
 20
501.536
  0
VERTEX
  8
Layer1
 10
235.042
 20
501.384
  0
VERTEX
  8
Layer1
 10
235.345
 20
501.245
  0
VERTEX
  8
Layer1
 10
235.647
 20
501.125
  0
VERTEX
  8
Layer1
 10
235.949
 20
501.029
  0
VERTEX
  8
Layer1
 10
236.25
 20
500.963
  0
VERTEX
  8
Layer1
 10
236.551
 20
500.931
  0
VERTEX
  8
Layer1
 10
236.852
 20
500.94
  0
VERTEX
  8
Layer1
 10
237.152
 20
500.991
  0
VERTEX
  8
Layer1
 10
237.452
 20
501.079
  0
VERTEX
  8
Layer1
 10
237.752
 20
501.197
  0
VERTEX
  8
Layer1
 10
238.052
 20
501.339
  0
VERTEX
  8
Layer1
 10
238.351
 20
501.499
  0
VERTEX
  8
Layer1
 10
238.651
 20
501.672
  0
VERTEX
  8
Layer1
 10
238.95
 20
501.851
  0
SEQEND
  0
TEXT
  8
Layer1
 62
7
 10
228.95
 20
531.336
 72
1
 11
228.95
 21
531.336
 40
8
 41
1
  1
 20 
  0
LINE
  8
Layer1
  6
CONTINUOUS
 62
7
 10
218.95
 20
513.463
 11
218.95
 21
531.336
  0
LINE
  8
Layer1
  6
CONTINUOUS
 62
7
 10
238.95
 20
513.463
 11
238.95
 21
531.336
  0
POLYLINE
  8
Layer1
  6
CONTINUOUS
 62
7
 66
1
 10
0
 20
0
 30
0
  0
VERTEX
  8
Layer1
 10
218.95
 20
531.336
  0
VERTEX
  8
Layer1
 10
238.95
 20
531.336
  0
SEQEND
  0
POLYLINE
  8
Layer1
  6
CONTINUOUS
 62
7
 66
1
 10
0
 20
0
 30
0
 70
1
  0
VERTEX
  8
Layer1
 10
222.814
 20
530.301
  0
VERTEX
  8
Layer1
 10
218.95
 20
531.336
  0
VERTEX
  8
Layer1
 10
222.814
 20
532.371
  0
SEQEND
  0
POLYLINE
  8
Layer1
  6
CONTINUOUS
 62
7
 66
1
 10
0
 20
0
 30
0
 70
1
  0
VERTEX
  8
Layer1
 10
235.086
 20
532.371
  0
VERTEX
  8
Layer1
 10
238.95
 20
531.336
  0
VERTEX
  8
Layer1
 10
235.086
 20
530.301
  0
SEQEND
  0
LINE
  8
Layer1
  6
PHANTOM1
 62
7
 10
198.95
 20
485.463
 11
198.95
 21
513.538
  0
LINE
  8
Layer1
  6
PHANTOM1
 62
7
 10
217.95
 20
514.538
 11
199.95
 21
514.538
  0
LINE
  8
Layer1
  6
PHANTOM1
 62
7
 10
199.95
 20
484.463
 11
217.95
 21
484.463
  0
LINE
  8
Layer1
  6
PHANTOM1
 62
7
 10
198.95
 20
513.538
 11
199.95
 21
514.538
  0
LINE
  8
Layer1
  6
PHANTOM1
 62
7
 10
199.95
 20
484.463
 11
198.95
 21
485.463
  0
LINE
  8
Layer1
  6
CONTINUOUS
 62
7
 10
198.95
 20
485.463
 11
198.95
 21
461.538
  0
LINE
  8
Layer1
  6
CONTINUOUS
 62
7
 10
218.95
 20
485.463
 11
218.95
 21
461.538
  0
POLYLINE
  8
Layer1
  6
CONTINUOUS
 62
7
 66
1
 10
0
 20
0
 30
0
  0
VERTEX
  8
Layer1
 10
233.103
 20
507.963
  0
VERTEX
  8
Layer1
 10
203.658
 20
547.206
  0
VERTEX
  8
Layer1
 10
203.658
 20
547.206
  0
SEQEND
  0
CIRCLE
  8
Layer1
  6
CONTINUOUS
 62
7
 10
233.103
 20
507.963
 40
1
  0
CIRCLE
  8
Layer1
  6
CONTINUOUS
 62
7
 10
201.112
 20
550.6
 40
4.24264
  0
TEXT
  8
Layer1
 62
7
 10
201.112
 20
550.6
 72
1
 73
2
 11
201.112
 21
550.6
 40
6
 41
1
  1
14
  0
POLYLINE
  8
Layer1
  6
CONTINUOUS
 62
7
 66
1
 10
0
 20
0
 30
0
  0
VERTEX
  8
Layer1
 10
230.337
 20
495.745
  0
VERTEX
  8
Layer1
 10
203.962
 20
530.897
  0
VERTEX
  8
Layer1
 10
203.962
 20
530.897
  0
SEQEND
  0
CIRCLE
  8
Layer1
  6
CONTINUOUS
 62
7
 10
230.337
 20
495.745
 40
1
  0
CIRCLE
  8
Layer1
  6
CONTINUOUS
 62
7
 10
201.416
 20
534.29
 40
4.24264
  0
TEXT
  8
Layer1
 62
7
 10
201.416
 20
534.29
 72
1
 73
2
 11
201.416
 21
534.29
 40
6
 41
1
  1
13
  0
LINE
  8
Layer1
  6
CONTINUOUS
 62
7
 10
301.95
 20
514.538
 11
302.95
 21
515.538
  0
LINE
  8
Layer1
  6
CONTINUOUS
 62
7
 10
267.45
 20
515.463
 11
268.45
 21
514.463
  0
LINE
  8
Layer1
  6
CONTINUOUS
 62
7
 10
261.789
 20
515.463
 11
267.45
 21
515.463
  0
LINE
  8
Layer1
  6
CONTINUOUS
 62
7
 10
301.95
 20
526.538
 11
241.867
 21
526.538
  0
LINE
  8
Layer1
  6
CONTINUOUS
 62
7
 10
240.95
 20
515.455
 11
240.95
 21
525.621
  0
LINE
  8
Layer1
  6
CONTINUOUS
 62
7
 10
240.95
 20
525.621
 11
241.867
 21
526.538
  0
LINE
  8
Layer1
  6
CENTER1
 62
7
 10
271.867
 20
512.945
 11
271.867
 21
536.806
  0
LINE
  8
Layer1
  6
CONTINUOUS
 62
7
 10
267.505
 20
535.708
 11
276.407
 21
535.708
  0
LINE
  8
Layer1
  6
CONTINUOUS
 62
7
 10
267.505
 20
533.393
 11
275.339
 21
533.393
  0
LINE
  8
Layer1
  6
CONTINUOUS
 62
7
 10
276.407
 20
535.708
 11
277.832
 21
534.046
  0
LINE
  8
Layer1
  6
CONTINUOUS
 62
7
 10
277.832
 20
533.393
 11
277.832
 21
534.046
  0
POLYLINE
  8
Layer1
  6
CONTINUOUS
 62
7
 66
1
 10
0
 20
0
 30
0
  0
VERTEX
  8
Layer1
 10
275.339
 20
533.393
  0
VERTEX
  8
Layer1
 10
275.341
 20
533.311
  0
VERTEX
  8
Layer1
 10
275.348
 20
533.229
  0
VERTEX
  8
Layer1
 10
275.361
 20
533.148
  0
VERTEX
  8
Layer1
 10
275.379
 20
533.068
  0
VERTEX
  8
Layer1
 10
275.402
 20
532.989
  0
VERTEX
  8
Layer1
 10
275.43
 20
532.912
  0
VERTEX
  8
Layer1
 10
275.464
 20
532.837
  0
VERTEX
  8
Layer1
 10
275.502
 20
532.765
  0
VERTEX
  8
Layer1
 10
275.545
 20
532.695
  0
VERTEX
  8
Layer1
 10
275.592
 20
532.628
  0
VERTEX
  8
Layer1
 10
275.644
 20
532.564
  0
VERTEX
  8
Layer1
 10
275.7
 20
532.504
  0
VERTEX
  8
Layer1
 10
275.759
 20
532.447
  0
VERTEX
  8
Layer1
 10
275.822
 20
532.395
  0
VERTEX
  8
Layer1
 10
275.889
 20
532.347
  0
VERTEX
  8
Layer1
 10
275.959
 20
532.303
  0
VERTEX
  8
Layer1
 10
276.031
 20
532.264
  0
VERTEX
  8
Layer1
 10
276.106
 20
532.23
  0
VERTEX
  8
Layer1
 10
276.182
 20
532.201
  0
VERTEX
  8
Layer1
 10
276.261
 20
532.177
  0
VERTEX
  8
Layer1
 10
276.341
 20
532.158
  0
VERTEX
  8
Layer1
 10
276.422
 20
532.145
  0
VERTEX
  8
Layer1
 10
276.503
 20
532.137
  0
VERTEX
  8
Layer1
 10
276.585
 20
532.134
  0
VERTEX
  8
Layer1
 10
276.668
 20
532.137
  0
VERTEX
  8
Layer1
 10
276.749
 20
532.145
  0
VERTEX
  8
Layer1
 10
276.83
 20
532.158
  0
VERTEX
  8
Layer1
 10
276.91
 20
532.177
  0
VERTEX
  8
Layer1
 10
276.989
 20
532.201
  0
VERTEX
  8
Layer1
 10
277.065
 20
532.23
  0
VERTEX
  8
Layer1
 10
277.14
 20
532.264
  0
VERTEX
  8
Layer1
 10
277.212
 20
532.303
  0
VERTEX
  8
Layer1
 10
277.282
 20
532.347
  0
VERTEX
  8
Layer1
 10
277.348
 20
532.395
  0
VERTEX
  8
Layer1
 10
277.412
 20
532.447
  0
VERTEX
  8
Layer1
 10
277.471
 20
532.504
  0
VERTEX
  8
Layer1
 10
277.527
 20
532.564
  0
VERTEX
  8
Layer1
 10
277.579
 20
532.628
  0
VERTEX
  8
Layer1
 10
277.626
 20
532.695
  0
VERTEX
  8
Layer1
 10
277.669
 20
532.765
  0
VERTEX
  8
Layer1
 10
277.707
 20
532.837
  0
VERTEX
  8
Layer1
 10
277.741
 20
532.912
  0
VERTEX
  8
Layer1
 10
277.769
 20
532.989
  0
VERTEX
  8
Layer1
 10
277.792
 20
533.068
  0
VERTEX
  8
Layer1
 10
277.81
 20
533.148
  0
VERTEX
  8
Layer1
 10
277.823
 20
533.229
  0
VERTEX
  8
Layer1
 10
277.83
 20
533.311
  0
VERTEX
  8
Layer1
 10
277.832
 20
533.393
  0
SEQEND
  0
LINE
  8
Layer1
  6
CONTINUOUS
 62
7
 10
267.505
 20
535.708
 11
265.091
 21
533.18
  0
LINE
  8
Layer1
  6
CONTINUOUS
 62
7
 10
267.505
 20
533.393
 11
266.08
 21
532.147
  0
POLYLINE
  8
Layer1
  6
CONTINUOUS
 62
7
 66
1
 10
0
 20
0
 30
0
  0
VERTEX
  8
Layer1
 10
265.091
 20
533.18
  0
VERTEX
  8
Layer1
 10
265.061
 20
533.146
  0
VERTEX
  8
Layer1
 10
265.033
 20
533.11
  0
VERTEX
  8
Layer1
 10
265.007
 20
533.072
  0
VERTEX
  8
Layer1
 10
264.984
 20
533.033
  0
VERTEX
  8
Layer1
 10
264.963
 20
532.993
  0
VERTEX
  8
Layer1
 10
264.944
 20
532.951
  0
VERTEX
  8
Layer1
 10
264.929
 20
532.909
  0
VERTEX
  8
Layer1
 10
264.916
 20
532.865
  0
VERTEX
  8
Layer1
 10
264.906
 20
532.821
  0
VERTEX
  8
Layer1
 10
264.899
 20
532.776
  0
VERTEX
  8
Layer1
 10
264.895
 20
532.73
  0
VERTEX
  8
Layer1
 10
264.893
 20
532.685
  0
VERTEX
  8
Layer1
 10
264.895
 20
532.639
  0
VERTEX
  8
Layer1
 10
264.899
 20
532.594
  0
VERTEX
  8
Layer1
 10
264.906
 20
532.549
  0
VERTEX
  8
Layer1
 10
264.916
 20
532.505
  0
VERTEX
  8
Layer1
 10
264.929
 20
532.461
  0
VERTEX
  8
Layer1
 10
264.945
 20
532.418
  0
VERTEX
  8
Layer1
 10
264.963
 20
532.377
  0
VERTEX
  8
Layer1
 10
264.984
 20
532.336
  0
VERTEX
  8
Layer1
 10
265.008
 20
532.297
  0
VERTEX
  8
Layer1
 10
265.033
 20
532.26
  0
VERTEX
  8
Layer1
 10
265.062
 20
532.224
  0
VERTEX
  8
Layer1
 10
265.092
 20
532.19
  0
VERTEX
  8
Layer1
 10
265.125
 20
532.159
  0
VERTEX
  8
Layer1
 10
265.159
 20
532.129
  0
VERTEX
  8
Layer1
 10
265.195
 20
532.101
  0
VERTEX
  8
Layer1
 10
265.233
 20
532.076
  0
VERTEX
  8
Layer1
 10
265.273
 20
532.054
  0
VERTEX
  8
Layer1
 10
265.313
 20
532.034
  0
VERTEX
  8
Layer1
 10
265.355
 20
532.016
  0
VERTEX
  8
Layer1
 10
265.398
 20
532.001
  0
VERTEX
  8
Layer1
 10
265.442
 20
531.989
  0
VERTEX
  8
Layer1
 10
265.487
 20
531.98
  0
VERTEX
  8
Layer1
 10
265.532
 20
531.974
  0
VERTEX
  8
Layer1
 10
265.577
 20
531.97
  0
VERTEX
  8
Layer1
 10
265.623
 20
531.97
  0
VERTEX
  8
Layer1
 10
265.668
 20
531.972
  0
VERTEX
  8
Layer1
 10
265.713
 20
531.977
  0
VERTEX
  8
Layer1
 10
265.758
 20
531.985
  0
VERTEX
  8
Layer1
 10
265.802
 20
531.996
  0
VERTEX
  8
Layer1
 10
265.846
 20
532.01
  0
VERTEX
  8
Layer1
 10
265.888
 20
532.026
  0
VERTEX
  8
Layer1
 10
265.93
 20
532.046
  0
VERTEX
  8
Layer1
 10
265.97
 20
532.067
  0
VERTEX
  8
Layer1
 10
266.008
 20
532.091
  0
VERTEX
  8
Layer1
 10
266.045
 20
532.118
  0
VERTEX
  8
Layer1
 10
266.08
 20
532.147
  0
SEQEND
  0
LINE
  8
Layer1
  6
CONTINUOUS
 62
7
 10
268.825
 20
533.393
 11
268.825
 21
530.27
  0
LINE
  8
Layer1
  6
CONTINUOUS
 62
7
 10
274.736
 20
533.393
 11
274.736
 21
530.27
  0
LINE
  8
Layer1
  6
CONTINUOUS
 62
7
 10
276.937
 20
526.538
 11
276.937
 21
529.625
  0
LINE
  8
Layer1
  6
CONTINUOUS
 62
7
 10
276.937
 20
529.625
 11
275.818
 21
530.27
  0
LINE
  8
Layer1
  6
CONTINUOUS
 62
7
 10
275.818
 20
530.27
 11
267.916
 21
530.27
  0
LINE
  8
Layer1
  6
CONTINUOUS
 62
7
 10
267.916
 20
530.27
 11
266.797
 21
529.625
  0
LINE
  8
Layer1
  6
CONTINUOUS
 62
7
 10
266.797
 20
529.625
 11
266.797
 21
526.538
  0
LINE
  8
Layer1
  6
CONTINUOUS
 62
7
 10
274.401
 20
526.538
 11
274.401
 21
529.625
  0
LINE
  8
Layer1
  6
CONTINUOUS
 62
7
 10
269.333
 20
526.538
 11
269.333
 21
529.625
  0
POLYLINE
  8
Layer1
  6
CONTINUOUS
 62
7
 66
1
 10
0
 20
0
 30
0
  0
VERTEX
  8
Layer1
 10
274.402
 20
529.625
  0
VERTEX
  8
Layer1
 10
274.299
 20
529.656
  0
VERTEX
  8
Layer1
 10
274.196
 20
529.687
  0
VERTEX
  8
Layer1
 10
274.093
 20
529.716
  0
VERTEX
  8
Layer1
 10
273.99
 20
529.744
  0
VERTEX
  8
Layer1
 10
273.886
 20
529.77
  0
VERTEX
  8
Layer1
 10
273.781
 20
529.795
  0
VERTEX
  8
Layer1
 10
273.677
 20
529.819
  0
VERTEX
  8
Layer1
 10
273.572
 20
529.842
  0
VERTEX
  8
Layer1
 10
273.467
 20
529.863
  0
VERTEX
  8
Layer1
 10
273.361
 20
529.883
  0
VERTEX
  8
Layer1
 10
273.255
 20
529.901
  0
VERTEX
  8
Layer1
 10
273.149
 20
529.918
  0
VERTEX
  8
Layer1
 10
273.043
 20
529.934
  0
VERTEX
  8
Layer1
 10
272.937
 20
529.948
  0
VERTEX
  8
Layer1
 10
272.831
 20
529.961
  0
VERTEX
  8
Layer1
 10
272.724
 20
529.973
  0
VERTEX
  8
Layer1
 10
272.617
 20
529.983
  0
VERTEX
  8
Layer1
 10
272.51
 20
529.992
  0
VERTEX
  8
Layer1
 10
272.403
 20
530
  0
VERTEX
  8
Layer1
 10
272.296
 20
530.006
  0
VERTEX
  8
Layer1
 10
272.189
 20
530.011
  0
VERTEX
  8
Layer1
 10
272.082
 20
530.014
  0
VERTEX
  8
Layer1
 10
271.974
 20
530.016
  0
VERTEX
  8
Layer1
 10
271.867
 20
530.017
  0
VERTEX
  8
Layer1
 10
271.76
 20
530.016
  0
VERTEX
  8
Layer1
 10
271.652
 20
530.014
  0
VERTEX
  8
Layer1
 10
271.545
 20
530.011
  0
VERTEX
  8
Layer1
 10
271.438
 20
530.006
  0
VERTEX
  8
Layer1
 10
271.331
 20
530
  0
VERTEX
  8
Layer1
 10
271.224
 20
529.992
  0
VERTEX
  8
Layer1
 10
271.117
 20
529.983
  0
VERTEX
  8
Layer1
 10
271.01
 20
529.973
  0
VERTEX
  8
Layer1
 10
270.903
 20
529.961
  0
VERTEX
  8
Layer1
 10
270.797
 20
529.948
  0
VERTEX
  8
Layer1
 10
270.691
 20
529.934
  0
VERTEX
  8
Layer1
 10
270.585
 20
529.918
  0
VERTEX
  8
Layer1
 10
270.479
 20
529.901
  0
VERTEX
  8
Layer1
 10
270.373
 20
529.883
  0
VERTEX
  8
Layer1
 10
270.267
 20
529.863
  0
VERTEX
  8
Layer1
 10
270.162
 20
529.842
  0
VERTEX
  8
Layer1
 10
270.057
 20
529.819
  0
VERTEX
  8
Layer1
 10
269.953
 20
529.795
  0
VERTEX
  8
Layer1
 10
269.848
 20
529.77
  0
VERTEX
  8
Layer1
 10
269.744
 20
529.744
  0
VERTEX
  8
Layer1
 10
269.641
 20
529.716
  0
VERTEX
  8
Layer1
 10
269.538
 20
529.687
  0
VERTEX
  8
Layer1
 10
269.435
 20
529.656
  0
VERTEX
  8
Layer1
 10
269.332
 20
529.625
  0
SEQEND
  0
POLYLINE
  8
Layer1
  6
CONTINUOUS
 62
7
 66
1
 10
0
 20
0
 30
0
  0
VERTEX
  8
Layer1
 10
276.936
 20
529.625
  0
VERTEX
  8
Layer1
 10
276.89
 20
529.656
  0
VERTEX
  8
Layer1
 10
276.842
 20
529.686
  0
VERTEX
  8
Layer1
 10
276.794
 20
529.714
  0
VERTEX
  8
Layer1
 10
276.745
 20
529.742
  0
VERTEX
  8
Layer1
 10
276.696
 20
529.768
  0
VERTEX
  8
Layer1
 10
276.645
 20
529.793
  0
VERTEX
  8
Layer1
 10
276.595
 20
529.817
  0
VERTEX
  8
Layer1
 10
276.543
 20
529.839
  0
VERTEX
  8
Layer1
 10
276.491
 20
529.861
  0
VERTEX
  8
Layer1
 10
276.439
 20
529.881
  0
VERTEX
  8
Layer1
 10
276.386
 20
529.899
  0
VERTEX
  8
Layer1
 10
276.332
 20
529.916
  0
VERTEX
  8
Layer1
 10
276.279
 20
529.932
  0
VERTEX
  8
Layer1
 10
276.224
 20
529.947
  0
VERTEX
  8
Layer1
 10
276.17
 20
529.96
  0
VERTEX
  8
Layer1
 10
276.115
 20
529.972
  0
VERTEX
  8
Layer1
 10
276.06
 20
529.982
  0
VERTEX
  8
Layer1
 10
276.004
 20
529.992
  0
VERTEX
  8
Layer1
 10
275.949
 20
529.999
  0
VERTEX
  8
Layer1
 10
275.893
 20
530.005
  0
VERTEX
  8
Layer1
 10
275.837
 20
530.01
  0
VERTEX
  8
Layer1
 10
275.781
 20
530.014
  0
VERTEX
  8
Layer1
 10
275.725
 20
530.016
  0
VERTEX
  8
Layer1
 10
275.669
 20
530.017
  0
VERTEX
  8
Layer1
 10
275.613
 20
530.016
  0
VERTEX
  8
Layer1
 10
275.557
 20
530.014
  0
VERTEX
  8
Layer1
 10
275.501
 20
530.01
  0
VERTEX
  8
Layer1
 10
275.445
 20
530.005
  0
VERTEX
  8
Layer1
 10
275.389
 20
529.999
  0
VERTEX
  8
Layer1
 10
275.333
 20
529.992
  0
VERTEX
  8
Layer1
 10
275.278
 20
529.982
  0
VERTEX
  8
Layer1
 10
275.223
 20
529.972
  0
VERTEX
  8
Layer1
 10
275.168
 20
529.96
  0
VERTEX
  8
Layer1
 10
275.114
 20
529.947
  0
VERTEX
  8
Layer1
 10
275.059
 20
529.932
  0
VERTEX
  8
Layer1
 10
275.005
 20
529.916
  0
VERTEX
  8
Layer1
 10
274.952
 20
529.899
  0
VERTEX
  8
Layer1
 10
274.899
 20
529.881
  0
VERTEX
  8
Layer1
 10
274.847
 20
529.861
  0
VERTEX
  8
Layer1
 10
274.795
 20
529.839
  0
VERTEX
  8
Layer1
 10
274.743
 20
529.817
  0
VERTEX
  8
Layer1
 10
274.692
 20
529.793
  0
VERTEX
  8
Layer1
 10
274.642
 20
529.768
  0
VERTEX
  8
Layer1
 10
274.593
 20
529.742
  0
VERTEX
  8
Layer1
 10
274.544
 20
529.714
  0
VERTEX
  8
Layer1
 10
274.496
 20
529.686
  0
VERTEX
  8
Layer1
 10
274.448
 20
529.656
  0
VERTEX
  8
Layer1
 10
274.401
 20
529.625
  0
SEQEND
  0
POLYLINE
  8
Layer1
  6
CONTINUOUS
 62
7
 66
1
 10
0
 20
0
 30
0
  0
VERTEX
  8
Layer1
 10
269.333
 20
529.625
  0
VERTEX
  8
Layer1
 10
269.286
 20
529.656
  0
VERTEX
  8
Layer1
 10
269.238
 20
529.686
  0
VERTEX
  8
Layer1
 10
269.19
 20
529.714
  0
VERTEX
  8
Layer1
 10
269.141
 20
529.742
  0
VERTEX
  8
Layer1
 10
269.092
 20
529.768
  0
VERTEX
  8
Layer1
 10
269.042
 20
529.793
  0
VERTEX
  8
Layer1
 10
268.991
 20
529.817
  0
VERTEX
  8
Layer1
 10
268.939
 20
529.839
  0
VERTEX
  8
Layer1
 10
268.887
 20
529.861
  0
VERTEX
  8
Layer1
 10
268.835
 20
529.881
  0
VERTEX
  8
Layer1
 10
268.782
 20
529.899
  0
VERTEX
  8
Layer1
 10
268.729
 20
529.916
  0
VERTEX
  8
Layer1
 10
268.675
 20
529.932
  0
VERTEX
  8
Layer1
 10
268.62
 20
529.947
  0
VERTEX
  8
Layer1
 10
268.566
 20
529.96
  0
VERTEX
  8
Layer1
 10
268.511
 20
529.972
  0
VERTEX
  8
Layer1
 10
268.456
 20
529.982
  0
VERTEX
  8
Layer1
 10
268.401
 20
529.992
  0
VERTEX
  8
Layer1
 10
268.345
 20
529.999
  0
VERTEX
  8
Layer1
 10
268.289
 20
530.005
  0
VERTEX
  8
Layer1
 10
268.233
 20
530.01
  0
VERTEX
  8
Layer1
 10
268.177
 20
530.014
  0
VERTEX
  8
Layer1
 10
268.121
 20
530.016
  0
VERTEX
  8
Layer1
 10
268.065
 20
530.017
  0
VERTEX
  8
Layer1
 10
268.009
 20
530.016
  0
VERTEX
  8
Layer1
 10
267.953
 20
530.014
  0
VERTEX
  8
Layer1
 10
267.897
 20
530.01
  0
VERTEX
  8
Layer1
 10
267.841
 20
530.005
  0
VERTEX
  8
Layer1
 10
267.785
 20
529.999
  0
VERTEX
  8
Layer1
 10
267.73
 20
529.992
  0
VERTEX
  8
Layer1
 10
267.674
 20
529.982
  0
VERTEX
  8
Layer1
 10
267.619
 20
529.972
  0
VERTEX
  8
Layer1
 10
267.564
 20
529.96
  0
VERTEX
  8
Layer1
 10
267.51
 20
529.947
  0
VERTEX
  8
Layer1
 10
267.455
 20
529.932
  0
VERTEX
  8
Layer1
 10
267.402
 20
529.916
  0
VERTEX
  8
Layer1
 10
267.348
 20
529.899
  0
VERTEX
  8
Layer1
 10
267.295
 20
529.881
  0
VERTEX
  8
Layer1
 10
267.243
 20
529.861
  0
VERTEX
  8
Layer1
 10
267.191
 20
529.839
  0
VERTEX
  8
Layer1
 10
267.139
 20
529.817
  0
VERTEX
  8
Layer1
 10
267.089
 20
529.793
  0
VERTEX
  8
Layer1
 10
267.038
 20
529.768
  0
VERTEX
  8
Layer1
 10
266.989
 20
529.742
  0
VERTEX
  8
Layer1
 10
266.94
 20
529.714
  0
VERTEX
  8
Layer1
 10
266.892
 20
529.686
  0
VERTEX
  8
Layer1
 10
266.844
 20
529.656
  0
VERTEX
  8
Layer1
 10
266.798
 20
529.625
  0
SEQEND
  0
POLYLINE
  8
Layer1
  6
CONTINUOUS
 62
7
 66
1
 10
0
 20
0
 30
0
 70
1
  0
VERTEX
  8
Layer1
 10
277.131
 20
533.38
  0
VERTEX
  8
Layer1
 10
277.127
 20
533.452
  0
VERTEX
  8
Layer1
 10
277.113
 20
533.522
  0
VERTEX
  8
Layer1
 10
277.09
 20
533.589
  0
VERTEX
  8
Layer1
 10
277.058
 20
533.653
  0
VERTEX
  8
Layer1
 10
277.019
 20
533.713
  0
VERTEX
  8
Layer1
 10
276.972
 20
533.767
  0
VERTEX
  8
Layer1
 10
276.918
 20
533.814
  0
VERTEX
  8
Layer1
 10
276.858
 20
533.853
  0
VERTEX
  8
Layer1
 10
276.794
 20
533.885
  0
VERTEX
  8
Layer1
 10
276.727
 20
533.908
  0
VERTEX
  8
Layer1
 10
276.657
 20
533.922
  0
VERTEX
  8
Layer1
 10
276.585
 20
533.926
  0
VERTEX
  8
Layer1
 10
276.514
 20
533.922
  0
VERTEX
  8
Layer1
 10
276.444
 20
533.908
  0
VERTEX
  8
Layer1
 10
276.377
 20
533.885
  0
VERTEX
  8
Layer1
 10
276.312
 20
533.853
  0
VERTEX
  8
Layer1
 10
276.253
 20
533.814
  0
VERTEX
  8
Layer1
 10
276.199
 20
533.767
  0
VERTEX
  8
Layer1
 10
276.152
 20
533.713
  0
VERTEX
  8
Layer1
 10
276.113
 20
533.653
  0
VERTEX
  8
Layer1
 10
276.081
 20
533.589
  0
VERTEX
  8
Layer1
 10
276.058
 20
533.522
  0
VERTEX
  8
Layer1
 10
276.044
 20
533.452
  0
VERTEX
  8
Layer1
 10
276.039
 20
533.38
  0
VERTEX
  8
Layer1
 10
276.044
 20
533.309
  0
VERTEX
  8
Layer1
 10
276.058
 20
533.239
  0
VERTEX
  8
Layer1
 10
276.081
 20
533.172
  0
VERTEX
  8
Layer1
 10
276.113
 20
533.107
  0
VERTEX
  8
Layer1
 10
276.152
 20
533.048
  0
VERTEX
  8
Layer1
 10
276.199
 20
532.994
  0
VERTEX
  8
Layer1
 10
276.253
 20
532.947
  0
VERTEX
  8
Layer1
 10
276.312
 20
532.908
  0
VERTEX
  8
Layer1
 10
276.377
 20
532.876
  0
VERTEX
  8
Layer1
 10
276.444
 20
532.853
  0
VERTEX
  8
Layer1
 10
276.514
 20
532.839
  0
VERTEX
  8
Layer1
 10
276.585
 20
532.834
  0
VERTEX
  8
Layer1
 10
276.657
 20
532.839
  0
VERTEX
  8
Layer1
 10
276.727
 20
532.853
  0
VERTEX
  8
Layer1
 10
276.794
 20
532.876
  0
VERTEX
  8
Layer1
 10
276.858
 20
532.908
  0
VERTEX
  8
Layer1
 10
276.918
 20
532.947
  0
VERTEX
  8
Layer1
 10
276.972
 20
532.994
  0
VERTEX
  8
Layer1
 10
277.019
 20
533.048
  0
VERTEX
  8
Layer1
 10
277.058
 20
533.107
  0
VERTEX
  8
Layer1
 10
277.09
 20
533.172
  0
VERTEX
  8
Layer1
 10
277.113
 20
533.239
  0
VERTEX
  8
Layer1
 10
277.127
 20
533.309
  0
SEQEND
  0
LINE
  8
Layer1
  6
CONTINUOUS
 62
7
 10
275.209
 20
526.538
 11
268.367
 21
526.538
  0
POLYLINE
  8
Layer1
  6
CONTINUOUS
 62
7
 66
1
 10
0
 20
0
 30
0
  0
VERTEX
  8
Layer1
 10
256.014
 20
526.538
  0
VERTEX
  8
Layer1
 10
256.662
 20
526.255
  0
VERTEX
  8
Layer1
 10
257.302
 20
525.969
  0
VERTEX
  8
Layer1
 10
257.93
 20
525.677
  0
VERTEX
  8
Layer1
 10
258.536
 20
525.378
  0
VERTEX
  8
Layer1
 10
259.116
 20
525.068
  0
VERTEX
  8
Layer1
 10
259.662
 20
524.746
  0
VERTEX
  8
Layer1
 10
260.167
 20
524.407
  0
VERTEX
  8
Layer1
 10
260.624
 20
524.05
  0
VERTEX
  8
Layer1
 10
261.027
 20
523.671
  0
VERTEX
  8
Layer1
 10
261.37
 20
523.269
  0
VERTEX
  8
Layer1
 10
261.644
 20
522.841
  0
VERTEX
  8
Layer1
 10
261.843
 20
522.383
  0
VERTEX
  8
Layer1
 10
261.962
 20
521.894
  0
VERTEX
  8
Layer1
 10
261.994
 20
521.371
  0
VERTEX
  8
Layer1
 10
261.953
 20
520.82
  0
VERTEX
  8
Layer1
 10
261.861
 20
520.248
  0
VERTEX
  8
Layer1
 10
261.741
 20
519.663
  0
VERTEX
  8
Layer1
 10
261.614
 20
519.074
  0
VERTEX
  8
Layer1
 10
261.503
 20
518.488
  0
VERTEX
  8
Layer1
 10
261.429
 20
517.913
  0
VERTEX
  8
Layer1
 10
261.409
 20
517.356
  0
VERTEX
  8
Layer1
 10
261.444
 20
516.816
  0
VERTEX
  8
Layer1
 10
261.53
 20
516.293
  0
VERTEX
  8
Layer1
 10
261.664
 20
515.785
  0
VERTEX
  8
Layer1
 10
261.844
 20
515.292
  0
VERTEX
  8
Layer1
 10
262.067
 20
514.812
  0
VERTEX
  8
Layer1
 10
262.329
 20
514.344
  0
VERTEX
  8
Layer1
 10
262.629
 20
513.887
  0
VERTEX
  8
Layer1
 10
262.962
 20
513.44
  0
VERTEX
  8
Layer1
 10
263.327
 20
513.002
  0
VERTEX
  8
Layer1
 10
263.721
 20
512.573
  0
VERTEX
  8
Layer1
 10
264.14
 20
512.15
  0
VERTEX
  8
Layer1
 10
264.581
 20
511.734
  0
VERTEX
  8
Layer1
 10
265.043
 20
511.322
  0
VERTEX
  8
Layer1
 10
265.521
 20
510.914
  0
VERTEX
  8
Layer1
 10
266.014
 20
510.51
  0
VERTEX
  8
Layer1
 10
266.518
 20
510.106
  0
VERTEX
  8
Layer1
 10
267.031
 20
509.704
  0
VERTEX
  8
Layer1
 10
267.549
 20
509.301
  0
VERTEX
  8
Layer1
 10
268.07
 20
508.897
  0
VERTEX
  8
Layer1
 10
268.59
 20
508.491
  0
VERTEX
  8
Layer1
 10
269.108
 20
508.081
  0
VERTEX
  8
Layer1
 10
269.62
 20
507.667
  0
VERTEX
  8
Layer1
 10
270.123
 20
507.247
  0
VERTEX
  8
Layer1
 10
270.615
 20
506.821
  0
VERTEX
  8
Layer1
 10
271.093
 20
506.387
  0
VERTEX
  8
Layer1
 10
271.554
 20
505.945
  0
VERTEX
  8
Layer1
 10
271.998
 20
505.495
  0
VERTEX
  8
Layer1
 10
272.424
 20
505.037
  0
VERTEX
  8
Layer1
 10
272.831
 20
504.571
  0
VERTEX
  8
Layer1
 10
273.219
 20
504.098
  0
VERTEX
  8
Layer1
 10
273.585
 20
503.617
  0
VERTEX
  8
Layer1
 10
273.931
 20
503.128
  0
VERTEX
  8
Layer1
 10
274.253
 20
502.631
  0
VERTEX
  8
Layer1
 10
274.553
 20
502.128
  0
VERTEX
  8
Layer1
 10
274.829
 20
501.617
  0
VERTEX
  8
Layer1
 10
275.079
 20
501.098
  0
VERTEX
  8
Layer1
 10
275.304
 20
500.573
  0
VERTEX
  8
Layer1
 10
275.502
 20
500.04
  0
VERTEX
  8
Layer1
 10
275.673
 20
499.5
  0
VERTEX
  8
Layer1
 10
275.815
 20
498.954
  0
VERTEX
  8
Layer1
 10
275.928
 20
498.4
  0
VERTEX
  8
Layer1
 10
276.01
 20
497.84
  0
VERTEX
  8
Layer1
 10
276.062
 20
497.273
  0
VERTEX
  8
Layer1
 10
276.082
 20
496.7
  0
VERTEX
  8
Layer1
 10
276.075
 20
496.121
  0
VERTEX
  8
Layer1
 10
276.05
 20
495.537
  0
VERTEX
  8
Layer1
 10
276.013
 20
494.952
  0
VERTEX
  8
Layer1
 10
275.973
 20
494.365
  0
VERTEX
  8
Layer1
 10
275.937
 20
493.778
  0
VERTEX
  8
Layer1
 10
275.913
 20
493.193
  0
VERTEX
  8
Layer1
 10
275.909
 20
492.611
  0
VERTEX
  8
Layer1
 10
275.931
 20
492.034
  0
VERTEX
  8
Layer1
 10
275.989
 20
491.463
  0
VERTEX
  8
Layer1
 10
276.09
 20
490.9
  0
VERTEX
  8
Layer1
 10
276.241
 20
490.345
  0
VERTEX
  8
Layer1
 10
276.45
 20
489.801
  0
VERTEX
  8
Layer1
 10
276.715
 20
489.267
  0
VERTEX
  8
Layer1
 10
277.023
 20
488.742
  0
VERTEX
  8
Layer1
 10
277.362
 20
488.224
  0
VERTEX
  8
Layer1
 10
277.719
 20
487.711
  0
VERTEX
  8
Layer1
 10
278.082
 20
487.203
  0
VERTEX
  8
Layer1
 10
278.438
 20
486.697
  0
VERTEX
  8
Layer1
 10
278.775
 20
486.192
  0
VERTEX
  8
Layer1
 10
279.079
 20
485.687
  0
VERTEX
  8
Layer1
 10
279.339
 20
485.179
  0
VERTEX
  8
Layer1
 10
279.542
 20
484.667
  0
VERTEX
  8
Layer1
 10
279.675
 20
484.15
  0
VERTEX
  8
Layer1
 10
279.726
 20
483.626
  0
VERTEX
  8
Layer1
 10
279.682
 20
483.093
  0
VERTEX
  8
Layer1
 10
279.548
 20
482.551
  0
VERTEX
  8
Layer1
 10
279.355
 20
482.003
  0
VERTEX
  8
Layer1
 10
279.134
 20
481.45
  0
VERTEX
  8
Layer1
 10
278.917
 20
480.894
  0
VERTEX
  8
Layer1
 10
278.725
 20
480.337
  0
VERTEX
  8
Layer1
 10
278.558
 20
479.779
  0
VERTEX
  8
Layer1
 10
278.416
 20
479.22
  0
VERTEX
  8
Layer1
 10
278.297
 20
478.659
  0
VERTEX
  8
Layer1
 10
278.202
 20
478.098
  0
VERTEX
  8
Layer1
 10
278.129
 20
477.536
  0
VERTEX
  8
Layer1
 10
278.078
 20
476.972
  0
VERTEX
  8
Layer1
 10
278.047
 20
476.408
  0
VERTEX
  8
Layer1
 10
278.037
 20
475.843
  0
VERTEX
  8
Layer1
 10
278.046
 20
475.277
  0
VERTEX
  8
Layer1
 10
278.073
 20
474.71
  0
VERTEX
  8
Layer1
 10
278.118
 20
474.142
  0
VERTEX
  8
Layer1
 10
278.18
 20
473.573
  0
VERTEX
  8
Layer1
 10
278.258
 20
473.004
  0
VERTEX
  8
Layer1
 10
278.352
 20
472.434
  0
VERTEX
  8
Layer1
 10
278.46
 20
471.864
  0
VERTEX
  8
Layer1
 10
278.582
 20
471.293
  0
VERTEX
  8
Layer1
 10
278.717
 20
470.721
  0
VERTEX
  8
Layer1
 10
278.865
 20
470.148
  0
VERTEX
  8
Layer1
 10
279.024
 20
469.575
  0
VERTEX
  8
Layer1
 10
279.194
 20
469.002
  0
VERTEX
  8
Layer1
 10
279.374
 20
468.428
  0
VERTEX
  8
Layer1
 10
279.563
 20
467.854
  0
VERTEX
  8
Layer1
 10
279.761
 20
467.279
  0
VERTEX
  8
Layer1
 10
279.966
 20
466.704
  0
VERTEX
  8
Layer1
 10
280.178
 20
466.129
  0
VERTEX
  8
Layer1
 10
280.397
 20
465.554
  0
VERTEX
  8
Layer1
 10
280.62
 20
464.978
  0
VERTEX
  8
Layer1
 10
280.849
 20
464.402
  0
VERTEX
  8
Layer1
 10
281.081
 20
463.826
  0
VERTEX
  8
Layer1
 10
281.317
 20
463.249
  0
VERTEX
  8
Layer1
 10
281.554
 20
462.673
  0
VERTEX
  8
Layer1
 10
281.793
 20
462.096
  0
VERTEX
  8
Layer1
 10
282.033
 20
461.52
  0
SEQEND
  0
LINE
  8
Layer1
  6
CONTINUOUS
 62
7
 10
290.635
 20
525.538
 11
298.635
 21
525.538
  0
LINE
  8
Layer1
  6
CONTINUOUS
 62
7
 10
299.635
 20
524.538
 11
299.635
 21
519.538
  0
LINE
  8
Layer1
  6
CONTINUOUS
 62
7
 10
289.635
 20
524.538
 11
289.635
 21
519.538
  0
LINE
  8
Layer1
  6
CONTINUOUS
 62
7
 10
300.135
 20
519.538
 11
289.135
 21
519.538
  0
LINE
  8
Layer1
  6
CONTINUOUS
 62
7
 10
290.635
 20
525.538
 11
289.635
 21
524.538
  0
LINE
  8
Layer1
  6
CONTINUOUS
 62
7
 10
300.135
 20
519.538
 11
300.135
 21
526.538
  0
LINE
  8
Layer1
  6
CONTINUOUS
 62
7
 10
289.135
 20
519.538
 11
289.135
 21
526.538
  0
LINE
  8
Layer1
  6
CONTINUOUS
 62
7
 10
299.635
 20
524.538
 11
289.635
 21
524.538
  0
LINE
  8
Layer1
  6
CONTINUOUS
 62
7
 10
299.635
 20
524.538
 11
299.635
 21
519.538
  0
LINE
  8
Layer1
  6
CONTINUOUS
 62
7
 10
298.635
 20
525.538
 11
299.635
 21
524.538
  0
LINE
  8
Layer1
  6
CONTINUOUS
 62
7
 10
299.635
 20
519.538
 11
299.635
 21
524.538
  0
LINE
  8
Layer1
  6
CONTINUOUS
 62
7
 10
299.135
 20
519.788
 11
299.135
 21
524.288
  0
LINE
  8
Layer1
  6
CONTINUOUS
 62
7
 10
298.135
 20
520.288
 11
298.135
 21
523.788
  0
LINE
  8
Layer1
  6
CONTINUOUS
 62
7
 10
297.135
 20
520.788
 11
297.135
 21
523.288
  0
LINE
  8
Layer1
  6
CONTINUOUS
 62
7
 10
283.45
 20
525.538
 11
283.45
 21
515.445
  0
LINE
  8
Layer1
  6
CONTINUOUS
 62
7
 10
276.45
 20
525.538
 11
276.45
 21
515.445
  0
LINE
  8
Layer1
  6
CONTINUOUS
 62
7
 10
283.45
 20
525.538
 11
276.45
 21
525.538
  0
LINE
  8
Layer1
  6
CONTINUOUS
 62
7
 10
275.45
 20
526.538
 11
276.45
 21
525.538
  0
LINE
  8
Layer1
  6
CONTINUOUS
 62
7
 10
283.45
 20
525.538
 11
284.45
 21
526.538
  0
LINE
  8
Layer1
  6
CONTINUOUS
 62
7
 10
283.45
 20
515.445
 11
284.45
 21
514.445
  0
LINE
  8
Layer1
  6
CONTINUOUS
 62
7
 10
276.45
 20
515.445
 11
275.45
 21
514.445
  0
LINE
  8
Layer1
  6
CONTINUOUS
 62
7
 10
276.45
 20
515.445
 11
283.45
 21
515.445
  0
LINE
  8
Layer1
  6
CONTINUOUS
 62
7
 10
284.209
 20
526.538
 11
285.286
 21
526.538
  0
LINE
  8
Layer1
  6
CONTINUOUS
 62
7
 10
276.209
 20
526.538
 11
274.401
 21
526.538
  0
LINE
  8
Layer1
  6
CONTINUOUS
 62
7
 10
267.367
 20
526.538
 11
269.333
 21
526.538
  0
LINE
  8
Layer1
  6
CENTER1
 62
7
 10
263.95
 20
530.965
 11
263.95
 21
454.785
  0
LINE
  8
Layer1
  6
CENTER1
 62
7
 10
294.95
 20
533.672
 11
294.95
 21
507.178
  0
LINE
  8
Layer1
  6
CENTER1
 62
7
 10
248.95
 20
507.945
 11
248.95
 21
534.376
  0
TEXT
  8
Layer1
 62
7
 10
239.95
 20
531.401
 72
1
 11
239.95
 21
531.401
 40
8
 41
1
  1
 2 
  0
LINE
  8
Layer1
  6
CONTINUOUS
 62
7
 10
238.95
 20
513.528
 11
238.95
 21
531.401
  0
LINE
  8
Layer1
  6
CONTINUOUS
 62
7
 10
240.95
 20
525.621
 11
240.95
 21
531.401
  0
POLYLINE
  8
Layer1
  6
CONTINUOUS
 62
7
 66
1
 10
0
 20
0
 30
0
  0
VERTEX
  8
Layer1
 10
233.95
 20
531.401
  0
VERTEX
  8
Layer1
 10
238.95
 20
531.401
  0
SEQEND
  0
POLYLINE
  8
Layer1
  6
CONTINUOUS
 62
7
 66
1
 10
0
 20
0
 30
0
 70
1
  0
VERTEX
  8
Layer1
 10
235.086
 20
532.436
  0
VERTEX
  8
Layer1
 10
238.95
 20
531.401
  0
VERTEX
  8
Layer1
 10
235.086
 20
530.366
  0
SEQEND
  0
POLYLINE
  8
Layer1
  6
CONTINUOUS
 62
7
 66
1
 10
0
 20
0
 30
0
  0
VERTEX
  8
Layer1
 10
245.95
 20
531.401
  0
VERTEX
  8
Layer1
 10
240.95
 20
531.401
  0
SEQEND
  0
POLYLINE
  8
Layer1
  6
CONTINUOUS
 62
7
 66
1
 10
0
 20
0
 30
0
 70
1
  0
VERTEX
  8
Layer1
 10
244.814
 20
530.366
  0
VERTEX
  8
Layer1
 10
240.95
 20
531.401
  0
VERTEX
  8
Layer1
 10
244.814
 20
532.436
  0
SEQEND
  0
LINE
  8
Layer1
  6
CONTINUOUS
 62
7
 10
238.95
 20
531.401
 11
240.95
 21
531.401
  0
POLYLINE
  8
Layer1
  6
CONTINUOUS
 62
7
 66
1
 10
0
 20
0
 30
0
  0
VERTEX
  8
Layer1
 10
297.007
 20
524.538
  0
VERTEX
  8
Layer1
 10
280.949
 20
565.302
  0
VERTEX
  8
Layer1
 10
280.949
 20
565.302
  0
SEQEND
  0
CIRCLE
  8
Layer1
  6
CONTINUOUS
 62
7
 10
297.007
 20
524.538
 40
1
  0
CIRCLE
  8
Layer1
  6
CONTINUOUS
 62
7
 10
279.394
 20
569.249
 40
4.24264
  0
TEXT
  8
Layer1
 62
7
 10
279.394
 20
569.249
 72
1
 73
2
 11
279.394
 21
569.249
 40
6
 41
1
  1
11
  0
POLYLINE
  8
Layer1
  6
CONTINUOUS
 62
7
 66
1
 10
0
 20
0
 30
0
  0
VERTEX
  8
Layer1
 10
255.801
 20
522.27
  0
VERTEX
  8
Layer1
 10
246.087
 20
565.622
  0
VERTEX
  8
Layer1
 10
246.087
 20
565.622
  0
SEQEND
  0
CIRCLE
  8
Layer1
  6
CONTINUOUS
 62
7
 10
255.801
 20
522.27
 40
1
  0
CIRCLE
  8
Layer1
  6
CONTINUOUS
 62
7
 10
245.353
 20
568.895
 40
3.3541
  0
TEXT
  8
Layer1
 62
7
 10
245.353
 20
568.895
 72
1
 73
2
 11
245.353
 21
568.895
 40
6
 41
1
  1
4
  0
POLYLINE
  8
Layer1
  6
CONTINUOUS
 62
7
 66
1
 10
0
 20
0
 30
0
  0
VERTEX
  8
Layer1
 10
274.239
 20
533.393
  0
VERTEX
  8
Layer1
 10
264.218
 20
566.174
  0
VERTEX
  8
Layer1
 10
264.218
 20
566.174
  0
SEQEND
  0
CIRCLE
  8
Layer1
  6
CONTINUOUS
 62
7
 10
274.239
 20
533.393
 40
1
  0
CIRCLE
  8
Layer1
  6
CONTINUOUS
 62
7
 10
263.238
 20
569.382
 40
3.3541
  0
TEXT
  8
Layer1
 62
7
 10
263.238
 20
569.382
 72
1
 73
2
 11
263.238
 21
569.382
 40
6
 41
1
  1
8
  0
POLYLINE
  8
Layer1
  6
CONTINUOUS
 62
7
 66
1
 10
0
 20
0
 30
0
  0
VERTEX
  8
Layer1
 10
308.413
 20
537.736
  0
VERTEX
  8
Layer1
 10
294.409
 20
565.679
  0
VERTEX
  8
Layer1
 10
294.409
 20
565.679
  0
SEQEND
  0
CIRCLE
  8
Layer1
  6
CONTINUOUS
 62
7
 10
308.413
 20
537.736
 40
1
  0
CIRCLE
  8
Layer1
  6
CONTINUOUS
 62
7
 10
292.509
 20
569.472
 40
4.24264
  0
TEXT
  8
Layer1
 62
7
 10
292.509
 20
569.472
 72
1
 73
2
 11
292.509
 21
569.472
 40
6
 41
1
  1
15
  0
LINE
  8
Layer1
  6
CONTINUOUS
 62
7
 10
301.95
 20
526.538
 11
302.95
 21
525.538
  0
LINE
  8
Layer1
  6
CONTINUOUS
 62
7
 10
302.95
 20
515.538
 11
302.95
 21
525.538
  0
LINE
  8
Layer1
  6
CONTINUOUS
 62
7
 10
267.45
 20
525.538
 11
267.45
 21
515.445
  0
LINE
  8
Layer1
  6
CONTINUOUS
 62
7
 10
260.45
 20
525.538
 11
260.45
 21
524.186
  0
LINE
  8
Layer1
  6
CONTINUOUS
 62
7
 10
267.45
 20
525.538
 11
260.45
 21
525.538
  0
LINE
  8
Layer1
  6
CONTINUOUS
 62
7
 10
259.45
 20
526.538
 11
260.45
 21
525.538
  0
LINE
  8
Layer1
  6
CONTINUOUS
 62
7
 10
267.45
 20
525.538
 11
268.45
 21
526.538
  0
LINE
  8
Layer1
  6
CONTINUOUS
 62
7
 10
71.4479
 20
515.351
 11
71.4479
 21
525.725
  0
LINE
  8
Layer1
  6
CONTINUOUS
 62
7
 10
72.2599
 20
526.538
 11
71.4479
 21
525.725
  0
LINE
  8
Layer1
  6
CONTINUOUS
 62
7
 10
71.4479
 20
515.351
 11
72.2599
 21
514.538
  0
LINE
  8
Layer1
  6
CONTINUOUS
 62
7
 10
71.4479
 20
462.538
 11
71.4479
 21
513.538
  0
LINE
  8
Layer1
  6
CONTINUOUS
 62
7
 10
85.4729
 20
514.538
 11
72.4729
 21
514.538
  0
LINE
  8
Layer1
  6
CONTINUOUS
 62
7
 10
72.4729
 20
514.538
 11
71.4729
 21
513.538
  0
LINE
  8
Layer1
  6
CONTINUOUS
 62
7
 10
71.4729
 20
462.538
 11
72.4729
 21
461.538
  0
POLYLINE
  8
Layer1
  6
DASHED1
 62
7
 66
1
 10
0
 20
0
 30
0
  0
VERTEX
  8
Layer1
 10
107.448
 20
512.569
  0
VERTEX
  8
Layer1
 10
107.396
 20
513.352
  0
VERTEX
  8
Layer1
 10
107.243
 20
514.122
  0
VERTEX
  8
Layer1
 10
106.991
 20
514.865
  0
VERTEX
  8
Layer1
 10
106.644
 20
515.569
  0
VERTEX
  8
Layer1
 10
106.208
 20
516.221
  0
VERTEX
  8
Layer1
 10
105.69
 20
516.811
  0
VERTEX
  8
Layer1
 10
105.1
 20
517.329
  0
VERTEX
  8
Layer1
 10
104.448
 20
517.765
  0
VERTEX
  8
Layer1
 10
103.744
 20
518.112
  0
VERTEX
  8
Layer1
 10
103.001
 20
518.364
  0
VERTEX
  8
Layer1
 10
102.231
 20
518.517
  0
VERTEX
  8
Layer1
 10
101.448
 20
518.569
  0
VERTEX
  8
Layer1
 10
100.665
 20
518.517
  0
VERTEX
  8
Layer1
 10
99.8949
 20
518.364
  0
VERTEX
  8
Layer1
 10
99.1519
 20
518.112
  0
VERTEX
  8
Layer1
 10
98.4479
 20
517.765
  0
VERTEX
  8
Layer1
 10
97.7949
 20
517.329
  0
VERTEX
  8
Layer1
 10
97.2049
 20
516.811
  0
VERTEX
  8
Layer1
 10
96.6879
 20
516.221
  0
VERTEX
  8
Layer1
 10
96.2519
 20
515.569
  0
VERTEX
  8
Layer1
 10
95.9039
 20
514.865
  0
VERTEX
  8
Layer1
 10
95.6519
 20
514.122
  0
VERTEX
  8
Layer1
 10
95.4989
 20
513.352
  0
VERTEX
  8
Layer1
 10
95.4479
 20
512.569
  0
SEQEND
  0
LINE
  8
Layer1
  6
CENTER1
 62
7
 10
80.4479
 20
575.658
 11
80.4479
 21
554.193
  0
LINE
  8
Layer1
  6
CENTER1
 62
7
 10
122.448
 20
575.658
 11
122.448
 21
554.328
  0
TEXT
  8
Layer1
 62
7
 10
339.95
 20
602.075
 72
1
 11
339.95
 21
602.075
 40
7
 41
1
  1
 8 
  0
LINE
  8
Layer1
  6
CONTINUOUS
 62
7
 10
343.95
 20
599.9
 11
343.95
 21
599.075
  0
POLYLINE
  8
Layer1
  6
CONTINUOUS
 62
7
 66
1
 10
0
 20
0
 30
0
  0
VERTEX
  8
Layer1
 10
327.95
 20
601.075
  0
VERTEX
  8
Layer1
 10
335.95
 20
601.075
  0
SEQEND
  0
POLYLINE
  8
Layer1
  6
CONTINUOUS
 62
7
 66
1
 10
0
 20
0
 30
0
  0
VERTEX
  8
Layer1
 10
333.052
 20
601.851
  0
VERTEX
  8
Layer1
 10
335.95
 20
601.075
  0
VERTEX
  8
Layer1
 10
333.052
 20
600.298
  0
SEQEND
  0
POLYLINE
  8
Layer1
  6
CONTINUOUS
 62
7
 66
1
 10
0
 20
0
 30
0
  0
VERTEX
  8
Layer1
 10
351.95
 20
601.075
  0
VERTEX
  8
Layer1
 10
343.95
 20
601.075
  0
SEQEND
  0
POLYLINE
  8
Layer1
  6
CONTINUOUS
 62
7
 66
1
 10
0
 20
0
 30
0
  0
VERTEX
  8
Layer1
 10
346.848
 20
600.298
  0
VERTEX
  8
Layer1
 10
343.95
 20
601.075
  0
VERTEX
  8
Layer1
 10
346.848
 20
601.851
  0
SEQEND
  0
LINE
  8
Layer1
  6
CONTINUOUS
 62
7
 10
335.95
 20
601.075
 11
343.95
 21
601.075
  0
TEXT
  8
Layer1
 62
7
 10
390.355
 20
649.538
 40
4
 41
1
 50
90
  1
アッパー
  0
TEXT
  8
Layer1
 62
7
 10
101.442
 20
445.143
 72
1
 11
101.442
 21
445.143
 40
7
 41
1
  1
 17 
  0
LINE
  8
Layer1
  6
CONTINUOUS
 62
7
 10
92.9479
 20
483.898
 11
92.9479
 21
442.143
  0
LINE
  8
Layer1
  6
CONTINUOUS
 62
7
 10
109.936
 20
497.538
 11
109.936
 21
442.143
  0
POLYLINE
  8
Layer1
  6
CONTINUOUS
 62
7
 66
1
 10
0
 20
0
 30
0
  0
VERTEX
  8
Layer1
 10
92.9479
 20
444.143
  0
VERTEX
  8
Layer1
 10
109.936
 20
444.143
  0
SEQEND
  0
POLYLINE
  8
Layer1
  6
CONTINUOUS
 62
7
 66
1
 10
0
 20
0
 30
0
  0
VERTEX
  8
Layer1
 10
95.8457
 20
443.366
  0
VERTEX
  8
Layer1
 10
92.9479
 20
444.143
  0
VERTEX
  8
Layer1
 10
95.8457
 20
444.919
  0
SEQEND
  0
POLYLINE
  8
Layer1
  6
CONTINUOUS
 62
7
 66
1
 10
0
 20
0
 30
0
  0
VERTEX
  8
Layer1
 10
107.038
 20
444.919
  0
VERTEX
  8
Layer1
 10
109.936
 20
444.143
  0
VERTEX
  8
Layer1
 10
107.038
 20
443.366
  0
SEQEND
  0
TEXT
  8
Layer1
 62
7
 10
101.448
 20
433.011
 72
1
 11
101.448
 21
433.011
 40
7
 41
1
  1
 30 
  0
LINE
  8
Layer1
  6
CONTINUOUS
 62
7
 10
86.4479
 20
486.431
 11
86.4479
 21
430.011
  0
LINE
  8
Layer1
  6
CONTINUOUS
 62
7
 10
116.448
 20
485.277
 11
116.448
 21
430.011
  0
POLYLINE
  8
Layer1
  6
CONTINUOUS
 62
7
 66
1
 10
0
 20
0
 30
0
  0
VERTEX
  8
Layer1
 10
86.4479
 20
432.011
  0
VERTEX
  8
Layer1
 10
116.448
 20
432.011
  0
SEQEND
  0
POLYLINE
  8
Layer1
  6
CONTINUOUS
 62
7
 66
1
 10
0
 20
0
 30
0
  0
VERTEX
  8
Layer1
 10
89.3457
 20
431.235
  0
VERTEX
  8
Layer1
 10
86.4479
 20
432.011
  0
VERTEX
  8
Layer1
 10
89.3457
 20
432.788
  0
SEQEND
  0
POLYLINE
  8
Layer1
  6
CONTINUOUS
 62
7
 66
1
 10
0
 20
0
 30
0
  0
VERTEX
  8
Layer1
 10
113.55
 20
432.788
  0
VERTEX
  8
Layer1
 10
116.448
 20
432.011
  0
VERTEX
  8
Layer1
 10
113.55
 20
431.235
  0
SEQEND
  0
ENDSEC
  0
EOF
