  0
SECTION
  2
HEADER
  9
$EXTMIN
 10
0
 20
0
  9
$EXTMAX
 10
1189
 20
841
  9
$LTSCALE
 40
1
  9
$LIMMIN
 10
0
 20
0
  9
$LIMMAX
 10
1189
 20
841
  9
$DIMSCALE
 40
1
  0
ENDSEC
  0
SECTION
  2
TABLES
  0
TABLE
  2
LTYPE
 70
9
  0
LTYPE
  2
CONTINUOUS
 70
64
  3
----------
 72
65
 73
0
 40
0
  0
LTYPE
  2
DASHED1
 70
64
  3
--  --  --  --  --  --  --  --  
 72
65
 73
2
 40
2.5
 49
1.25
 49
-1.25
  0
LTYPE
  2
DASHED2
 70
64
  3
----    ----    ----    ----    
 72
65
 73
2
 40
5
 49
2.5
 49
-2.5
  0
LTYPE
  2
DASHED3
 70
64
  3
------  ------  ------  ------  
 72
65
 73
2
 40
5
 49
3.75
 49
-1.25
  0
LTYPE
  2
CENTER1
 70
64
  3
----- - ----- - ----- - ----- - 
 72
65
 73
4
 40
7.5
 49
3.75
 49
-1.25
 49
1.25
 49
-1.25
  0
LTYPE
  2
CENTER2
 70
64
  3
----------  --  ----------  --  
 72
65
 73
4
 40
13.75
 49
6.25
 49
-2.5
 49
2.5
 49
-2.5
  0
LTYPE
  2
PHANTOM1
 70
64
  3
--- - - --- - - --- - - --- - - 
 72
65
 73
6
 40
9.5
 49
3.25
 49
-1.25
 49
1.25
 49
-1.25
 49
1.25
 49
-1.25
  0
LTYPE
  2
PHANTOM2
 70
64
  3
--------  -  -  --------  -  -  
 72
65
 73
6
 40
18
 49
8
 49
-2.5
 49
1.25
 49
-2.5
 49
1.25
 49
-2.5
  0
LTYPE
  2
DOT
 70
64
  3
-   -   -   -   -   -   -   -   
 72
65
 73
2
 40
2.5
 49
0.625
 49
-1.875
  0
LTYPE
  2
HOJO
 70
64
  3
-   -   -   -   -   -   -   -   
 72
65
 73
2
 40
2.5
 49
0.625
 49
-1.875
  0
ENDTAB
  0
TABLE
  2
STYLE
 70
2
  0
STYLE
  2
STANDARD
 70
64
 40
0
 41
1
 42
0
 50
0
 71
0
  3
TXT
  4
BIGFONT
  0
STYLE
  2
TATEGAKI
 70
68
 40
0
 41
1
 42
0
 50
0
 71
0
  3
TXT
  4
EXTFONT
  0
ENDTAB
  0
TABLE
  2
LAYER
 70
1
  0
LAYER
  2
Layer1
 70
64
 62
7
  6
CONTINUOUS
  0
ENDTAB
  0
ENDSEC
  0
SECTION
  2
ENTITIES
  0
LINE
  8
Layer1
  6
CONTINUOUS
 62
7
 10
521.335
 20
142.477
 11
207.335
 21
142.477
  0
LINE
  8
Layer1
  6
CENTER2
 62
7
 10
364.335
 20
328.789
 11
364.335
 21
129.094
  0
LINE
  8
Layer1
  6
CENTER2
 62
7
 10
621.559
 20
543.818
 11
874.063
 21
543.818
  0
LINE
  8
Layer1
  6
CONTINUOUS
 62
7
 10
464.335
 20
179.477
 11
264.335
 21
179.477
  0
LINE
  8
Layer1
  6
DASHED1
 62
7
 10
402.844
 20
250.938
 11
402.828
 21
250.922
  0
LINE
  8
Layer1
  6
CENTER1
 62
7
 10
245.544
 20
204.477
 11
480.842
 21
204.477
  0
LINE
  8
Layer1
  6
CONTINUOUS
 62
7
 10
720.04
 20
249.477
 11
720.04
 21
242.277
  0
CIRCLE
  8
Layer1
  6
CONTINUOUS
 62
7
 10
717.447
 20
623.886
 40
3.76681
  0
ARC
  8
Layer1
  6
CONTINUOUS
 62
7
 10
712.974
 20
623.921
 40
1
 50
140.711
 51
225
  0
LINE
  8
Layer1
  6
CONTINUOUS
 62
7
 10
721.957
 20
625.53
 11
724.22
 21
625.53
  0
LINE
  8
Layer1
  6
CONTINUOUS
 62
7
 10
721.957
 20
622.045
 11
724.22
 21
622.045
  0
LINE
  8
Layer1
  6
CONTINUOUS
 62
7
 10
724.22
 20
625.53
 11
724.22
 21
622.045
  0
ARC
  8
Layer1
  6
CONTINUOUS
 62
7
 10
717.447
 20
623.886
 40
4.80058
 50
20.031
 51
140.098
  0
ARC
  8
Layer1
  6
CONTINUOUS
 62
7
 10
717.447
 20
623.886
 40
4.80058
 50
218.056
 51
337.793
  0
ARC
  8
Layer1
  6
CONTINUOUS
 62
7
 10
704.554
 20
616.636
 40
10.1292
 50
24.1178
 51
40.4581
  0
ARC
  8
Layer1
  6
CONTINUOUS
 62
7
 10
704.493
 20
631.127
 40
10.1292
 50
319.542
 51
335.882
  0
ARC
  8
Layer1
  6
CONTINUOUS
 62
7
 10
723.088
 20
625.53
 40
0.542282
 50
0
 51
180
  0
ARC
  8
Layer1
  6
CONTINUOUS
 62
7
 10
723.088
 20
622.045
 40
0.657613
 50
180
 51
2.03555e-013
  0
LINE
  8
Layer1
  6
CONTINUOUS
 62
7
 10
280.36
 20
255.89
 11
288.205
 21
255.89
  0
LINE
  8
Layer1
  6
CONTINUOUS
 62
7
 10
280.032
 20
255.286
 11
288.507
 21
255.286
  0
LINE
  8
Layer1
  6
CONTINUOUS
 62
7
 10
279.937
 20
251.907
 11
288.386
 21
251.907
  0
LINE
  8
Layer1
  6
CONTINUOUS
 62
7
 10
289.11
 20
251.183
 11
279.213
 21
251.183
  0
LINE
  8
Layer1
  6
CONTINUOUS
 62
7
 10
289.11
 20
251.183
 11
289.11
 21
249.312
  0
LINE
  8
Layer1
  6
CONTINUOUS
 62
7
 10
279.213
 20
251.183
 11
279.213
 21
249.312
  0
POLYLINE
  8
Layer1
  6
CONTINUOUS
 62
7
 66
1
 10
0
 20
0
 30
0
  0
VERTEX
  8
Layer1
 10
284.155
 20
253.103
  0
VERTEX
  8
Layer1
 10
284.089
 20
253.16
  0
VERTEX
  8
Layer1
 10
284.023
 20
253.215
  0
VERTEX
  8
Layer1
 10
283.954
 20
253.269
  0
VERTEX
  8
Layer1
 10
283.885
 20
253.321
  0
VERTEX
  8
Layer1
 10
283.814
 20
253.371
  0
VERTEX
  8
Layer1
 10
283.742
 20
253.419
  0
VERTEX
  8
Layer1
 10
283.669
 20
253.465
  0
VERTEX
  8
Layer1
 10
283.594
 20
253.51
  0
VERTEX
  8
Layer1
 10
283.518
 20
253.552
  0
VERTEX
  8
Layer1
 10
283.442
 20
253.592
  0
VERTEX
  8
Layer1
 10
283.364
 20
253.631
  0
VERTEX
  8
Layer1
 10
283.285
 20
253.667
  0
VERTEX
  8
Layer1
 10
283.206
 20
253.702
  0
VERTEX
  8
Layer1
 10
283.125
 20
253.734
  0
VERTEX
  8
Layer1
 10
283.044
 20
253.764
  0
VERTEX
  8
Layer1
 10
282.962
 20
253.792
  0
VERTEX
  8
Layer1
 10
282.879
 20
253.818
  0
VERTEX
  8
Layer1
 10
282.796
 20
253.842
  0
VERTEX
  8
Layer1
 10
282.712
 20
253.863
  0
VERTEX
  8
Layer1
 10
282.627
 20
253.883
  0
VERTEX
  8
Layer1
 10
282.542
 20
253.9
  0
VERTEX
  8
Layer1
 10
282.457
 20
253.915
  0
VERTEX
  8
Layer1
 10
282.371
 20
253.928
  0
VERTEX
  8
Layer1
 10
282.285
 20
253.939
  0
VERTEX
  8
Layer1
 10
282.199
 20
253.947
  0
VERTEX
  8
Layer1
 10
282.112
 20
253.953
  0
VERTEX
  8
Layer1
 10
282.026
 20
253.957
  0
VERTEX
  8
Layer1
 10
281.939
 20
253.959
  0
VERTEX
  8
Layer1
 10
281.852
 20
253.958
  0
VERTEX
  8
Layer1
 10
281.765
 20
253.955
  0
VERTEX
  8
Layer1
 10
281.679
 20
253.95
  0
VERTEX
  8
Layer1
 10
281.593
 20
253.943
  0
VERTEX
  8
Layer1
 10
281.506
 20
253.933
  0
VERTEX
  8
Layer1
 10
281.42
 20
253.922
  0
VERTEX
  8
Layer1
 10
281.335
 20
253.908
  0
VERTEX
  8
Layer1
 10
281.25
 20
253.892
  0
VERTEX
  8
Layer1
 10
281.165
 20
253.873
  0
VERTEX
  8
Layer1
 10
281.081
 20
253.853
  0
VERTEX
  8
Layer1
 10
280.997
 20
253.83
  0
VERTEX
  8
Layer1
 10
280.914
 20
253.805
  0
VERTEX
  8
Layer1
 10
280.832
 20
253.778
  0
VERTEX
  8
Layer1
 10
280.75
 20
253.749
  0
VERTEX
  8
Layer1
 10
280.669
 20
253.717
  0
VERTEX
  8
Layer1
 10
280.589
 20
253.684
  0
VERTEX
  8
Layer1
 10
280.51
 20
253.649
  0
VERTEX
  8
Layer1
 10
280.432
 20
253.611
  0
VERTEX
  8
Layer1
 10
280.354
 20
253.572
  0
VERTEX
  8
Layer1
 10
280.278
 20
253.53
  0
SEQEND
  0
POLYLINE
  8
Layer1
  6
CONTINUOUS
 62
7
 66
1
 10
0
 20
0
 30
0
  0
VERTEX
  8
Layer1
 10
288.507
 20
253.476
  0
VERTEX
  8
Layer1
 10
288.42
 20
253.511
  0
VERTEX
  8
Layer1
 10
288.332
 20
253.545
  0
VERTEX
  8
Layer1
 10
288.243
 20
253.577
  0
VERTEX
  8
Layer1
 10
288.153
 20
253.607
  0
VERTEX
  8
Layer1
 10
288.063
 20
253.636
  0
VERTEX
  8
Layer1
 10
287.973
 20
253.662
  0
VERTEX
  8
Layer1
 10
287.881
 20
253.687
  0
VERTEX
  8
Layer1
 10
287.79
 20
253.71
  0
VERTEX
  8
Layer1
 10
287.698
 20
253.732
  0
VERTEX
  8
Layer1
 10
287.605
 20
253.751
  0
VERTEX
  8
Layer1
 10
287.513
 20
253.768
  0
VERTEX
  8
Layer1
 10
287.419
 20
253.784
  0
VERTEX
  8
Layer1
 10
287.326
 20
253.798
  0
VERTEX
  8
Layer1
 10
287.232
 20
253.81
  0
VERTEX
  8
Layer1
 10
287.138
 20
253.82
  0
VERTEX
  8
Layer1
 10
287.044
 20
253.828
  0
VERTEX
  8
Layer1
 10
286.95
 20
253.834
  0
VERTEX
  8
Layer1
 10
286.856
 20
253.838
  0
VERTEX
  8
Layer1
 10
286.761
 20
253.841
  0
VERTEX
  8
Layer1
 10
286.667
 20
253.841
  0
VERTEX
  8
Layer1
 10
286.573
 20
253.84
  0
VERTEX
  8
Layer1
 10
286.478
 20
253.837
  0
VERTEX
  8
Layer1
 10
286.384
 20
253.832
  0
VERTEX
  8
Layer1
 10
286.29
 20
253.825
  0
VERTEX
  8
Layer1
 10
286.196
 20
253.816
  0
VERTEX
  8
Layer1
 10
286.102
 20
253.805
  0
VERTEX
  8
Layer1
 10
286.008
 20
253.793
  0
VERTEX
  8
Layer1
 10
285.915
 20
253.778
  0
VERTEX
  8
Layer1
 10
285.822
 20
253.762
  0
VERTEX
  8
Layer1
 10
285.729
 20
253.744
  0
VERTEX
  8
Layer1
 10
285.637
 20
253.724
  0
VERTEX
  8
Layer1
 10
285.545
 20
253.702
  0
VERTEX
  8
Layer1
 10
285.454
 20
253.678
  0
VERTEX
  8
Layer1
 10
285.363
 20
253.653
  0
VERTEX
  8
Layer1
 10
285.272
 20
253.625
  0
VERTEX
  8
Layer1
 10
285.183
 20
253.596
  0
VERTEX
  8
Layer1
 10
285.093
 20
253.565
  0
VERTEX
  8
Layer1
 10
285.005
 20
253.532
  0
VERTEX
  8
Layer1
 10
284.917
 20
253.498
  0
VERTEX
  8
Layer1
 10
284.83
 20
253.462
  0
VERTEX
  8
Layer1
 10
284.743
 20
253.424
  0
VERTEX
  8
Layer1
 10
284.658
 20
253.384
  0
VERTEX
  8
Layer1
 10
284.573
 20
253.343
  0
VERTEX
  8
Layer1
 10
284.489
 20
253.3
  0
VERTEX
  8
Layer1
 10
284.405
 20
253.255
  0
VERTEX
  8
Layer1
 10
284.323
 20
253.208
  0
VERTEX
  8
Layer1
 10
284.242
 20
253.16
  0
VERTEX
  8
Layer1
 10
284.162
 20
253.111
  0
SEQEND
  0
LINE
  8
Layer1
  6
CONTINUOUS
 62
7
 10
280.624
 20
253.699
 11
280.29
 21
253.509
  0
LINE
  8
Layer1
  6
CONTINUOUS
 62
7
 10
280.36
 20
255.89
 11
279.5
 21
254.306
  0
LINE
  8
Layer1
  6
CONTINUOUS
 62
7
 10
288.205
 20
255.89
 11
289.092
 21
254.074
  0
LINE
  8
Layer1
  6
CONTINUOUS
 62
7
 10
288.023
 20
253.62
 11
288.507
 21
253.476
  0
POLYLINE
  8
Layer1
  6
CONTINUOUS
 62
7
 66
1
 10
0
 20
0
 30
0
  0
VERTEX
  8
Layer1
 10
279.5
 20
254.306
  0
VERTEX
  8
Layer1
 10
279.485
 20
254.278
  0
VERTEX
  8
Layer1
 10
279.472
 20
254.25
  0
VERTEX
  8
Layer1
 10
279.46
 20
254.221
  0
VERTEX
  8
Layer1
 10
279.449
 20
254.191
  0
VERTEX
  8
Layer1
 10
279.441
 20
254.16
  0
VERTEX
  8
Layer1
 10
279.433
 20
254.13
  0
VERTEX
  8
Layer1
 10
279.428
 20
254.098
  0
VERTEX
  8
Layer1
 10
279.424
 20
254.067
  0
VERTEX
  8
Layer1
 10
279.422
 20
254.035
  0
VERTEX
  8
Layer1
 10
279.422
 20
254.004
  0
VERTEX
  8
Layer1
 10
279.423
 20
253.972
  0
VERTEX
  8
Layer1
 10
279.427
 20
253.941
  0
VERTEX
  8
Layer1
 10
279.432
 20
253.909
  0
VERTEX
  8
Layer1
 10
279.438
 20
253.878
  0
VERTEX
  8
Layer1
 10
279.446
 20
253.848
  0
VERTEX
  8
Layer1
 10
279.456
 20
253.818
  0
VERTEX
  8
Layer1
 10
279.468
 20
253.788
  0
VERTEX
  8
Layer1
 10
279.481
 20
253.76
  0
VERTEX
  8
Layer1
 10
279.495
 20
253.732
  0
VERTEX
  8
Layer1
 10
279.512
 20
253.704
  0
VERTEX
  8
Layer1
 10
279.529
 20
253.678
  0
VERTEX
  8
Layer1
 10
279.548
 20
253.653
  0
VERTEX
  8
Layer1
 10
279.569
 20
253.629
  0
VERTEX
  8
Layer1
 10
279.59
 20
253.605
  0
VERTEX
  8
Layer1
 10
279.613
 20
253.584
  0
VERTEX
  8
Layer1
 10
279.637
 20
253.563
  0
VERTEX
  8
Layer1
 10
279.662
 20
253.544
  0
VERTEX
  8
Layer1
 10
279.688
 20
253.526
  0
VERTEX
  8
Layer1
 10
279.715
 20
253.51
  0
VERTEX
  8
Layer1
 10
279.743
 20
253.495
  0
VERTEX
  8
Layer1
 10
279.772
 20
253.481
  0
VERTEX
  8
Layer1
 10
279.801
 20
253.47
  0
VERTEX
  8
Layer1
 10
279.831
 20
253.459
  0
VERTEX
  8
Layer1
 10
279.862
 20
253.451
  0
VERTEX
  8
Layer1
 10
279.893
 20
253.444
  0
VERTEX
  8
Layer1
 10
279.924
 20
253.439
  0
VERTEX
  8
Layer1
 10
279.955
 20
253.435
  0
VERTEX
  8
Layer1
 10
279.987
 20
253.434
  0
VERTEX
  8
Layer1
 10
280.018
 20
253.434
  0
VERTEX
  8
Layer1
 10
280.05
 20
253.435
  0
VERTEX
  8
Layer1
 10
280.082
 20
253.439
  0
VERTEX
  8
Layer1
 10
280.113
 20
253.444
  0
VERTEX
  8
Layer1
 10
280.144
 20
253.451
  0
VERTEX
  8
Layer1
 10
280.174
 20
253.459
  0
VERTEX
  8
Layer1
 10
280.204
 20
253.469
  0
VERTEX
  8
Layer1
 10
280.233
 20
253.481
  0
VERTEX
  8
Layer1
 10
280.262
 20
253.494
  0
VERTEX
  8
Layer1
 10
280.29
 20
253.509
  0
SEQEND
  0
POLYLINE
  8
Layer1
  6
CONTINUOUS
 62
7
 66
1
 10
0
 20
0
 30
0
  0
VERTEX
  8
Layer1
 10
288.507
 20
253.476
  0
VERTEX
  8
Layer1
 10
288.528
 20
253.47
  0
VERTEX
  8
Layer1
 10
288.549
 20
253.465
  0
VERTEX
  8
Layer1
 10
288.57
 20
253.462
  0
VERTEX
  8
Layer1
 10
288.591
 20
253.459
  0
VERTEX
  8
Layer1
 10
288.612
 20
253.457
  0
VERTEX
  8
Layer1
 10
288.634
 20
253.456
  0
VERTEX
  8
Layer1
 10
288.655
 20
253.456
  0
VERTEX
  8
Layer1
 10
288.676
 20
253.457
  0
VERTEX
  8
Layer1
 10
288.698
 20
253.459
  0
VERTEX
  8
Layer1
 10
288.719
 20
253.462
  0
VERTEX
  8
Layer1
 10
288.74
 20
253.466
  0
VERTEX
  8
Layer1
 10
288.761
 20
253.471
  0
VERTEX
  8
Layer1
 10
288.781
 20
253.477
  0
VERTEX
  8
Layer1
 10
288.802
 20
253.484
  0
VERTEX
  8
Layer1
 10
288.822
 20
253.492
  0
VERTEX
  8
Layer1
 10
288.841
 20
253.5
  0
VERTEX
  8
Layer1
 10
288.86
 20
253.51
  0
VERTEX
  8
Layer1
 10
288.879
 20
253.52
  0
VERTEX
  8
Layer1
 10
288.898
 20
253.531
  0
VERTEX
  8
Layer1
 10
288.915
 20
253.543
  0
VERTEX
  8
Layer1
 10
288.932
 20
253.556
  0
VERTEX
  8
Layer1
 10
288.949
 20
253.569
  0
VERTEX
  8
Layer1
 10
288.965
 20
253.584
  0
VERTEX
  8
Layer1
 10
288.98
 20
253.599
  0
VERTEX
  8
Layer1
 10
288.995
 20
253.614
  0
VERTEX
  8
Layer1
 10
289.009
 20
253.631
  0
VERTEX
  8
Layer1
 10
289.022
 20
253.647
  0
VERTEX
  8
Layer1
 10
289.034
 20
253.665
  0
VERTEX
  8
Layer1
 10
289.046
 20
253.683
  0
VERTEX
  8
Layer1
 10
289.057
 20
253.701
  0
VERTEX
  8
Layer1
 10
289.066
 20
253.72
  0
VERTEX
  8
Layer1
 10
289.075
 20
253.74
  0
VERTEX
  8
Layer1
 10
289.084
 20
253.76
  0
VERTEX
  8
Layer1
 10
289.091
 20
253.78
  0
VERTEX
  8
Layer1
 10
289.097
 20
253.8
  0
VERTEX
  8
Layer1
 10
289.102
 20
253.821
  0
VERTEX
  8
Layer1
 10
289.107
 20
253.842
  0
VERTEX
  8
Layer1
 10
289.11
 20
253.863
  0
VERTEX
  8
Layer1
 10
289.113
 20
253.884
  0
VERTEX
  8
Layer1
 10
289.114
 20
253.906
  0
VERTEX
  8
Layer1
 10
289.115
 20
253.927
  0
VERTEX
  8
Layer1
 10
289.115
 20
253.948
  0
VERTEX
  8
Layer1
 10
289.113
 20
253.97
  0
VERTEX
  8
Layer1
 10
289.111
 20
253.991
  0
VERTEX
  8
Layer1
 10
289.108
 20
254.012
  0
VERTEX
  8
Layer1
 10
289.103
 20
254.033
  0
VERTEX
  8
Layer1
 10
289.098
 20
254.054
  0
VERTEX
  8
Layer1
 10
289.092
 20
254.074
  0
SEQEND
  0
LINE
  8
Layer1
  6
CONTINUOUS
 62
7
 10
287.229
 20
253.81
 11
287.229
 21
251.907
  0
LINE
  8
Layer1
  6
CONTINUOUS
 62
7
 10
281.084
 20
253.853
 11
281.084
 21
251.907
  0
LINE
  8
Layer1
  6
CONTINUOUS
 62
7
 10
279.937
 20
251.907
 11
279.213
 21
251.183
  0
LINE
  8
Layer1
  6
CONTINUOUS
 62
7
 10
288.386
 20
251.907
 11
289.11
 21
251.183
  0
LINE
  8
Layer1
  6
CONTINUOUS
 62
7
 10
718.686
 20
623.818
 11
716.394
 21
623.818
  0
POLYLINE
  8
Layer1
  6
DASHED1
 62
7
 66
1
 10
0
 20
0
 30
0
  0
VERTEX
  8
Layer1
 10
732.375
 20
632.347
  0
VERTEX
  8
Layer1
 10
732.36
 20
632.398
  0
VERTEX
  8
Layer1
 10
732.34
 20
632.46
  0
VERTEX
  8
Layer1
 10
732.318
 20
632.522
  0
VERTEX
  8
Layer1
 10
732.293
 20
632.583
  0
VERTEX
  8
Layer1
 10
732.268
 20
632.643
  0
VERTEX
  8
Layer1
 10
732.24
 20
632.702
  0
VERTEX
  8
Layer1
 10
732.21
 20
632.76
  0
VERTEX
  8
Layer1
 10
732.179
 20
632.818
  0
VERTEX
  8
Layer1
 10
732.144
 20
632.874
  0
VERTEX
  8
Layer1
 10
732.11
 20
632.929
  0
VERTEX
  8
Layer1
 10
732.093
 20
632.953
  0
SEQEND
  0
LINE
  8
Layer1
  6
DASHED1
 62
7
 10
702.447
 20
631.818
 11
702.447
 21
615.818
  0
LINE
  8
Layer1
  6
DASHED1
 62
7
 10
730.152
 20
613.818
 11
704.468
 21
613.818
  0
LINE
  8
Layer1
  6
DASHED1
 62
7
 10
729.95
 20
633.818
 11
704.447
 21
633.818
  0
LINE
  8
Layer1
  6
DASHED1
 62
7
 10
732.447
 20
631.605
 11
732.447
 21
615.898
  0
POLYLINE
  8
Layer1
  6
DASHED1
 62
7
 66
1
 10
0
 20
0
 30
0
  0
VERTEX
  8
Layer1
 10
731.163
 20
613.95
  0
VERTEX
  8
Layer1
 10
731.212
 20
613.97
  0
VERTEX
  8
Layer1
 10
731.272
 20
613.996
  0
VERTEX
  8
Layer1
 10
731.331
 20
614.024
  0
VERTEX
  8
Layer1
 10
731.389
 20
614.054
  0
VERTEX
  8
Layer1
 10
731.447
 20
614.086
  0
VERTEX
  8
Layer1
 10
731.503
 20
614.119
  0
VERTEX
  8
Layer1
 10
731.558
 20
614.155
  0
VERTEX
  8
Layer1
 10
731.612
 20
614.192
  0
VERTEX
  8
Layer1
 10
731.664
 20
614.231
  0
VERTEX
  8
Layer1
 10
731.715
 20
614.272
  0
VERTEX
  8
Layer1
 10
731.765
 20
614.314
  0
VERTEX
  8
Layer1
 10
731.814
 20
614.358
  0
VERTEX
  8
Layer1
 10
731.861
 20
614.403
  0
VERTEX
  8
Layer1
 10
731.906
 20
614.45
  0
VERTEX
  8
Layer1
 10
731.95
 20
614.499
  0
VERTEX
  8
Layer1
 10
731.993
 20
614.549
  0
VERTEX
  8
Layer1
 10
732.033
 20
614.6
  0
VERTEX
  8
Layer1
 10
732.072
 20
614.653
  0
VERTEX
  8
Layer1
 10
732.11
 20
614.706
  0
VERTEX
  8
Layer1
 10
732.144
 20
614.761
  0
VERTEX
  8
Layer1
 10
732.179
 20
614.818
  0
VERTEX
  8
Layer1
 10
732.21
 20
614.875
  0
VERTEX
  8
Layer1
 10
732.24
 20
614.933
  0
VERTEX
  8
Layer1
 10
732.25
 20
614.954
  0
SEQEND
  0
LINE
  8
Layer1
  6
CONTINUOUS
 62
7
 10
702.447
 20
615.818
 11
702.447
 21
615.763
  0
POLYLINE
  8
Layer1
  6
CONTINUOUS
 62
7
 66
1
 10
0
 20
0
 30
0
  0
VERTEX
  8
Layer1
 10
704.447
 20
633.818
  0
VERTEX
  8
Layer1
 10
704.381
 20
633.816
  0
VERTEX
  8
Layer1
 10
704.333
 20
633.814
  0
SEQEND
  0
LINE
  8
Layer1
  6
CONTINUOUS
 62
7
 10
704.447
 20
633.818
 11
705.546
 21
633.818
  0
LINE
  8
Layer1
  6
CONTINUOUS
 62
7
 10
704.468
 20
613.818
 11
705.546
 21
613.818
  0
LINE
  8
Layer1
  6
CONTINUOUS
 62
7
 10
702.447
 20
615.818
 11
702.447
 21
616.774
  0
LINE
  8
Layer1
  6
DASHED1
 62
7
 10
732.447
 20
617.044
 11
732.447
 21
615.898
  0
POLYLINE
  8
Layer1
  6
DASHED1
 62
7
 66
1
 10
0
 20
0
 30
0
  0
VERTEX
  8
Layer1
 10
731.23
 20
633.657
  0
VERTEX
  8
Layer1
 10
731.212
 20
633.665
  0
VERTEX
  8
Layer1
 10
731.151
 20
633.689
  0
VERTEX
  8
Layer1
 10
731.089
 20
633.711
  0
VERTEX
  8
Layer1
 10
731.027
 20
633.731
  0
VERTEX
  8
Layer1
 10
730.964
 20
633.749
  0
VERTEX
  8
Layer1
 10
730.901
 20
633.765
  0
VERTEX
  8
Layer1
 10
730.837
 20
633.779
  0
VERTEX
  8
Layer1
 10
730.772
 20
633.791
  0
VERTEX
  8
Layer1
 10
730.708
 20
633.8
  0
VERTEX
  8
Layer1
 10
730.643
 20
633.808
  0
VERTEX
  8
Layer1
 10
730.577
 20
633.813
  0
VERTEX
  8
Layer1
 10
730.556
 20
633.814
  0
SEQEND
  0
POLYLINE
  8
Layer1
  6
CONTINUOUS
 62
7
 66
1
 10
0
 20
0
 30
0
  0
VERTEX
  8
Layer1
 10
703.591
 20
633.625
  0
VERTEX
  8
Layer1
 10
703.562
 20
633.611
  0
VERTEX
  8
Layer1
 10
703.504
 20
633.581
  0
VERTEX
  8
Layer1
 10
703.447
 20
633.55
  0
VERTEX
  8
Layer1
 10
703.39
 20
633.516
  0
VERTEX
  8
Layer1
 10
703.335
 20
633.481
  0
VERTEX
  8
Layer1
 10
703.282
 20
633.443
  0
VERTEX
  8
Layer1
 10
703.229
 20
633.404
  0
VERTEX
  8
Layer1
 10
703.178
 20
633.364
  0
VERTEX
  8
Layer1
 10
703.128
 20
633.321
  0
VERTEX
  8
Layer1
 10
703.079
 20
633.277
  0
VERTEX
  8
Layer1
 10
703.032
 20
633.232
  0
VERTEX
  8
Layer1
 10
702.987
 20
633.185
  0
VERTEX
  8
Layer1
 10
702.943
 20
633.136
  0
VERTEX
  8
Layer1
 10
702.901
 20
633.086
  0
VERTEX
  8
Layer1
 10
702.86
 20
633.035
  0
VERTEX
  8
Layer1
 10
702.821
 20
632.983
  0
VERTEX
  8
Layer1
 10
702.784
 20
632.929
  0
VERTEX
  8
Layer1
 10
702.748
 20
632.874
  0
VERTEX
  8
Layer1
 10
702.715
 20
632.818
  0
VERTEX
  8
Layer1
 10
702.683
 20
632.76
  0
VERTEX
  8
Layer1
 10
702.678
 20
632.751
  0
SEQEND
  0
POLYLINE
  8
Layer1
  6
CONTINUOUS
 62
7
 66
1
 10
0
 20
0
 30
0
  0
VERTEX
  8
Layer1
 10
702.451
 20
631.942
  0
VERTEX
  8
Layer1
 10
702.447
 20
631.883
  0
VERTEX
  8
Layer1
 10
702.447
 20
631.818
  0
SEQEND
  0
POLYLINE
  8
Layer1
  6
CONTINUOUS
 62
7
 66
1
 10
0
 20
0
 30
0
  0
VERTEX
  8
Layer1
 10
702.612
 20
615.022
  0
VERTEX
  8
Layer1
 10
702.625
 20
614.992
  0
VERTEX
  8
Layer1
 10
702.653
 20
614.933
  0
VERTEX
  8
Layer1
 10
702.683
 20
614.875
  0
VERTEX
  8
Layer1
 10
702.715
 20
614.818
  0
VERTEX
  8
Layer1
 10
702.748
 20
614.761
  0
VERTEX
  8
Layer1
 10
702.784
 20
614.706
  0
VERTEX
  8
Layer1
 10
702.821
 20
614.653
  0
VERTEX
  8
Layer1
 10
702.86
 20
614.6
  0
VERTEX
  8
Layer1
 10
702.901
 20
614.549
  0
VERTEX
  8
Layer1
 10
702.943
 20
614.499
  0
VERTEX
  8
Layer1
 10
702.987
 20
614.45
  0
VERTEX
  8
Layer1
 10
703.032
 20
614.403
  0
VERTEX
  8
Layer1
 10
703.079
 20
614.358
  0
VERTEX
  8
Layer1
 10
703.128
 20
614.314
  0
VERTEX
  8
Layer1
 10
703.178
 20
614.272
  0
VERTEX
  8
Layer1
 10
703.229
 20
614.231
  0
VERTEX
  8
Layer1
 10
703.282
 20
614.192
  0
VERTEX
  8
Layer1
 10
703.335
 20
614.155
  0
VERTEX
  8
Layer1
 10
703.39
 20
614.119
  0
VERTEX
  8
Layer1
 10
703.447
 20
614.086
  0
VERTEX
  8
Layer1
 10
703.504
 20
614.054
  0
VERTEX
  8
Layer1
 10
703.562
 20
614.024
  0
VERTEX
  8
Layer1
 10
703.62
 20
613.996
  0
VERTEX
  8
Layer1
 10
703.681
 20
613.97
  0
VERTEX
  8
Layer1
 10
703.726
 20
613.952
  0
SEQEND
  0
LINE
  8
Layer1
  6
CONTINUOUS
 62
7
 10
766.04
 20
667.818
 11
766.04
 21
419.818
  0
LINE
  8
Layer1
  6
CONTINUOUS
 62
7
 10
668.04
 20
444.818
 11
668.04
 21
642.818
  0
LINE
  8
Layer1
  6
CONTINUOUS
 62
7
 10
644.04
 20
444.818
 11
644.04
 21
642.818
  0
LINE
  8
Layer1
  6
CENTER1
 62
7
 10
668.416
 20
398.818
 11
706.703
 21
398.818
  0
LINE
  8
Layer1
  6
CENTER1
 62
7
 10
717.447
 20
609.77
 11
717.447
 21
638.003
  0
LINE
  8
Layer1
  6
CENTER1
 62
7
 10
691.04
 20
701.818
 11
691.04
 21
674.287
  0
LINE
  8
Layer1
  6
CENTER1
 62
7
 10
751.04
 20
705.382
 11
751.04
 21
675.636
  0
LINE
  8
Layer1
  6
CENTER1
 62
7
 10
691.04
 20
412.372
 11
691.04
 21
385.263
  0
LINE
  8
Layer1
  6
CENTER1
 62
7
 10
751.04
 20
416.055
 11
751.04
 21
386.993
  0
LINE
  8
Layer1
  6
CENTER1
 62
7
 10
811.04
 20
382.424
 11
811.04
 21
411.828
  0
LINE
  8
Layer1
  6
CENTER1
 62
7
 10
811.04
 20
674.629
 11
811.04
 21
703.007
  0
LINE
  8
Layer1
  6
CENTER1
 62
7
 10
818.54
 20
418.939
 11
818.54
 21
452.104
  0
LINE
  8
Layer1
  6
CENTER1
 62
7
 10
818.54
 20
632.32
 11
818.54
 21
666.637
  0
LINE
  8
Layer1
  6
CENTER1
 62
7
 10
778.54
 20
419.393
 11
778.54
 21
451.421
  0
LINE
  8
Layer1
  6
CENTER1
 62
7
 10
778.54
 20
632.371
 11
778.54
 21
667.871
  0
LINE
  8
Layer1
  6
CONTINUOUS
 62
7
 10
413.335
 20
229.477
 11
315.335
 21
229.477
  0
LINE
  8
Layer1
  6
DASHED1
 62
7
 10
212.835
 20
169.477
 11
212.835
 21
142.477
  0
LINE
  8
Layer1
  6
CONTINUOUS
 62
7
 10
488.335
 20
322.477
 11
240.335
 21
322.477
  0
LINE
  8
Layer1
  6
DASHED1
 62
7
 10
339.335
 20
217.477
 11
270.335
 21
217.477
  0
LINE
  8
Layer1
  6
CONTINUOUS
 62
7
 10
240.335
 20
302.477
 11
267.335
 21
302.477
  0
LINE
  8
Layer1
  6
CONTINUOUS
 62
7
 10
488.335
 20
302.477
 11
461.335
 21
302.477
  0
LINE
  8
Layer1
  6
DASHED1
 62
7
 10
389.335
 20
217.477
 11
458.335
 21
217.477
  0
LINE
  8
Layer1
  6
CONTINUOUS
 62
7
 10
715.04
 20
249.477
 11
715.04
 21
242.277
  0
LINE
  8
Layer1
  6
CONTINUOUS
 62
7
 10
714.499
 20
247.883
 11
714.499
 21
242.277
  0
LINE
  8
Layer1
  6
CENTER2
 62
7
 10
636.993
 20
204.477
 11
814.593
 21
204.477
  0
LINE
  8
Layer1
  6
CONTINUOUS
 62
7
 10
831.04
 20
143.477
 11
831.04
 21
279.477
  0
LINE
  8
Layer1
  6
PHANTOM1
 62
7
 10
807.136
 20
149.997
 11
807.136
 21
155.487
  0
LINE
  8
Layer1
  6
CONTINUOUS
 62
7
 10
713.178
 20
258.647
 11
722.081
 21
258.647
  0
LINE
  8
Layer1
  6
CONTINUOUS
 62
7
 10
713.178
 20
256.333
 11
721.012
 21
256.333
  0
LINE
  8
Layer1
  6
CONTINUOUS
 62
7
 10
722.081
 20
258.647
 11
723.505
 21
256.985
  0
LINE
  8
Layer1
  6
CONTINUOUS
 62
7
 10
723.505
 20
256.333
 11
723.505
 21
256.985
  0
POLYLINE
  8
Layer1
  6
CONTINUOUS
 62
7
 66
1
 10
0
 20
0
 30
0
  0
VERTEX
  8
Layer1
 10
721.012
 20
256.333
  0
VERTEX
  8
Layer1
 10
721.014
 20
256.251
  0
VERTEX
  8
Layer1
 10
721.021
 20
256.169
  0
VERTEX
  8
Layer1
 10
721.034
 20
256.088
  0
VERTEX
  8
Layer1
 10
721.052
 20
256.008
  0
VERTEX
  8
Layer1
 10
721.075
 20
255.929
  0
VERTEX
  8
Layer1
 10
721.103
 20
255.852
  0
VERTEX
  8
Layer1
 10
721.137
 20
255.777
  0
VERTEX
  8
Layer1
 10
721.175
 20
255.704
  0
VERTEX
  8
Layer1
 10
721.218
 20
255.634
  0
VERTEX
  8
Layer1
 10
721.265
 20
255.567
  0
VERTEX
  8
Layer1
 10
721.317
 20
255.503
  0
VERTEX
  8
Layer1
 10
721.373
 20
255.443
  0
VERTEX
  8
Layer1
 10
721.432
 20
255.387
  0
VERTEX
  8
Layer1
 10
721.495
 20
255.334
  0
VERTEX
  8
Layer1
 10
721.562
 20
255.286
  0
VERTEX
  8
Layer1
 10
721.632
 20
255.243
  0
VERTEX
  8
Layer1
 10
721.704
 20
255.204
  0
VERTEX
  8
Layer1
 10
721.779
 20
255.17
  0
VERTEX
  8
Layer1
 10
721.855
 20
255.14
  0
VERTEX
  8
Layer1
 10
721.934
 20
255.116
  0
VERTEX
  8
Layer1
 10
722.014
 20
255.098
  0
VERTEX
  8
Layer1
 10
722.095
 20
255.084
  0
VERTEX
  8
Layer1
 10
722.177
 20
255.076
  0
VERTEX
  8
Layer1
 10
722.259
 20
255.073
  0
VERTEX
  8
Layer1
 10
722.341
 20
255.076
  0
VERTEX
  8
Layer1
 10
722.422
 20
255.084
  0
VERTEX
  8
Layer1
 10
722.503
 20
255.098
  0
VERTEX
  8
Layer1
 10
722.583
 20
255.116
  0
VERTEX
  8
Layer1
 10
722.662
 20
255.14
  0
VERTEX
  8
Layer1
 10
722.739
 20
255.17
  0
VERTEX
  8
Layer1
 10
722.813
 20
255.204
  0
VERTEX
  8
Layer1
 10
722.886
 20
255.243
  0
VERTEX
  8
Layer1
 10
722.955
 20
255.286
  0
VERTEX
  8
Layer1
 10
723.022
 20
255.334
  0
VERTEX
  8
Layer1
 10
723.085
 20
255.387
  0
VERTEX
  8
Layer1
 10
723.144
 20
255.443
  0
VERTEX
  8
Layer1
 10
723.2
 20
255.503
  0
VERTEX
  8
Layer1
 10
723.252
 20
255.567
  0
VERTEX
  8
Layer1
 10
723.298
 20
255.634
  0
VERTEX
  8
Layer1
 10
723.342
 20
255.704
  0
VERTEX
  8
Layer1
 10
723.38
 20
255.777
  0
VERTEX
  8
Layer1
 10
723.414
 20
255.852
  0
VERTEX
  8
Layer1
 10
723.442
 20
255.929
  0
VERTEX
  8
Layer1
 10
723.465
 20
256.008
  0
VERTEX
  8
Layer1
 10
723.483
 20
256.088
  0
VERTEX
  8
Layer1
 10
723.495
 20
256.169
  0
VERTEX
  8
Layer1
 10
723.503
 20
256.251
  0
VERTEX
  8
Layer1
 10
723.505
 20
256.333
  0
SEQEND
  0
LINE
  8
Layer1
  6
CONTINUOUS
 62
7
 10
713.178
 20
258.647
 11
710.764
 21
256.119
  0
LINE
  8
Layer1
  6
CONTINUOUS
 62
7
 10
713.178
 20
256.333
 11
711.753
 21
255.086
  0
POLYLINE
  8
Layer1
  6
CONTINUOUS
 62
7
 66
1
 10
0
 20
0
 30
0
  0
VERTEX
  8
Layer1
 10
710.764
 20
256.119
  0
VERTEX
  8
Layer1
 10
710.734
 20
256.085
  0
VERTEX
  8
Layer1
 10
710.706
 20
256.049
  0
VERTEX
  8
Layer1
 10
710.68
 20
256.012
  0
VERTEX
  8
Layer1
 10
710.657
 20
255.973
  0
VERTEX
  8
Layer1
 10
710.636
 20
255.932
  0
VERTEX
  8
Layer1
 10
710.618
 20
255.891
  0
VERTEX
  8
Layer1
 10
710.602
 20
255.848
  0
VERTEX
  8
Layer1
 10
710.589
 20
255.804
  0
VERTEX
  8
Layer1
 10
710.579
 20
255.76
  0
VERTEX
  8
Layer1
 10
710.572
 20
255.715
  0
VERTEX
  8
Layer1
 10
710.568
 20
255.67
  0
VERTEX
  8
Layer1
 10
710.566
 20
255.624
  0
VERTEX
  8
Layer1
 10
710.568
 20
255.579
  0
VERTEX
  8
Layer1
 10
710.572
 20
255.533
  0
VERTEX
  8
Layer1
 10
710.579
 20
255.489
  0
VERTEX
  8
Layer1
 10
710.59
 20
255.444
  0
VERTEX
  8
Layer1
 10
710.602
 20
255.401
  0
VERTEX
  8
Layer1
 10
710.618
 20
255.358
  0
VERTEX
  8
Layer1
 10
710.636
 20
255.316
  0
VERTEX
  8
Layer1
 10
710.657
 20
255.276
  0
VERTEX
  8
Layer1
 10
710.681
 20
255.237
  0
VERTEX
  8
Layer1
 10
710.707
 20
255.199
  0
VERTEX
  8
Layer1
 10
710.735
 20
255.164
  0
VERTEX
  8
Layer1
 10
710.765
 20
255.13
  0
VERTEX
  8
Layer1
 10
710.798
 20
255.098
  0
VERTEX
  8
Layer1
 10
710.832
 20
255.068
  0
VERTEX
  8
Layer1
 10
710.868
 20
255.041
  0
VERTEX
  8
Layer1
 10
710.906
 20
255.016
  0
VERTEX
  8
Layer1
 10
710.946
 20
254.993
  0
VERTEX
  8
Layer1
 10
710.987
 20
254.973
  0
VERTEX
  8
Layer1
 10
711.029
 20
254.956
  0
VERTEX
  8
Layer1
 10
711.072
 20
254.941
  0
VERTEX
  8
Layer1
 10
711.116
 20
254.929
  0
VERTEX
  8
Layer1
 10
711.16
 20
254.92
  0
VERTEX
  8
Layer1
 10
711.205
 20
254.913
  0
VERTEX
  8
Layer1
 10
711.25
 20
254.91
  0
VERTEX
  8
Layer1
 10
711.296
 20
254.909
  0
VERTEX
  8
Layer1
 10
711.341
 20
254.912
  0
VERTEX
  8
Layer1
 10
711.387
 20
254.917
  0
VERTEX
  8
Layer1
 10
711.431
 20
254.925
  0
VERTEX
  8
Layer1
 10
711.476
 20
254.936
  0
VERTEX
  8
Layer1
 10
711.519
 20
254.949
  0
VERTEX
  8
Layer1
 10
711.561
 20
254.966
  0
VERTEX
  8
Layer1
 10
711.603
 20
254.985
  0
VERTEX
  8
Layer1
 10
711.643
 20
255.007
  0
VERTEX
  8
Layer1
 10
711.681
 20
255.031
  0
VERTEX
  8
Layer1
 10
711.718
 20
255.057
  0
VERTEX
  8
Layer1
 10
711.753
 20
255.086
  0
SEQEND
  0
LINE
  8
Layer1
  6
CONTINUOUS
 62
7
 10
714.499
 20
256.333
 11
714.499
 21
253.21
  0
LINE
  8
Layer1
  6
CONTINUOUS
 62
7
 10
720.409
 20
256.333
 11
720.409
 21
253.21
  0
LINE
  8
Layer1
  6
CONTINUOUS
 62
7
 10
715.305
 20
243.057
 11
719.693
 21
243.057
  0
LINE
  8
Layer1
  6
CONTINUOUS
 62
7
 10
714.499
 20
243.606
 11
720.499
 21
243.606
  0
LINE
  8
Layer1
  6
CONTINUOUS
 62
7
 10
715.305
 20
243.057
 11
714.499
 21
243.606
  0
LINE
  8
Layer1
  6
CONTINUOUS
 62
7
 10
719.693
 20
243.057
 11
720.499
 21
243.606
  0
LINE
  8
Layer1
  6
CONTINUOUS
 62
7
 10
722.61
 20
249.477
 11
722.61
 21
252.564
  0
LINE
  8
Layer1
  6
CONTINUOUS
 62
7
 10
722.61
 20
252.564
 11
721.491
 21
253.21
  0
LINE
  8
Layer1
  6
CONTINUOUS
 62
7
 10
721.491
 20
253.21
 11
713.589
 21
253.21
  0
LINE
  8
Layer1
  6
CONTINUOUS
 62
7
 10
713.589
 20
253.21
 11
712.471
 21
252.564
  0
LINE
  8
Layer1
  6
CONTINUOUS
 62
7
 10
712.471
 20
252.564
 11
712.471
 21
249.477
  0
LINE
  8
Layer1
  6
CONTINUOUS
 62
7
 10
720.074
 20
249.477
 11
720.074
 21
252.564
  0
LINE
  8
Layer1
  6
CONTINUOUS
 62
7
 10
715.006
 20
249.477
 11
715.006
 21
252.564
  0
POLYLINE
  8
Layer1
  6
CONTINUOUS
 62
7
 66
1
 10
0
 20
0
 30
0
  0
VERTEX
  8
Layer1
 10
720.075
 20
252.564
  0
VERTEX
  8
Layer1
 10
719.971
 20
252.596
  0
VERTEX
  8
Layer1
 10
719.87
 20
252.626
  0
VERTEX
  8
Layer1
 10
719.766
 20
252.655
  0
VERTEX
  8
Layer1
 10
719.663
 20
252.683
  0
VERTEX
  8
Layer1
 10
719.559
 20
252.71
  0
VERTEX
  8
Layer1
 10
719.454
 20
252.735
  0
VERTEX
  8
Layer1
 10
719.35
 20
252.759
  0
VERTEX
  8
Layer1
 10
719.245
 20
252.781
  0
VERTEX
  8
Layer1
 10
719.14
 20
252.802
  0
VERTEX
  8
Layer1
 10
719.034
 20
252.822
  0
VERTEX
  8
Layer1
 10
718.929
 20
252.84
  0
VERTEX
  8
Layer1
 10
718.822
 20
252.858
  0
VERTEX
  8
Layer1
 10
718.716
 20
252.873
  0
VERTEX
  8
Layer1
 10
718.61
 20
252.888
  0
VERTEX
  8
Layer1
 10
718.504
 20
252.901
  0
VERTEX
  8
Layer1
 10
718.397
 20
252.912
  0
VERTEX
  8
Layer1
 10
718.29
 20
252.923
  0
VERTEX
  8
Layer1
 10
718.183
 20
252.931
  0
VERTEX
  8
Layer1
 10
718.076
 20
252.939
  0
VERTEX
  8
Layer1
 10
717.969
 20
252.945
  0
VERTEX
  8
Layer1
 10
717.862
 20
252.95
  0
VERTEX
  8
Layer1
 10
717.755
 20
252.953
  0
VERTEX
  8
Layer1
 10
717.647
 20
252.955
  0
VERTEX
  8
Layer1
 10
717.54
 20
252.956
  0
VERTEX
  8
Layer1
 10
717.433
 20
252.955
  0
VERTEX
  8
Layer1
 10
717.326
 20
252.953
  0
VERTEX
  8
Layer1
 10
717.218
 20
252.95
  0
VERTEX
  8
Layer1
 10
717.111
 20
252.945
  0
VERTEX
  8
Layer1
 10
717.004
 20
252.939
  0
VERTEX
  8
Layer1
 10
716.897
 20
252.931
  0
VERTEX
  8
Layer1
 10
716.79
 20
252.923
  0
VERTEX
  8
Layer1
 10
716.683
 20
252.912
  0
VERTEX
  8
Layer1
 10
716.577
 20
252.901
  0
VERTEX
  8
Layer1
 10
716.47
 20
252.888
  0
VERTEX
  8
Layer1
 10
716.364
 20
252.873
  0
VERTEX
  8
Layer1
 10
716.258
 20
252.858
  0
VERTEX
  8
Layer1
 10
716.152
 20
252.84
  0
VERTEX
  8
Layer1
 10
716.046
 20
252.822
  0
VERTEX
  8
Layer1
 10
715.941
 20
252.802
  0
VERTEX
  8
Layer1
 10
715.835
 20
252.781
  0
VERTEX
  8
Layer1
 10
715.73
 20
252.759
  0
VERTEX
  8
Layer1
 10
715.625
 20
252.735
  0
VERTEX
  8
Layer1
 10
715.522
 20
252.71
  0
VERTEX
  8
Layer1
 10
715.418
 20
252.683
  0
VERTEX
  8
Layer1
 10
715.314
 20
252.655
  0
VERTEX
  8
Layer1
 10
715.211
 20
252.626
  0
VERTEX
  8
Layer1
 10
715.108
 20
252.596
  0
VERTEX
  8
Layer1
 10
715.005
 20
252.564
  0
SEQEND
  0
POLYLINE
  8
Layer1
  6
CONTINUOUS
 62
7
 66
1
 10
0
 20
0
 30
0
  0
VERTEX
  8
Layer1
 10
722.61
 20
252.564
  0
VERTEX
  8
Layer1
 10
722.563
 20
252.595
  0
VERTEX
  8
Layer1
 10
722.515
 20
252.625
  0
VERTEX
  8
Layer1
 10
722.467
 20
252.654
  0
VERTEX
  8
Layer1
 10
722.418
 20
252.681
  0
VERTEX
  8
Layer1
 10
722.369
 20
252.708
  0
VERTEX
  8
Layer1
 10
722.318
 20
252.733
  0
VERTEX
  8
Layer1
 10
722.268
 20
252.756
  0
VERTEX
  8
Layer1
 10
722.216
 20
252.779
  0
VERTEX
  8
Layer1
 10
722.164
 20
252.8
  0
VERTEX
  8
Layer1
 10
722.112
 20
252.82
  0
VERTEX
  8
Layer1
 10
722.059
 20
252.839
  0
VERTEX
  8
Layer1
 10
722.005
 20
252.856
  0
VERTEX
  8
Layer1
 10
721.952
 20
252.872
  0
VERTEX
  8
Layer1
 10
721.897
 20
252.886
  0
VERTEX
  8
Layer1
 10
721.843
 20
252.9
  0
VERTEX
  8
Layer1
 10
721.788
 20
252.911
  0
VERTEX
  8
Layer1
 10
721.733
 20
252.922
  0
VERTEX
  8
Layer1
 10
721.678
 20
252.931
  0
VERTEX
  8
Layer1
 10
721.622
 20
252.939
  0
VERTEX
  8
Layer1
 10
721.566
 20
252.945
  0
VERTEX
  8
Layer1
 10
721.51
 20
252.95
  0
VERTEX
  8
Layer1
 10
721.454
 20
252.953
  0
VERTEX
  8
Layer1
 10
721.398
 20
252.955
  0
VERTEX
  8
Layer1
 10
721.342
 20
252.956
  0
VERTEX
  8
Layer1
 10
721.286
 20
252.955
  0
VERTEX
  8
Layer1
 10
721.23
 20
252.953
  0
VERTEX
  8
Layer1
 10
721.173
 20
252.95
  0
VERTEX
  8
Layer1
 10
721.118
 20
252.945
  0
VERTEX
  8
Layer1
 10
721.062
 20
252.939
  0
VERTEX
  8
Layer1
 10
721.007
 20
252.931
  0
VERTEX
  8
Layer1
 10
720.951
 20
252.922
  0
VERTEX
  8
Layer1
 10
720.896
 20
252.911
  0
VERTEX
  8
Layer1
 10
720.841
 20
252.9
  0
VERTEX
  8
Layer1
 10
720.787
 20
252.886
  0
VERTEX
  8
Layer1
 10
720.732
 20
252.872
  0
VERTEX
  8
Layer1
 10
720.679
 20
252.856
  0
VERTEX
  8
Layer1
 10
720.625
 20
252.839
  0
VERTEX
  8
Layer1
 10
720.572
 20
252.82
  0
VERTEX
  8
Layer1
 10
720.519
 20
252.8
  0
VERTEX
  8
Layer1
 10
720.468
 20
252.779
  0
VERTEX
  8
Layer1
 10
720.416
 20
252.756
  0
VERTEX
  8
Layer1
 10
720.366
 20
252.733
  0
VERTEX
  8
Layer1
 10
720.315
 20
252.708
  0
VERTEX
  8
Layer1
 10
720.266
 20
252.681
  0
VERTEX
  8
Layer1
 10
720.217
 20
252.654
  0
VERTEX
  8
Layer1
 10
720.168
 20
252.625
  0
VERTEX
  8
Layer1
 10
720.12
 20
252.595
  0
VERTEX
  8
Layer1
 10
720.075
 20
252.564
  0
SEQEND
  0
POLYLINE
  8
Layer1
  6
CONTINUOUS
 62
7
 66
1
 10
0
 20
0
 30
0
  0
VERTEX
  8
Layer1
 10
715.006
 20
252.564
  0
VERTEX
  8
Layer1
 10
714.959
 20
252.595
  0
VERTEX
  8
Layer1
 10
714.912
 20
252.625
  0
VERTEX
  8
Layer1
 10
714.863
 20
252.654
  0
VERTEX
  8
Layer1
 10
714.814
 20
252.681
  0
VERTEX
  8
Layer1
 10
714.765
 20
252.708
  0
VERTEX
  8
Layer1
 10
714.715
 20
252.733
  0
VERTEX
  8
Layer1
 10
714.664
 20
252.756
  0
VERTEX
  8
Layer1
 10
714.612
 20
252.779
  0
VERTEX
  8
Layer1
 10
714.56
 20
252.8
  0
VERTEX
  8
Layer1
 10
714.508
 20
252.82
  0
VERTEX
  8
Layer1
 10
714.455
 20
252.839
  0
VERTEX
  8
Layer1
 10
714.402
 20
252.856
  0
VERTEX
  8
Layer1
 10
714.348
 20
252.872
  0
VERTEX
  8
Layer1
 10
714.293
 20
252.886
  0
VERTEX
  8
Layer1
 10
714.239
 20
252.9
  0
VERTEX
  8
Layer1
 10
714.184
 20
252.911
  0
VERTEX
  8
Layer1
 10
714.129
 20
252.922
  0
VERTEX
  8
Layer1
 10
714.074
 20
252.931
  0
VERTEX
  8
Layer1
 10
714.018
 20
252.939
  0
VERTEX
  8
Layer1
 10
713.962
 20
252.945
  0
VERTEX
  8
Layer1
 10
713.906
 20
252.95
  0
VERTEX
  8
Layer1
 10
713.85
 20
252.953
  0
VERTEX
  8
Layer1
 10
713.793
 20
252.955
  0
VERTEX
  8
Layer1
 10
713.738
 20
252.956
  0
VERTEX
  8
Layer1
 10
713.682
 20
252.955
  0
VERTEX
  8
Layer1
 10
713.625
 20
252.953
  0
VERTEX
  8
Layer1
 10
713.57
 20
252.95
  0
VERTEX
  8
Layer1
 10
713.514
 20
252.945
  0
VERTEX
  8
Layer1
 10
713.458
 20
252.939
  0
VERTEX
  8
Layer1
 10
713.403
 20
252.931
  0
VERTEX
  8
Layer1
 10
713.346
 20
252.922
  0
VERTEX
  8
Layer1
 10
713.292
 20
252.911
  0
VERTEX
  8
Layer1
 10
713.237
 20
252.9
  0
VERTEX
  8
Layer1
 10
713.183
 20
252.886
  0
VERTEX
  8
Layer1
 10
713.129
 20
252.872
  0
VERTEX
  8
Layer1
 10
713.075
 20
252.856
  0
VERTEX
  8
Layer1
 10
713.021
 20
252.839
  0
VERTEX
  8
Layer1
 10
712.968
 20
252.82
  0
VERTEX
  8
Layer1
 10
712.916
 20
252.8
  0
VERTEX
  8
Layer1
 10
712.864
 20
252.779
  0
VERTEX
  8
Layer1
 10
712.813
 20
252.756
  0
VERTEX
  8
Layer1
 10
712.762
 20
252.733
  0
VERTEX
  8
Layer1
 10
712.712
 20
252.708
  0
VERTEX
  8
Layer1
 10
712.662
 20
252.681
  0
VERTEX
  8
Layer1
 10
712.613
 20
252.654
  0
VERTEX
  8
Layer1
 10
712.565
 20
252.625
  0
VERTEX
  8
Layer1
 10
712.517
 20
252.595
  0
VERTEX
  8
Layer1
 10
712.471
 20
252.564
  0
SEQEND
  0
POLYLINE
  8
Layer1
  6
CONTINUOUS
 62
7
 66
1
 10
0
 20
0
 30
0
 70
1
  0
VERTEX
  8
Layer1
 10
722.805
 20
256.32
  0
VERTEX
  8
Layer1
 10
722.8
 20
256.391
  0
VERTEX
  8
Layer1
 10
722.786
 20
256.461
  0
VERTEX
  8
Layer1
 10
722.763
 20
256.529
  0
VERTEX
  8
Layer1
 10
722.731
 20
256.593
  0
VERTEX
  8
Layer1
 10
722.692
 20
256.652
  0
VERTEX
  8
Layer1
 10
722.644
 20
256.706
  0
VERTEX
  8
Layer1
 10
722.591
 20
256.753
  0
VERTEX
  8
Layer1
 10
722.532
 20
256.793
  0
VERTEX
  8
Layer1
 10
722.468
 20
256.824
  0
VERTEX
  8
Layer1
 10
722.399
 20
256.847
  0
VERTEX
  8
Layer1
 10
722.33
 20
256.861
  0
VERTEX
  8
Layer1
 10
722.259
 20
256.866
  0
VERTEX
  8
Layer1
 10
722.187
 20
256.861
  0
VERTEX
  8
Layer1
 10
722.117
 20
256.847
  0
VERTEX
  8
Layer1
 10
722.05
 20
256.824
  0
VERTEX
  8
Layer1
 10
721.986
 20
256.793
  0
VERTEX
  8
Layer1
 10
721.926
 20
256.753
  0
VERTEX
  8
Layer1
 10
721.873
 20
256.706
  0
VERTEX
  8
Layer1
 10
721.825
 20
256.652
  0
VERTEX
  8
Layer1
 10
721.786
 20
256.593
  0
VERTEX
  8
Layer1
 10
721.754
 20
256.529
  0
VERTEX
  8
Layer1
 10
721.731
 20
256.461
  0
VERTEX
  8
Layer1
 10
721.717
 20
256.391
  0
VERTEX
  8
Layer1
 10
721.713
 20
256.32
  0
VERTEX
  8
Layer1
 10
721.717
 20
256.249
  0
VERTEX
  8
Layer1
 10
721.731
 20
256.179
  0
VERTEX
  8
Layer1
 10
721.754
 20
256.111
  0
VERTEX
  8
Layer1
 10
721.786
 20
256.047
  0
VERTEX
  8
Layer1
 10
721.825
 20
255.987
  0
VERTEX
  8
Layer1
 10
721.873
 20
255.934
  0
VERTEX
  8
Layer1
 10
721.926
 20
255.887
  0
VERTEX
  8
Layer1
 10
721.986
 20
255.847
  0
VERTEX
  8
Layer1
 10
722.05
 20
255.815
  0
VERTEX
  8
Layer1
 10
722.117
 20
255.792
  0
VERTEX
  8
Layer1
 10
722.187
 20
255.779
  0
VERTEX
  8
Layer1
 10
722.259
 20
255.774
  0
VERTEX
  8
Layer1
 10
722.33
 20
255.779
  0
VERTEX
  8
Layer1
 10
722.399
 20
255.792
  0
VERTEX
  8
Layer1
 10
722.468
 20
255.815
  0
VERTEX
  8
Layer1
 10
722.532
 20
255.847
  0
VERTEX
  8
Layer1
 10
722.591
 20
255.887
  0
VERTEX
  8
Layer1
 10
722.644
 20
255.934
  0
VERTEX
  8
Layer1
 10
722.692
 20
255.987
  0
VERTEX
  8
Layer1
 10
722.731
 20
256.047
  0
VERTEX
  8
Layer1
 10
722.763
 20
256.111
  0
VERTEX
  8
Layer1
 10
722.786
 20
256.179
  0
VERTEX
  8
Layer1
 10
722.8
 20
256.249
  0
SEQEND
  0
LINE
  8
Layer1
  6
CONTINUOUS
 62
7
 10
714.499
 20
239.477
 11
714.499
 21
249.477
  0
LINE
  8
Layer1
  6
CONTINUOUS
 62
7
 10
720.499
 20
239.477
 11
720.499
 21
249.477
  0
LINE
  8
Layer1
  6
CONTINUOUS
 62
7
 10
712.471
 20
249.477
 11
722.61
 21
249.477
  0
LINE
  8
Layer1
  6
CONTINUOUS
 62
7
 10
795.352
 20
149.997
 11
798.18
 21
149.997
  0
LINE
  8
Layer1
  6
CONTINUOUS
 62
7
 10
793.467
 20
166.475
 11
796.295
 21
166.475
  0
LINE
  8
Layer1
  6
CONTINUOUS
 62
7
 10
795.352
 20
155.509
 11
798.18
 21
155.509
  0
LINE
  8
Layer1
  6
CONTINUOUS
 62
7
 10
796.295
 20
171.957
 11
796.295
 21
166.475
  0
LINE
  8
Layer1
  6
CONTINUOUS
 62
7
 10
793.467
 20
171.957
 11
793.467
 21
166.475
  0
LINE
  8
Layer1
  6
CONTINUOUS
 62
7
 10
795.352
 20
155.509
 11
795.352
 21
149.997
  0
LINE
  8
Layer1
  6
CONTINUOUS
 62
7
 10
798.18
 20
155.509
 11
798.18
 21
149.997
  0
LINE
  8
Layer1
  6
CONTINUOUS
 62
7
 10
793.467
 20
166.475
 11
795.352
 21
155.509
  0
LINE
  8
Layer1
  6
CONTINUOUS
 62
7
 10
796.295
 20
166.475
 11
798.18
 21
155.509
  0
LINE
  8
Layer1
  6
CONTINUOUS
 62
7
 10
794.409
 20
160.992
 11
795.352
 21
149.997
  0
LINE
  8
Layer1
  6
CONTINUOUS
 62
7
 10
796.53
 20
171.957
 11
797.237
 21
160.992
  0
LINE
  8
Layer1
  6
CONTINUOUS
 62
7
 10
784.039
 20
149.997
 11
786.867
 21
149.997
  0
LINE
  8
Layer1
  6
CONTINUOUS
 62
7
 10
784.982
 20
171.957
 11
782.154
 21
171.957
  0
LINE
  8
Layer1
  6
CONTINUOUS
 62
7
 10
782.154
 20
166.475
 11
784.982
 21
166.475
  0
LINE
  8
Layer1
  6
CONTINUOUS
 62
7
 10
784.039
 20
155.509
 11
786.867
 21
155.509
  0
LINE
  8
Layer1
  6
CONTINUOUS
 62
7
 10
784.982
 20
171.957
 11
784.982
 21
166.475
  0
LINE
  8
Layer1
  6
CONTINUOUS
 62
7
 10
782.154
 20
171.957
 11
782.154
 21
166.475
  0
LINE
  8
Layer1
  6
CONTINUOUS
 62
7
 10
784.039
 20
155.509
 11
784.039
 21
149.997
  0
LINE
  8
Layer1
  6
CONTINUOUS
 62
7
 10
786.867
 20
155.509
 11
786.867
 21
149.997
  0
LINE
  8
Layer1
  6
CONTINUOUS
 62
7
 10
782.154
 20
166.475
 11
784.039
 21
155.509
  0
LINE
  8
Layer1
  6
CONTINUOUS
 62
7
 10
784.982
 20
166.475
 11
786.867
 21
155.509
  0
LINE
  8
Layer1
  6
CONTINUOUS
 62
7
 10
783.096
 20
160.992
 11
784.039
 21
149.997
  0
LINE
  8
Layer1
  6
CONTINUOUS
 62
7
 10
785.218
 20
171.957
 11
785.925
 21
160.992
  0
LINE
  8
Layer1
  6
CONTINUOUS
 62
7
 10
796.295
 20
171.957
 11
793.467
 21
171.957
  0
LINE
  8
Layer1
  6
CONTINUOUS
 62
7
 10
790.638
 20
171.957
 11
787.81
 21
171.957
  0
LINE
  8
Layer1
  6
CONTINUOUS
 62
7
 10
789.696
 20
149.997
 11
792.524
 21
149.997
  0
LINE
  8
Layer1
  6
CONTINUOUS
 62
7
 10
795.352
 20
149.997
 11
798.18
 21
149.997
  0
LINE
  8
Layer1
  6
CONTINUOUS
 62
7
 10
796.295
 20
171.957
 11
793.467
 21
171.957
  0
LINE
  8
Layer1
  6
CONTINUOUS
 62
7
 10
793.467
 20
166.475
 11
796.295
 21
166.475
  0
LINE
  8
Layer1
  6
CONTINUOUS
 62
7
 10
795.352
 20
155.509
 11
798.18
 21
155.509
  0
LINE
  8
Layer1
  6
CONTINUOUS
 62
7
 10
796.295
 20
171.957
 11
796.295
 21
166.475
  0
LINE
  8
Layer1
  6
CONTINUOUS
 62
7
 10
793.467
 20
171.957
 11
793.467
 21
166.475
  0
LINE
  8
Layer1
  6
CONTINUOUS
 62
7
 10
795.352
 20
155.509
 11
795.352
 21
149.997
  0
LINE
  8
Layer1
  6
CONTINUOUS
 62
7
 10
798.18
 20
155.509
 11
798.18
 21
149.997
  0
LINE
  8
Layer1
  6
CONTINUOUS
 62
7
 10
793.467
 20
166.475
 11
795.352
 21
155.509
  0
LINE
  8
Layer1
  6
CONTINUOUS
 62
7
 10
796.295
 20
166.475
 11
798.18
 21
155.509
  0
LINE
  8
Layer1
  6
CONTINUOUS
 62
7
 10
794.409
 20
160.992
 11
795.352
 21
149.997
  0
LINE
  8
Layer1
  6
CONTINUOUS
 62
7
 10
796.53
 20
171.957
 11
797.237
 21
160.992
  0
LINE
  8
Layer1
  6
CONTINUOUS
 62
7
 10
790.638
 20
171.957
 11
787.81
 21
171.957
  0
LINE
  8
Layer1
  6
CONTINUOUS
 62
7
 10
787.81
 20
166.475
 11
790.638
 21
166.475
  0
LINE
  8
Layer1
  6
CONTINUOUS
 62
7
 10
789.696
 20
155.509
 11
792.524
 21
155.509
  0
LINE
  8
Layer1
  6
CONTINUOUS
 62
7
 10
790.638
 20
171.957
 11
790.638
 21
166.475
  0
LINE
  8
Layer1
  6
CONTINUOUS
 62
7
 10
787.81
 20
171.957
 11
787.81
 21
166.475
  0
LINE
  8
Layer1
  6
CONTINUOUS
 62
7
 10
789.696
 20
155.509
 11
789.696
 21
151.946
  0
LINE
  8
Layer1
  6
CONTINUOUS
 62
7
 10
792.524
 20
155.509
 11
792.524
 21
150.683
  0
LINE
  8
Layer1
  6
CONTINUOUS
 62
7
 10
787.81
 20
166.475
 11
789.696
 21
155.509
  0
LINE
  8
Layer1
  6
CONTINUOUS
 62
7
 10
790.638
 20
166.475
 11
792.524
 21
155.509
  0
LINE
  8
Layer1
  6
CONTINUOUS
 62
7
 10
788.753
 20
160.992
 11
789.519
 21
152.041
  0
LINE
  8
Layer1
  6
CONTINUOUS
 62
7
 10
790.874
 20
171.957
 11
791.581
 21
160.992
  0
LINE
  8
Layer1
  6
CONTINUOUS
 62
7
 10
789.696
 20
149.997
 11
789.485
 21
152.45
  0
LINE
  8
Layer1
  6
CONTINUOUS
 62
7
 10
789.696
 20
151.946
 11
789.696
 21
149.997
  0
LINE
  8
Layer1
  6
CONTINUOUS
 62
7
 10
792.524
 20
150.683
 11
792.524
 21
149.997
  0
LINE
  8
Layer1
  6
CONTINUOUS
 62
7
 10
831.056
 20
307.477
 11
831.068
 21
321.477
  0
LINE
  8
Layer1
  6
CONTINUOUS
 62
7
 10
731.04
 20
239.477
 11
704.04
 21
239.477
  0
LINE
  8
Layer1
  6
CONTINUOUS
 62
7
 10
732.54
 20
230.477
 11
732.54
 21
237.977
  0
LINE
  8
Layer1
  6
CONTINUOUS
 62
7
 10
702.54
 20
230.477
 11
702.54
 21
237.977
  0
LINE
  8
Layer1
  6
CENTER2
 62
7
 10
717.54
 20
258.413
 11
717.54
 21
228.181
  0
ARC
  8
Layer1
  6
CONTINUOUS
 62
7
 10
731.04
 20
237.977
 40
1.5
 50
2.03555e-013
 51
90
  0
POLYLINE
  8
Layer1
  6
CONTINUOUS
 62
7
 66
1
 10
0
 20
0
 30
0
  0
VERTEX
  8
Layer1
 10
704.04
 20
239.477
  0
VERTEX
  8
Layer1
 10
703.991
 20
239.477
  0
VERTEX
  8
Layer1
 10
703.942
 20
239.474
  0
VERTEX
  8
Layer1
 10
703.893
 20
239.47
  0
VERTEX
  8
Layer1
 10
703.844
 20
239.465
  0
VERTEX
  8
Layer1
 10
703.796
 20
239.457
  0
VERTEX
  8
Layer1
 10
703.748
 20
239.449
  0
VERTEX
  8
Layer1
 10
703.7
 20
239.438
  0
VERTEX
  8
Layer1
 10
703.652
 20
239.426
  0
VERTEX
  8
Layer1
 10
703.605
 20
239.413
  0
VERTEX
  8
Layer1
 10
703.558
 20
239.398
  0
VERTEX
  8
Layer1
 10
703.512
 20
239.381
  0
VERTEX
  8
Layer1
 10
703.466
 20
239.363
  0
VERTEX
  8
Layer1
 10
703.421
 20
239.344
  0
VERTEX
  8
Layer1
 10
703.377
 20
239.323
  0
VERTEX
  8
Layer1
 10
703.333
 20
239.3
  0
VERTEX
  8
Layer1
 10
703.29
 20
239.276
  0
VERTEX
  8
Layer1
 10
703.248
 20
239.251
  0
VERTEX
  8
Layer1
 10
703.207
 20
239.225
  0
VERTEX
  8
Layer1
 10
703.166
 20
239.197
  0
VERTEX
  8
Layer1
 10
703.127
 20
239.167
  0
VERTEX
  8
Layer1
 10
703.089
 20
239.137
  0
VERTEX
  8
Layer1
 10
703.051
 20
239.105
  0
VERTEX
  8
Layer1
 10
703.015
 20
239.072
  0
VERTEX
  8
Layer1
 10
702.979
 20
239.038
  0
VERTEX
  8
Layer1
 10
702.945
 20
239.003
  0
VERTEX
  8
Layer1
 10
702.912
 20
238.966
  0
VERTEX
  8
Layer1
 10
702.881
 20
238.929
  0
VERTEX
  8
Layer1
 10
702.85
 20
238.891
  0
VERTEX
  8
Layer1
 10
702.821
 20
238.851
  0
VERTEX
  8
Layer1
 10
702.793
 20
238.811
  0
VERTEX
  8
Layer1
 10
702.766
 20
238.77
  0
VERTEX
  8
Layer1
 10
702.741
 20
238.727
  0
VERTEX
  8
Layer1
 10
702.717
 20
238.685
  0
VERTEX
  8
Layer1
 10
702.695
 20
238.641
  0
VERTEX
  8
Layer1
 10
702.673
 20
238.597
  0
VERTEX
  8
Layer1
 10
702.654
 20
238.551
  0
VERTEX
  8
Layer1
 10
702.636
 20
238.506
  0
VERTEX
  8
Layer1
 10
702.62
 20
238.46
  0
VERTEX
  8
Layer1
 10
702.605
 20
238.413
  0
VERTEX
  8
Layer1
 10
702.591
 20
238.366
  0
VERTEX
  8
Layer1
 10
702.579
 20
238.318
  0
VERTEX
  8
Layer1
 10
702.569
 20
238.27
  0
VERTEX
  8
Layer1
 10
702.56
 20
238.222
  0
VERTEX
  8
Layer1
 10
702.553
 20
238.173
  0
VERTEX
  8
Layer1
 10
702.547
 20
238.124
  0
VERTEX
  8
Layer1
 10
702.543
 20
238.076
  0
VERTEX
  8
Layer1
 10
702.541
 20
238.027
  0
VERTEX
  8
Layer1
 10
702.54
 20
237.977
  0
SEQEND
  0
LINE
  8
Layer1
  6
CONTINUOUS
 62
7
 10
701.54
 20
229.477
 11
699.857
 21
229.477
  0
ARC
  8
Layer1
  6
CONTINUOUS
 62
7
 10
733.54
 20
230.477
 40
1
 50
180
 51
270
  0
ARC
  8
Layer1
  6
CONTINUOUS
 62
7
 10
701.54
 20
230.477
 40
1
 50
270
 51
2.03555e-013
  0
LINE
  8
Layer1
  6
CONTINUOUS
 62
7
 10
720.04
 20
244.477
 11
720.04
 21
239.477
  0
LINE
  8
Layer1
  6
CONTINUOUS
 62
7
 10
715.04
 20
244.477
 11
715.04
 21
239.477
  0
LINE
  8
Layer1
  6
CONTINUOUS
 62
7
 10
720.54
 20
248.477
 11
714.54
 21
248.477
  0
LINE
  8
Layer1
  6
CONTINUOUS
 62
7
 10
717.54
 20
248.477
 11
717.54
 21
247.864
  0
LINE
  8
Layer1
  6
CONTINUOUS
 62
7
 10
767.04
 20
322.477
 11
830.069
 21
322.477
  0
LINE
  8
Layer1
  6
CONTINUOUS
 62
7
 10
830.055
 20
302.477
 11
767.04
 21
302.477
  0
LINE
  8
Layer1
  6
CONTINUOUS
 62
7
 10
763.04
 20
249.477
 11
672.04
 21
249.477
  0
LINE
  8
Layer1
  6
PHANTOM1
 62
7
 10
667.04
 20
229.477
 11
645.04
 21
229.477
  0
LINE
  8
Layer1
  6
CONTINUOUS
 62
7
 10
830.04
 20
142.477
 11
672.04
 21
142.477
  0
LINE
  8
Layer1
  6
CONTINUOUS
 62
7
 10
671.04
 20
230.477
 11
671.04
 21
248.477
  0
LINE
  8
Layer1
  6
CONTINUOUS
 62
7
 10
668.04
 20
180.477
 11
668.04
 21
228.477
  0
LINE
  8
Layer1
  6
PHANTOM1
 62
7
 10
644.04
 20
180.477
 11
644.04
 21
228.477
  0
LINE
  8
Layer1
  6
PHANTOM1
 62
7
 10
667.04
 20
179.477
 11
645.04
 21
179.477
  0
LINE
  8
Layer1
  6
PHANTOM1
 62
7
 10
645.04
 20
229.477
 11
644.04
 21
228.477
  0
LINE
  8
Layer1
  6
PHANTOM1
 62
7
 10
644.04
 20
180.477
 11
645.04
 21
179.477
  0
LINE
  8
Layer1
  6
CONTINUOUS
 62
7
 10
798.04
 20
229.477
 11
672.04
 21
229.477
  0
LINE
  8
Layer1
  6
PHANTOM1
 62
7
 10
667.04
 20
179.477
 11
668.04
 21
180.477
  0
LINE
  8
Layer1
  6
PHANTOM1
 62
7
 10
667.04
 20
229.477
 11
668.04
 21
228.477
  0
LINE
  8
Layer1
  6
CONTINUOUS
 62
7
 10
668.04
 20
228.477
 11
669.04
 21
229.477
  0
LINE
  8
Layer1
  6
CONTINUOUS
 62
7
 10
672.04
 20
229.477
 11
671.04
 21
228.477
  0
LINE
  8
Layer1
  6
CONTINUOUS
 62
7
 10
672.04
 20
249.477
 11
671.04
 21
248.477
  0
LINE
  8
Layer1
  6
CONTINUOUS
 62
7
 10
671.04
 20
228.477
 11
671.04
 21
161.477
  0
LINE
  8
Layer1
  6
CONTINUOUS
 62
7
 10
671.04
 20
230.477
 11
672.04
 21
229.477
  0
LINE
  8
Layer1
  6
CONTINUOUS
 62
7
 10
668.04
 20
180.477
 11
669.04
 21
179.477
  0
LINE
  8
Layer1
  6
CONTINUOUS
 62
7
 10
671.04
 20
166.477
 11
671.04
 21
143.477
  0
LINE
  8
Layer1
  6
CONTINUOUS
 62
7
 10
671.04
 20
143.477
 11
672.04
 21
142.477
  0
LINE
  8
Layer1
  6
CONTINUOUS
 62
7
 10
766.04
 20
263.477
 11
766.04
 21
307.477
  0
LINE
  8
Layer1
  6
CONTINUOUS
 62
7
 10
830.069
 20
322.477
 11
831.068
 21
321.477
  0
LINE
  8
Layer1
  6
CONTINUOUS
 62
7
 10
767.04
 20
322.477
 11
766.04
 21
321.477
  0
LINE
  8
Layer1
  6
CONTINUOUS
 62
7
 10
810.333
 20
218.185
 11
766.747
 21
261.77
  0
LINE
  8
Layer1
  6
CONTINUOUS
 62
7
 10
764.04
 20
230.477
 11
764.04
 21
248.477
  0
LINE
  8
Layer1
  6
CONTINUOUS
 62
7
 10
764.04
 20
248.477
 11
763.04
 21
249.477
  0
LINE
  8
Layer1
  6
CONTINUOUS
 62
7
 10
764.04
 20
230.477
 11
763.04
 21
229.477
  0
LINE
  8
Layer1
  6
CONTINUOUS
 62
7
 10
812.04
 20
217.477
 11
827.983
 21
217.477
  0
LINE
  8
Layer1
  6
CONTINUOUS
 62
7
 10
766.04
 20
263.477
 11
766.747
 21
261.77
  0
LINE
  8
Layer1
  6
CONTINUOUS
 62
7
 10
810.333
 20
218.185
 11
812.04
 21
217.477
  0
ARC
  8
Layer1
  6
CONTINUOUS
 62
7
 10
827.983
 20
220.477
 40
3
 50
270
 51
359.952
  0
LINE
  8
Layer1
  6
CONTINUOUS
 62
7
 10
799.747
 20
228.77
 11
828.333
 21
200.185
  0
LINE
  8
Layer1
  6
CONTINUOUS
 62
7
 10
829.04
 20
198.477
 11
829.04
 21
180.477
  0
LINE
  8
Layer1
  6
CONTINUOUS
 62
7
 10
828.04
 20
179.477
 11
829.04
 21
180.477
  0
LINE
  8
Layer1
  6
CONTINUOUS
 62
7
 10
829.04
 20
198.477
 11
828.333
 21
200.185
  0
LINE
  8
Layer1
  6
CONTINUOUS
 62
7
 10
798.04
 20
229.477
 11
799.747
 21
228.77
  0
LINE
  8
Layer1
  6
CONTINUOUS
 62
7
 10
831.04
 20
143.477
 11
830.04
 21
142.477
  0
LINE
  8
Layer1
  6
CONTINUOUS
 62
7
 10
860.04
 20
152.477
 11
832.086
 21
152.477
  0
LINE
  8
Layer1
  6
CONTINUOUS
 62
7
 10
831.04
 20
166.477
 11
831.04
 21
153.477
  0
LINE
  8
Layer1
  6
CONTINUOUS
 62
7
 10
831.04
 20
153.477
 11
832.04
 21
152.477
  0
LINE
  8
Layer1
  6
CONTINUOUS
 62
7
 10
860.04
 20
240.477
 11
832.086
 21
240.477
  0
LINE
  8
Layer1
  6
CONTINUOUS
 62
7
 10
831.04
 20
239.477
 11
832.04
 21
240.477
  0
LINE
  8
Layer1
  6
CENTER1
 62
7
 10
824.206
 20
189.477
 11
875.984
 21
189.477
  0
LINE
  8
Layer1
  6
CONTINUOUS
 62
7
 10
766.04
 20
307.477
 11
766.04
 21
321.477
  0
LINE
  8
Layer1
  6
CONTINUOUS
 62
7
 10
831.056
 20
307.477
 11
830.983
 21
220.475
  0
LINE
  8
Layer1
  6
CONTINUOUS
 62
7
 10
766.04
 20
303.477
 11
767.04
 21
302.477
  0
LINE
  8
Layer1
  6
CONTINUOUS
 62
7
 10
830.055
 20
302.477
 11
831.056
 21
303.477
  0
LINE
  8
Layer1
  6
CENTER1
 62
7
 10
818.54
 20
300.354
 11
818.54
 21
325.887
  0
LINE
  8
Layer1
  6
CENTER1
 62
7
 10
778.54
 20
299.66
 11
778.54
 21
325.194
  0
LINE
  8
Layer1
  6
CENTER1
 62
7
 10
829.456
 20
172.477
 11
872.471
 21
172.477
  0
LINE
  8
Layer1
  6
CENTER1
 62
7
 10
826.004
 20
215.477
 11
869.828
 21
215.477
  0
LINE
  8
Layer1
  6
CENTER1
 62
7
 10
747.54
 20
223.741
 11
747.54
 21
251.763
  0
LINE
  8
Layer1
  6
CONTINUOUS
 62
7
 10
754.04
 20
236.977
 11
754.04
 21
229.477
  0
LINE
  8
Layer1
  6
CENTER1
 62
7
 10
820.54
 20
194.291
 11
820.54
 21
159.582
  0
LINE
  8
Layer1
  6
CONTINUOUS
 62
7
 10
811.54
 20
174.977
 11
829.04
 21
174.977
  0
LINE
  8
Layer1
  6
CONTINUOUS
 62
7
 10
807.04
 20
149.477
 11
807.04
 21
179.477
  0
LINE
  8
Layer1
  6
CONTINUOUS
 62
7
 10
811.54
 20
149.477
 11
811.54
 21
174.977
  0
LINE
  8
Layer1
  6
CONTINUOUS
 62
7
 10
807.04
 20
149.477
 11
811.54
 21
149.477
  0
LINE
  8
Layer1
  6
CONTINUOUS
 62
7
 10
829.04
 20
174.977
 11
829.04
 21
179.477
  0
LINE
  8
Layer1
  6
CONTINUOUS
 62
7
 10
807.04
 20
179.477
 11
829.04
 21
179.477
  0
LINE
  8
Layer1
  6
CONTINUOUS
 62
7
 10
805.04
 20
165.977
 11
805.04
 21
155.977
  0
LINE
  8
Layer1
  6
CENTER1
 62
7
 10
798.957
 20
160.977
 11
815.315
 21
160.977
  0
LINE
  8
Layer1
  6
CONTINUOUS
 62
7
 10
805.04
 20
165.977
 11
807.04
 21
165.977
  0
LINE
  8
Layer1
  6
CONTINUOUS
 62
7
 10
805.04
 20
155.977
 11
807.04
 21
155.977
  0
LINE
  8
Layer1
  6
CONTINUOUS
 62
7
 10
813.79
 20
174.977
 11
813.79
 21
167.477
  0
LINE
  8
Layer1
  6
CONTINUOUS
 62
7
 10
826.79
 20
174.977
 11
826.79
 21
167.477
  0
LINE
  8
Layer1
  6
CONTINUOUS
 62
7
 10
813.79
 20
167.477
 11
826.79
 21
167.477
  0
LINE
  8
Layer1
  6
CONTINUOUS
 62
7
 10
814.29
 20
166.977
 11
826.29
 21
166.977
  0
LINE
  8
Layer1
  6
CONTINUOUS
 62
7
 10
813.79
 20
167.477
 11
814.29
 21
166.977
  0
LINE
  8
Layer1
  6
CONTINUOUS
 62
7
 10
826.79
 20
167.477
 11
826.29
 21
166.977
  0
LINE
  8
Layer1
  6
CONTINUOUS
 62
7
 10
826.79
 20
174.977
 11
813.79
 21
174.977
  0
LINE
  8
Layer1
  6
CONTINUOUS
 62
7
 10
825.79
 20
174.401
 11
825.79
 21
168.054
  0
LINE
  8
Layer1
  6
CONTINUOUS
 62
7
 10
824.79
 20
173.824
 11
824.79
 21
168.631
  0
LINE
  8
Layer1
  6
CONTINUOUS
 62
7
 10
823.79
 20
173.247
 11
823.79
 21
169.208
  0
LINE
  8
Layer1
  6
CONTINUOUS
 62
7
 10
822.79
 20
172.67
 11
822.79
 21
169.785
  0
LINE
  8
Layer1
  6
CONTINUOUS
 62
7
 10
807.136
 20
171.957
 11
807.136
 21
149.997
  0
LINE
  8
Layer1
  6
CONTINUOUS
 62
7
 10
807.136
 20
171.957
 11
804.779
 21
171.957
  0
LINE
  8
Layer1
  6
CONTINUOUS
 62
7
 10
801.008
 20
149.997
 11
803.837
 21
149.997
  0
LINE
  8
Layer1
  6
CONTINUOUS
 62
7
 10
801.951
 20
171.957
 11
799.123
 21
171.957
  0
LINE
  8
Layer1
  6
CONTINUOUS
 62
7
 10
799.123
 20
166.475
 11
801.951
 21
166.475
  0
LINE
  8
Layer1
  6
CONTINUOUS
 62
7
 10
801.008
 20
155.509
 11
803.837
 21
155.509
  0
LINE
  8
Layer1
  6
CONTINUOUS
 62
7
 10
801.951
 20
171.957
 11
801.951
 21
166.475
  0
LINE
  8
Layer1
  6
CONTINUOUS
 62
7
 10
799.123
 20
171.957
 11
799.123
 21
166.475
  0
LINE
  8
Layer1
  6
CONTINUOUS
 62
7
 10
801.008
 20
155.509
 11
801.008
 21
149.997
  0
LINE
  8
Layer1
  6
CONTINUOUS
 62
7
 10
803.837
 20
155.509
 11
803.837
 21
149.997
  0
LINE
  8
Layer1
  6
CONTINUOUS
 62
7
 10
799.123
 20
166.475
 11
801.008
 21
155.509
  0
LINE
  8
Layer1
  6
CONTINUOUS
 62
7
 10
801.951
 20
166.475
 11
803.837
 21
155.509
  0
LINE
  8
Layer1
  6
CONTINUOUS
 62
7
 10
800.066
 20
160.992
 11
801.008
 21
149.997
  0
LINE
  8
Layer1
  6
CONTINUOUS
 62
7
 10
802.187
 20
171.957
 11
802.894
 21
160.992
  0
LINE
  8
Layer1
  6
CONTINUOUS
 62
7
 10
806.665
 20
149.997
 11
807.136
 21
149.997
  0
LINE
  8
Layer1
  6
CONTINUOUS
 62
7
 10
804.779
 20
166.475
 11
807.136
 21
166.467
  0
LINE
  8
Layer1
  6
CONTINUOUS
 62
7
 10
806.665
 20
155.509
 11
807.136
 21
155.487
  0
LINE
  8
Layer1
  6
CONTINUOUS
 62
7
 10
804.779
 20
171.957
 11
804.779
 21
166.475
  0
LINE
  8
Layer1
  6
CONTINUOUS
 62
7
 10
806.665
 20
155.509
 11
806.665
 21
149.997
  0
LINE
  8
Layer1
  6
CONTINUOUS
 62
7
 10
804.779
 20
166.475
 11
806.665
 21
155.509
  0
LINE
  8
Layer1
  6
CONTINUOUS
 62
7
 10
805.721
 20
160.992
 11
806.665
 21
149.997
  0
LINE
  8
Layer1
  6
CONTINUOUS
 62
7
 10
778.383
 20
149.997
 11
781.211
 21
149.997
  0
LINE
  8
Layer1
  6
CONTINUOUS
 62
7
 10
776.497
 20
166.475
 11
779.326
 21
166.475
  0
LINE
  8
Layer1
  6
CONTINUOUS
 62
7
 10
778.383
 20
155.509
 11
781.211
 21
155.509
  0
LINE
  8
Layer1
  6
CONTINUOUS
 62
7
 10
779.326
 20
171.957
 11
779.326
 21
166.475
  0
LINE
  8
Layer1
  6
CONTINUOUS
 62
7
 10
776.497
 20
171.957
 11
776.497
 21
166.475
  0
LINE
  8
Layer1
  6
CONTINUOUS
 62
7
 10
778.383
 20
155.509
 11
778.383
 21
149.997
  0
LINE
  8
Layer1
  6
CONTINUOUS
 62
7
 10
781.211
 20
155.509
 11
781.211
 21
149.997
  0
LINE
  8
Layer1
  6
CONTINUOUS
 62
7
 10
776.497
 20
166.475
 11
778.383
 21
155.509
  0
LINE
  8
Layer1
  6
CONTINUOUS
 62
7
 10
779.326
 20
166.475
 11
781.211
 21
155.509
  0
LINE
  8
Layer1
  6
CONTINUOUS
 62
7
 10
777.44
 20
160.992
 11
778.383
 21
149.997
  0
LINE
  8
Layer1
  6
CONTINUOUS
 62
7
 10
779.561
 20
171.957
 11
780.268
 21
160.992
  0
LINE
  8
Layer1
  6
CONTINUOUS
 62
7
 10
767.07
 20
149.997
 11
769.898
 21
149.997
  0
LINE
  8
Layer1
  6
CONTINUOUS
 62
7
 10
768.013
 20
171.957
 11
765.185
 21
171.957
  0
LINE
  8
Layer1
  6
CONTINUOUS
 62
7
 10
765.185
 20
166.475
 11
768.013
 21
166.475
  0
LINE
  8
Layer1
  6
CONTINUOUS
 62
7
 10
767.07
 20
155.509
 11
769.898
 21
155.509
  0
LINE
  8
Layer1
  6
CONTINUOUS
 62
7
 10
768.013
 20
171.957
 11
768.013
 21
166.475
  0
LINE
  8
Layer1
  6
CONTINUOUS
 62
7
 10
765.185
 20
171.957
 11
765.185
 21
166.475
  0
LINE
  8
Layer1
  6
CONTINUOUS
 62
7
 10
767.07
 20
155.509
 11
767.07
 21
149.997
  0
LINE
  8
Layer1
  6
CONTINUOUS
 62
7
 10
769.898
 20
155.509
 11
769.898
 21
149.997
  0
LINE
  8
Layer1
  6
CONTINUOUS
 62
7
 10
765.185
 20
166.475
 11
767.07
 21
155.509
  0
LINE
  8
Layer1
  6
CONTINUOUS
 62
7
 10
768.013
 20
166.475
 11
769.898
 21
155.509
  0
LINE
  8
Layer1
  6
CONTINUOUS
 62
7
 10
766.127
 20
160.992
 11
767.07
 21
149.997
  0
LINE
  8
Layer1
  6
CONTINUOUS
 62
7
 10
768.249
 20
171.957
 11
768.956
 21
160.992
  0
LINE
  8
Layer1
  6
CONTINUOUS
 62
7
 10
779.326
 20
171.957
 11
776.497
 21
171.957
  0
LINE
  8
Layer1
  6
CONTINUOUS
 62
7
 10
773.668
 20
171.957
 11
770.841
 21
171.957
  0
LINE
  8
Layer1
  6
CONTINUOUS
 62
7
 10
772.727
 20
149.997
 11
775.555
 21
149.997
  0
LINE
  8
Layer1
  6
CONTINUOUS
 62
7
 10
778.383
 20
149.997
 11
781.211
 21
149.997
  0
LINE
  8
Layer1
  6
CONTINUOUS
 62
7
 10
779.326
 20
171.957
 11
776.497
 21
171.957
  0
LINE
  8
Layer1
  6
CONTINUOUS
 62
7
 10
776.497
 20
166.475
 11
779.326
 21
166.475
  0
LINE
  8
Layer1
  6
CONTINUOUS
 62
7
 10
778.383
 20
155.509
 11
781.211
 21
155.509
  0
LINE
  8
Layer1
  6
CONTINUOUS
 62
7
 10
779.326
 20
171.957
 11
779.326
 21
166.475
  0
LINE
  8
Layer1
  6
CONTINUOUS
 62
7
 10
776.497
 20
171.957
 11
776.497
 21
166.475
  0
LINE
  8
Layer1
  6
CONTINUOUS
 62
7
 10
778.383
 20
155.509
 11
778.383
 21
149.997
  0
LINE
  8
Layer1
  6
CONTINUOUS
 62
7
 10
781.211
 20
155.509
 11
781.211
 21
149.997
  0
LINE
  8
Layer1
  6
CONTINUOUS
 62
7
 10
776.497
 20
166.475
 11
778.383
 21
155.509
  0
LINE
  8
Layer1
  6
CONTINUOUS
 62
7
 10
779.326
 20
166.475
 11
781.211
 21
155.509
  0
LINE
  8
Layer1
  6
CONTINUOUS
 62
7
 10
777.44
 20
160.992
 11
778.383
 21
149.997
  0
LINE
  8
Layer1
  6
CONTINUOUS
 62
7
 10
779.561
 20
171.957
 11
780.268
 21
160.992
  0
LINE
  8
Layer1
  6
CONTINUOUS
 62
7
 10
773.668
 20
171.957
 11
770.841
 21
171.957
  0
LINE
  8
Layer1
  6
CONTINUOUS
 62
7
 10
770.841
 20
166.475
 11
773.668
 21
166.475
  0
LINE
  8
Layer1
  6
CONTINUOUS
 62
7
 10
772.727
 20
155.509
 11
775.555
 21
155.509
  0
LINE
  8
Layer1
  6
CONTINUOUS
 62
7
 10
773.668
 20
171.957
 11
773.668
 21
166.475
  0
LINE
  8
Layer1
  6
CONTINUOUS
 62
7
 10
770.841
 20
171.957
 11
770.841
 21
166.475
  0
LINE
  8
Layer1
  6
CONTINUOUS
 62
7
 10
772.727
 20
155.509
 11
772.727
 21
151.946
  0
LINE
  8
Layer1
  6
CONTINUOUS
 62
7
 10
775.555
 20
155.509
 11
775.555
 21
150.683
  0
LINE
  8
Layer1
  6
CONTINUOUS
 62
7
 10
770.841
 20
166.475
 11
772.727
 21
155.509
  0
LINE
  8
Layer1
  6
CONTINUOUS
 62
7
 10
773.668
 20
166.475
 11
775.555
 21
155.509
  0
LINE
  8
Layer1
  6
CONTINUOUS
 62
7
 10
771.784
 20
160.992
 11
772.551
 21
152.041
  0
LINE
  8
Layer1
  6
CONTINUOUS
 62
7
 10
773.905
 20
171.957
 11
774.612
 21
160.992
  0
LINE
  8
Layer1
  6
CONTINUOUS
 62
7
 10
772.727
 20
149.997
 11
772.516
 21
152.45
  0
LINE
  8
Layer1
  6
CONTINUOUS
 62
7
 10
772.727
 20
151.946
 11
772.727
 21
149.997
  0
LINE
  8
Layer1
  6
CONTINUOUS
 62
7
 10
775.555
 20
150.683
 11
775.555
 21
149.997
  0
LINE
  8
Layer1
  6
CONTINUOUS
 62
7
 10
784.039
 20
149.997
 11
786.867
 21
149.997
  0
LINE
  8
Layer1
  6
CONTINUOUS
 62
7
 10
784.982
 20
171.957
 11
782.154
 21
171.957
  0
LINE
  8
Layer1
  6
CONTINUOUS
 62
7
 10
782.154
 20
166.475
 11
784.982
 21
166.475
  0
LINE
  8
Layer1
  6
CONTINUOUS
 62
7
 10
784.039
 20
155.509
 11
786.867
 21
155.509
  0
LINE
  8
Layer1
  6
CONTINUOUS
 62
7
 10
784.982
 20
171.957
 11
784.982
 21
166.475
  0
LINE
  8
Layer1
  6
CONTINUOUS
 62
7
 10
782.154
 20
171.957
 11
782.154
 21
166.475
  0
LINE
  8
Layer1
  6
CONTINUOUS
 62
7
 10
784.039
 20
155.509
 11
784.039
 21
149.997
  0
LINE
  8
Layer1
  6
CONTINUOUS
 62
7
 10
786.867
 20
155.509
 11
786.867
 21
149.997
  0
LINE
  8
Layer1
  6
CONTINUOUS
 62
7
 10
782.154
 20
166.475
 11
784.039
 21
155.509
  0
LINE
  8
Layer1
  6
CONTINUOUS
 62
7
 10
784.982
 20
166.475
 11
786.867
 21
155.509
  0
LINE
  8
Layer1
  6
CONTINUOUS
 62
7
 10
783.096
 20
160.992
 11
784.039
 21
149.997
  0
LINE
  8
Layer1
  6
CONTINUOUS
 62
7
 10
785.218
 20
171.957
 11
785.925
 21
160.992
  0
LINE
  8
Layer1
  6
DASHED1
 62
7
 10
755.757
 20
149.997
 11
758.586
 21
149.997
  0
LINE
  8
Layer1
  6
DASHED1
 62
7
 10
753.872
 20
166.475
 11
756.7
 21
166.475
  0
LINE
  8
Layer1
  6
DASHED1
 62
7
 10
755.757
 20
155.509
 11
758.586
 21
155.509
  0
LINE
  8
Layer1
  6
CONTINUOUS
 62
7
 10
756.7
 20
171.957
 11
756.7
 21
166.475
  0
LINE
  8
Layer1
  6
DASHED1
 62
7
 10
753.872
 20
171.957
 11
753.872
 21
166.475
  0
LINE
  8
Layer1
  6
DASHED1
 62
7
 10
755.757
 20
155.509
 11
755.757
 21
149.997
  0
LINE
  8
Layer1
  6
DASHED1
 62
7
 10
758.586
 20
155.509
 11
758.586
 21
149.997
  0
LINE
  8
Layer1
  6
DASHED1
 62
7
 10
753.872
 20
166.475
 11
755.757
 21
155.509
  0
LINE
  8
Layer1
  6
DASHED1
 62
7
 10
756.7
 20
166.475
 11
758.586
 21
155.509
  0
LINE
  8
Layer1
  6
DASHED1
 62
7
 10
754.815
 20
160.992
 11
755.757
 21
149.997
  0
LINE
  8
Layer1
  6
CONTINUOUS
 62
7
 10
756.936
 20
171.957
 11
757.409
 21
164.619
  0
LINE
  8
Layer1
  6
DASHED1
 62
7
 10
744.445
 20
149.997
 11
747.273
 21
149.997
  0
LINE
  8
Layer1
  6
DASHED1
 62
7
 10
745.387
 20
171.957
 11
742.559
 21
171.957
  0
LINE
  8
Layer1
  6
DASHED1
 62
7
 10
742.559
 20
166.475
 11
745.387
 21
166.475
  0
LINE
  8
Layer1
  6
DASHED1
 62
7
 10
744.445
 20
155.509
 11
747.273
 21
155.509
  0
LINE
  8
Layer1
  6
DASHED1
 62
7
 10
745.387
 20
171.957
 11
745.387
 21
166.475
  0
LINE
  8
Layer1
  6
DASHED1
 62
7
 10
742.559
 20
171.957
 11
742.559
 21
166.475
  0
LINE
  8
Layer1
  6
DASHED1
 62
7
 10
744.445
 20
155.509
 11
744.445
 21
149.997
  0
LINE
  8
Layer1
  6
DASHED1
 62
7
 10
747.273
 20
155.509
 11
747.273
 21
149.997
  0
LINE
  8
Layer1
  6
DASHED1
 62
7
 10
742.559
 20
166.475
 11
744.445
 21
155.509
  0
LINE
  8
Layer1
  6
DASHED1
 62
7
 10
745.387
 20
166.475
 11
747.273
 21
155.509
  0
LINE
  8
Layer1
  6
DASHED1
 62
7
 10
743.502
 20
160.992
 11
744.445
 21
149.997
  0
LINE
  8
Layer1
  6
DASHED1
 62
7
 10
745.623
 20
171.957
 11
746.33
 21
160.992
  0
LINE
  8
Layer1
  6
CONTINUOUS
 62
7
 10
756.7
 20
171.957
 11
753.872
 21
171.957
  0
LINE
  8
Layer1
  6
DASHED1
 62
7
 10
751.043
 20
171.957
 11
748.216
 21
171.957
  0
LINE
  8
Layer1
  6
DASHED1
 62
7
 10
750.101
 20
149.997
 11
752.929
 21
149.997
  0
LINE
  8
Layer1
  6
DASHED1
 62
7
 10
751.043
 20
171.957
 11
748.216
 21
171.957
  0
LINE
  8
Layer1
  6
DASHED1
 62
7
 10
748.216
 20
166.475
 11
751.043
 21
166.475
  0
LINE
  8
Layer1
  6
DASHED1
 62
7
 10
750.101
 20
155.509
 11
752.929
 21
155.509
  0
LINE
  8
Layer1
  6
DASHED1
 62
7
 10
751.043
 20
171.957
 11
751.043
 21
166.475
  0
LINE
  8
Layer1
  6
DASHED1
 62
7
 10
748.216
 20
171.957
 11
748.216
 21
166.475
  0
LINE
  8
Layer1
  6
DASHED1
 62
7
 10
750.101
 20
155.509
 11
750.101
 21
151.946
  0
LINE
  8
Layer1
  6
DASHED1
 62
7
 10
752.929
 20
155.509
 11
752.929
 21
150.683
  0
LINE
  8
Layer1
  6
DASHED1
 62
7
 10
748.216
 20
166.475
 11
750.101
 21
155.509
  0
LINE
  8
Layer1
  6
DASHED1
 62
7
 10
751.043
 20
166.475
 11
752.929
 21
155.509
  0
LINE
  8
Layer1
  6
DASHED1
 62
7
 10
749.158
 20
160.992
 11
749.926
 21
152.041
  0
LINE
  8
Layer1
  6
DASHED1
 62
7
 10
751.28
 20
171.957
 11
751.987
 21
160.992
  0
LINE
  8
Layer1
  6
DASHED1
 62
7
 10
750.101
 20
149.997
 11
749.891
 21
152.45
  0
LINE
  8
Layer1
  6
DASHED1
 62
7
 10
750.101
 20
151.946
 11
750.101
 21
149.997
  0
LINE
  8
Layer1
  6
DASHED1
 62
7
 10
752.929
 20
150.683
 11
752.929
 21
149.997
  0
LINE
  8
Layer1
  6
DASHED1
 62
7
 10
761.414
 20
149.997
 11
763.753
 21
149.997
  0
LINE
  8
Layer1
  6
CONTINUOUS
 62
7
 10
765.185
 20
171.957
 11
765.185
 21
166.475
  0
LINE
  8
Layer1
  6
DASHED1
 62
7
 10
738.788
 20
149.997
 11
741.617
 21
149.997
  0
LINE
  8
Layer1
  6
DASHED1
 62
7
 10
736.903
 20
166.475
 11
739.731
 21
166.475
  0
LINE
  8
Layer1
  6
DASHED1
 62
7
 10
738.788
 20
155.509
 11
741.617
 21
155.509
  0
LINE
  8
Layer1
  6
DASHED1
 62
7
 10
739.731
 20
171.957
 11
739.731
 21
166.475
  0
LINE
  8
Layer1
  6
DASHED1
 62
7
 10
736.903
 20
171.957
 11
736.903
 21
166.475
  0
LINE
  8
Layer1
  6
DASHED1
 62
7
 10
738.788
 20
155.509
 11
738.788
 21
149.997
  0
LINE
  8
Layer1
  6
DASHED1
 62
7
 10
741.617
 20
155.509
 11
741.617
 21
149.997
  0
LINE
  8
Layer1
  6
DASHED1
 62
7
 10
736.903
 20
166.475
 11
738.788
 21
155.509
  0
LINE
  8
Layer1
  6
DASHED1
 62
7
 10
739.731
 20
166.475
 11
741.617
 21
155.509
  0
LINE
  8
Layer1
  6
DASHED1
 62
7
 10
737.846
 20
160.992
 11
738.788
 21
149.997
  0
LINE
  8
Layer1
  6
DASHED1
 62
7
 10
739.967
 20
171.957
 11
740.673
 21
160.992
  0
LINE
  8
Layer1
  6
DASHED1
 62
7
 10
727.476
 20
149.997
 11
730.304
 21
149.997
  0
LINE
  8
Layer1
  6
DASHED1
 62
7
 10
728.418
 20
171.957
 11
725.59
 21
171.957
  0
LINE
  8
Layer1
  6
DASHED1
 62
7
 10
725.59
 20
166.475
 11
728.418
 21
166.475
  0
LINE
  8
Layer1
  6
DASHED1
 62
7
 10
727.476
 20
155.509
 11
730.304
 21
155.509
  0
LINE
  8
Layer1
  6
DASHED1
 62
7
 10
728.418
 20
171.957
 11
728.418
 21
166.475
  0
LINE
  8
Layer1
  6
DASHED1
 62
7
 10
725.59
 20
171.957
 11
725.59
 21
166.475
  0
LINE
  8
Layer1
  6
DASHED1
 62
7
 10
727.476
 20
155.509
 11
727.476
 21
149.997
  0
LINE
  8
Layer1
  6
DASHED1
 62
7
 10
730.304
 20
155.509
 11
730.304
 21
149.997
  0
LINE
  8
Layer1
  6
DASHED1
 62
7
 10
725.59
 20
166.475
 11
727.476
 21
155.509
  0
LINE
  8
Layer1
  6
DASHED1
 62
7
 10
728.418
 20
166.475
 11
730.304
 21
155.509
  0
LINE
  8
Layer1
  6
DASHED1
 62
7
 10
726.533
 20
160.992
 11
727.476
 21
149.997
  0
LINE
  8
Layer1
  6
DASHED1
 62
7
 10
728.654
 20
171.957
 11
729.361
 21
160.992
  0
LINE
  8
Layer1
  6
DASHED1
 62
7
 10
739.731
 20
171.957
 11
736.903
 21
171.957
  0
LINE
  8
Layer1
  6
DASHED1
 62
7
 10
734.075
 20
171.957
 11
731.247
 21
171.957
  0
LINE
  8
Layer1
  6
DASHED1
 62
7
 10
733.132
 20
149.997
 11
735.96
 21
149.997
  0
LINE
  8
Layer1
  6
DASHED1
 62
7
 10
738.788
 20
149.997
 11
741.617
 21
149.997
  0
LINE
  8
Layer1
  6
DASHED1
 62
7
 10
739.731
 20
171.957
 11
736.903
 21
171.957
  0
LINE
  8
Layer1
  6
DASHED1
 62
7
 10
736.903
 20
166.475
 11
739.731
 21
166.475
  0
LINE
  8
Layer1
  6
DASHED1
 62
7
 10
738.788
 20
155.509
 11
741.617
 21
155.509
  0
LINE
  8
Layer1
  6
DASHED1
 62
7
 10
739.731
 20
171.957
 11
739.731
 21
166.475
  0
LINE
  8
Layer1
  6
DASHED1
 62
7
 10
736.903
 20
171.957
 11
736.903
 21
166.475
  0
LINE
  8
Layer1
  6
DASHED1
 62
7
 10
738.788
 20
155.509
 11
738.788
 21
149.997
  0
LINE
  8
Layer1
  6
DASHED1
 62
7
 10
741.617
 20
155.509
 11
741.617
 21
149.997
  0
LINE
  8
Layer1
  6
DASHED1
 62
7
 10
736.903
 20
166.475
 11
738.788
 21
155.509
  0
LINE
  8
Layer1
  6
DASHED1
 62
7
 10
739.731
 20
166.475
 11
741.617
 21
155.509
  0
LINE
  8
Layer1
  6
DASHED1
 62
7
 10
737.846
 20
160.992
 11
738.788
 21
149.997
  0
LINE
  8
Layer1
  6
DASHED1
 62
7
 10
739.967
 20
171.957
 11
740.673
 21
160.992
  0
LINE
  8
Layer1
  6
DASHED1
 62
7
 10
734.075
 20
171.957
 11
731.247
 21
171.957
  0
LINE
  8
Layer1
  6
DASHED1
 62
7
 10
731.247
 20
166.475
 11
734.075
 21
166.475
  0
LINE
  8
Layer1
  6
DASHED1
 62
7
 10
733.132
 20
155.509
 11
735.96
 21
155.509
  0
LINE
  8
Layer1
  6
DASHED1
 62
7
 10
734.075
 20
171.957
 11
734.075
 21
166.475
  0
LINE
  8
Layer1
  6
DASHED1
 62
7
 10
731.247
 20
171.957
 11
731.247
 21
166.475
  0
LINE
  8
Layer1
  6
DASHED1
 62
7
 10
733.132
 20
155.509
 11
733.132
 21
151.946
  0
LINE
  8
Layer1
  6
DASHED1
 62
7
 10
735.96
 20
155.509
 11
735.96
 21
150.683
  0
LINE
  8
Layer1
  6
DASHED1
 62
7
 10
731.247
 20
166.475
 11
733.132
 21
155.509
  0
LINE
  8
Layer1
  6
DASHED1
 62
7
 10
734.075
 20
166.475
 11
735.96
 21
155.509
  0
LINE
  8
Layer1
  6
DASHED1
 62
7
 10
732.189
 20
160.992
 11
732.957
 21
152.041
  0
LINE
  8
Layer1
  6
DASHED1
 62
7
 10
734.31
 20
171.957
 11
735.017
 21
160.992
  0
LINE
  8
Layer1
  6
DASHED1
 62
7
 10
733.132
 20
149.997
 11
732.922
 21
152.45
  0
LINE
  8
Layer1
  6
DASHED1
 62
7
 10
733.132
 20
151.946
 11
733.132
 21
149.997
  0
LINE
  8
Layer1
  6
DASHED1
 62
7
 10
735.96
 20
150.683
 11
735.96
 21
149.997
  0
LINE
  8
Layer1
  6
DASHED1
 62
7
 10
744.445
 20
149.997
 11
747.273
 21
149.997
  0
LINE
  8
Layer1
  6
DASHED1
 62
7
 10
745.387
 20
171.957
 11
742.559
 21
171.957
  0
LINE
  8
Layer1
  6
DASHED1
 62
7
 10
742.559
 20
166.475
 11
745.387
 21
166.475
  0
LINE
  8
Layer1
  6
DASHED1
 62
7
 10
744.445
 20
155.509
 11
747.273
 21
155.509
  0
LINE
  8
Layer1
  6
DASHED1
 62
7
 10
745.387
 20
171.957
 11
745.387
 21
166.475
  0
LINE
  8
Layer1
  6
DASHED1
 62
7
 10
742.559
 20
171.957
 11
742.559
 21
166.475
  0
LINE
  8
Layer1
  6
DASHED1
 62
7
 10
744.445
 20
155.509
 11
744.445
 21
149.997
  0
LINE
  8
Layer1
  6
DASHED1
 62
7
 10
747.273
 20
155.509
 11
747.273
 21
149.997
  0
LINE
  8
Layer1
  6
DASHED1
 62
7
 10
742.559
 20
166.475
 11
744.445
 21
155.509
  0
LINE
  8
Layer1
  6
DASHED1
 62
7
 10
745.387
 20
166.475
 11
747.273
 21
155.509
  0
LINE
  8
Layer1
  6
DASHED1
 62
7
 10
743.502
 20
160.992
 11
744.445
 21
149.997
  0
LINE
  8
Layer1
  6
DASHED1
 62
7
 10
745.623
 20
171.957
 11
746.33
 21
160.992
  0
LINE
  8
Layer1
  6
DASHED1
 62
7
 10
716.163
 20
149.997
 11
718.991
 21
149.997
  0
LINE
  8
Layer1
  6
DASHED1
 62
7
 10
714.278
 20
166.475
 11
717.106
 21
166.475
  0
LINE
  8
Layer1
  6
DASHED1
 62
7
 10
716.163
 20
155.509
 11
718.991
 21
155.509
  0
LINE
  8
Layer1
  6
DASHED1
 62
7
 10
717.106
 20
171.957
 11
717.106
 21
166.475
  0
LINE
  8
Layer1
  6
DASHED1
 62
7
 10
714.278
 20
171.957
 11
714.278
 21
166.475
  0
LINE
  8
Layer1
  6
DASHED1
 62
7
 10
716.163
 20
155.509
 11
716.163
 21
149.997
  0
LINE
  8
Layer1
  6
DASHED1
 62
7
 10
718.991
 20
155.509
 11
718.991
 21
149.997
  0
LINE
  8
Layer1
  6
DASHED1
 62
7
 10
714.278
 20
166.475
 11
716.163
 21
155.509
  0
LINE
  8
Layer1
  6
DASHED1
 62
7
 10
717.106
 20
166.475
 11
718.991
 21
155.509
  0
LINE
  8
Layer1
  6
DASHED1
 62
7
 10
715.22
 20
160.992
 11
716.163
 21
149.997
  0
LINE
  8
Layer1
  6
DASHED1
 62
7
 10
717.341
 20
171.957
 11
718.048
 21
160.992
  0
LINE
  8
Layer1
  6
DASHED1
 62
7
 10
704.85
 20
149.997
 11
707.678
 21
149.997
  0
LINE
  8
Layer1
  6
DASHED1
 62
7
 10
705.793
 20
171.957
 11
702.965
 21
171.957
  0
LINE
  8
Layer1
  6
DASHED1
 62
7
 10
702.965
 20
166.475
 11
705.793
 21
166.475
  0
LINE
  8
Layer1
  6
DASHED1
 62
7
 10
704.85
 20
155.509
 11
707.678
 21
155.509
  0
LINE
  8
Layer1
  6
DASHED1
 62
7
 10
705.793
 20
171.957
 11
705.793
 21
166.475
  0
LINE
  8
Layer1
  6
DASHED1
 62
7
 10
702.965
 20
171.957
 11
702.965
 21
166.475
  0
LINE
  8
Layer1
  6
DASHED1
 62
7
 10
704.85
 20
155.509
 11
704.85
 21
149.997
  0
LINE
  8
Layer1
  6
DASHED1
 62
7
 10
707.678
 20
155.509
 11
707.678
 21
149.997
  0
LINE
  8
Layer1
  6
DASHED1
 62
7
 10
702.965
 20
166.475
 11
704.85
 21
155.509
  0
LINE
  8
Layer1
  6
DASHED1
 62
7
 10
705.793
 20
166.475
 11
707.678
 21
155.509
  0
LINE
  8
Layer1
  6
DASHED1
 62
7
 10
703.908
 20
160.992
 11
704.85
 21
149.997
  0
LINE
  8
Layer1
  6
DASHED1
 62
7
 10
706.029
 20
171.957
 11
706.736
 21
160.992
  0
LINE
  8
Layer1
  6
DASHED1
 62
7
 10
717.106
 20
171.957
 11
714.278
 21
171.957
  0
LINE
  8
Layer1
  6
DASHED1
 62
7
 10
711.449
 20
171.957
 11
708.62
 21
171.957
  0
LINE
  8
Layer1
  6
DASHED1
 62
7
 10
710.507
 20
149.997
 11
713.335
 21
149.997
  0
LINE
  8
Layer1
  6
DASHED1
 62
7
 10
716.163
 20
149.997
 11
718.991
 21
149.997
  0
LINE
  8
Layer1
  6
DASHED1
 62
7
 10
717.106
 20
171.957
 11
714.278
 21
171.957
  0
LINE
  8
Layer1
  6
DASHED1
 62
7
 10
714.278
 20
166.475
 11
717.106
 21
166.475
  0
LINE
  8
Layer1
  6
DASHED1
 62
7
 10
716.163
 20
155.509
 11
718.991
 21
155.509
  0
LINE
  8
Layer1
  6
DASHED1
 62
7
 10
717.106
 20
171.957
 11
717.106
 21
166.475
  0
LINE
  8
Layer1
  6
DASHED1
 62
7
 10
714.278
 20
171.957
 11
714.278
 21
166.475
  0
LINE
  8
Layer1
  6
DASHED1
 62
7
 10
716.163
 20
155.509
 11
716.163
 21
149.997
  0
LINE
  8
Layer1
  6
DASHED1
 62
7
 10
718.991
 20
155.509
 11
718.991
 21
149.997
  0
LINE
  8
Layer1
  6
DASHED1
 62
7
 10
714.278
 20
166.475
 11
716.163
 21
155.509
  0
LINE
  8
Layer1
  6
DASHED1
 62
7
 10
717.106
 20
166.475
 11
718.991
 21
155.509
  0
LINE
  8
Layer1
  6
DASHED1
 62
7
 10
715.22
 20
160.992
 11
716.163
 21
149.997
  0
LINE
  8
Layer1
  6
DASHED1
 62
7
 10
717.341
 20
171.957
 11
718.048
 21
160.992
  0
LINE
  8
Layer1
  6
DASHED1
 62
7
 10
711.449
 20
171.957
 11
708.62
 21
171.957
  0
LINE
  8
Layer1
  6
DASHED1
 62
7
 10
708.62
 20
166.475
 11
711.449
 21
166.475
  0
LINE
  8
Layer1
  6
DASHED1
 62
7
 10
710.507
 20
155.509
 11
713.335
 21
155.509
  0
LINE
  8
Layer1
  6
DASHED1
 62
7
 10
711.449
 20
171.957
 11
711.449
 21
166.475
  0
LINE
  8
Layer1
  6
DASHED1
 62
7
 10
708.62
 20
171.957
 11
708.62
 21
166.475
  0
LINE
  8
Layer1
  6
DASHED1
 62
7
 10
710.507
 20
155.509
 11
710.507
 21
151.946
  0
LINE
  8
Layer1
  6
DASHED1
 62
7
 10
713.335
 20
155.509
 11
713.335
 21
150.683
  0
LINE
  8
Layer1
  6
DASHED1
 62
7
 10
708.62
 20
166.475
 11
710.507
 21
155.509
  0
LINE
  8
Layer1
  6
DASHED1
 62
7
 10
711.449
 20
166.475
 11
713.335
 21
155.509
  0
LINE
  8
Layer1
  6
DASHED1
 62
7
 10
709.564
 20
160.992
 11
710.331
 21
152.041
  0
LINE
  8
Layer1
  6
DASHED1
 62
7
 10
711.685
 20
171.957
 11
712.392
 21
160.992
  0
LINE
  8
Layer1
  6
DASHED1
 62
7
 10
710.507
 20
149.997
 11
710.296
 21
152.45
  0
LINE
  8
Layer1
  6
DASHED1
 62
7
 10
710.507
 20
151.946
 11
710.507
 21
149.997
  0
LINE
  8
Layer1
  6
DASHED1
 62
7
 10
713.335
 20
150.683
 11
713.335
 21
149.997
  0
LINE
  8
Layer1
  6
DASHED1
 62
7
 10
721.819
 20
149.997
 11
724.647
 21
149.997
  0
LINE
  8
Layer1
  6
DASHED1
 62
7
 10
722.762
 20
171.957
 11
719.934
 21
171.957
  0
LINE
  8
Layer1
  6
DASHED1
 62
7
 10
719.934
 20
166.475
 11
722.762
 21
166.475
  0
LINE
  8
Layer1
  6
DASHED1
 62
7
 10
721.819
 20
155.509
 11
724.647
 21
155.509
  0
LINE
  8
Layer1
  6
DASHED1
 62
7
 10
722.762
 20
171.957
 11
722.762
 21
166.475
  0
LINE
  8
Layer1
  6
DASHED1
 62
7
 10
719.934
 20
171.957
 11
719.934
 21
166.475
  0
LINE
  8
Layer1
  6
DASHED1
 62
7
 10
721.819
 20
155.509
 11
721.819
 21
149.997
  0
LINE
  8
Layer1
  6
DASHED1
 62
7
 10
724.647
 20
155.509
 11
724.647
 21
149.997
  0
LINE
  8
Layer1
  6
DASHED1
 62
7
 10
719.934
 20
166.475
 11
721.819
 21
155.509
  0
LINE
  8
Layer1
  6
DASHED1
 62
7
 10
722.762
 20
166.475
 11
724.647
 21
155.509
  0
LINE
  8
Layer1
  6
DASHED1
 62
7
 10
720.877
 20
160.992
 11
721.819
 21
149.997
  0
LINE
  8
Layer1
  6
DASHED1
 62
7
 10
722.998
 20
171.957
 11
723.705
 21
160.992
  0
LINE
  8
Layer1
  6
DASHED1
 62
7
 10
725.59
 20
171.957
 11
725.59
 21
166.475
  0
LINE
  8
Layer1
  6
DASHED1
 62
7
 10
699.194
 20
149.997
 11
702.022
 21
149.997
  0
LINE
  8
Layer1
  6
DASHED1
 62
7
 10
697.308
 20
166.475
 11
700.137
 21
166.475
  0
LINE
  8
Layer1
  6
DASHED1
 62
7
 10
699.194
 20
155.509
 11
702.022
 21
155.509
  0
LINE
  8
Layer1
  6
DASHED1
 62
7
 10
700.137
 20
171.957
 11
700.137
 21
166.475
  0
LINE
  8
Layer1
  6
DASHED1
 62
7
 10
697.308
 20
171.957
 11
697.308
 21
166.475
  0
LINE
  8
Layer1
  6
DASHED1
 62
7
 10
699.194
 20
155.509
 11
699.194
 21
149.997
  0
LINE
  8
Layer1
  6
DASHED1
 62
7
 10
702.022
 20
155.509
 11
702.022
 21
149.997
  0
LINE
  8
Layer1
  6
DASHED1
 62
7
 10
697.308
 20
166.475
 11
699.194
 21
155.509
  0
LINE
  8
Layer1
  6
DASHED1
 62
7
 10
700.137
 20
166.475
 11
702.022
 21
155.509
  0
LINE
  8
Layer1
  6
DASHED1
 62
7
 10
698.25
 20
160.992
 11
699.194
 21
149.997
  0
LINE
  8
Layer1
  6
DASHED1
 62
7
 10
700.372
 20
171.957
 11
701.079
 21
160.992
  0
LINE
  8
Layer1
  6
DASHED1
 62
7
 10
687.881
 20
149.997
 11
690.709
 21
149.997
  0
LINE
  8
Layer1
  6
DASHED1
 62
7
 10
688.824
 20
171.957
 11
685.995
 21
171.957
  0
LINE
  8
Layer1
  6
DASHED1
 62
7
 10
685.995
 20
166.475
 11
688.824
 21
166.475
  0
LINE
  8
Layer1
  6
DASHED1
 62
7
 10
687.881
 20
155.509
 11
690.709
 21
155.509
  0
LINE
  8
Layer1
  6
DASHED1
 62
7
 10
688.824
 20
171.957
 11
688.824
 21
166.475
  0
LINE
  8
Layer1
  6
DASHED1
 62
7
 10
685.995
 20
171.957
 11
685.995
 21
166.475
  0
LINE
  8
Layer1
  6
DASHED1
 62
7
 10
687.881
 20
155.509
 11
687.881
 21
149.997
  0
LINE
  8
Layer1
  6
DASHED1
 62
7
 10
690.709
 20
155.509
 11
690.709
 21
149.997
  0
LINE
  8
Layer1
  6
DASHED1
 62
7
 10
685.995
 20
166.475
 11
687.881
 21
155.509
  0
LINE
  8
Layer1
  6
DASHED1
 62
7
 10
688.824
 20
166.475
 11
690.709
 21
155.509
  0
LINE
  8
Layer1
  6
DASHED1
 62
7
 10
686.938
 20
160.992
 11
687.881
 21
149.997
  0
LINE
  8
Layer1
  6
DASHED1
 62
7
 10
689.06
 20
171.957
 11
689.767
 21
160.992
  0
LINE
  8
Layer1
  6
DASHED1
 62
7
 10
700.137
 20
171.957
 11
697.308
 21
171.957
  0
LINE
  8
Layer1
  6
DASHED1
 62
7
 10
694.48
 20
171.957
 11
691.652
 21
171.957
  0
LINE
  8
Layer1
  6
DASHED1
 62
7
 10
693.538
 20
149.997
 11
696.366
 21
149.997
  0
LINE
  8
Layer1
  6
DASHED1
 62
7
 10
699.194
 20
149.997
 11
702.022
 21
149.997
  0
LINE
  8
Layer1
  6
DASHED1
 62
7
 10
700.137
 20
171.957
 11
697.308
 21
171.957
  0
LINE
  8
Layer1
  6
DASHED1
 62
7
 10
697.308
 20
166.475
 11
700.137
 21
166.475
  0
LINE
  8
Layer1
  6
DASHED1
 62
7
 10
699.194
 20
155.509
 11
702.022
 21
155.509
  0
LINE
  8
Layer1
  6
DASHED1
 62
7
 10
700.137
 20
171.957
 11
700.137
 21
166.475
  0
LINE
  8
Layer1
  6
DASHED1
 62
7
 10
697.308
 20
171.957
 11
697.308
 21
166.475
  0
LINE
  8
Layer1
  6
DASHED1
 62
7
 10
699.194
 20
155.509
 11
699.194
 21
149.997
  0
LINE
  8
Layer1
  6
DASHED1
 62
7
 10
702.022
 20
155.509
 11
702.022
 21
149.997
  0
LINE
  8
Layer1
  6
DASHED1
 62
7
 10
697.308
 20
166.475
 11
699.194
 21
155.509
  0
LINE
  8
Layer1
  6
DASHED1
 62
7
 10
700.137
 20
166.475
 11
702.022
 21
155.509
  0
LINE
  8
Layer1
  6
DASHED1
 62
7
 10
698.25
 20
160.992
 11
699.194
 21
149.997
  0
LINE
  8
Layer1
  6
DASHED1
 62
7
 10
700.372
 20
171.957
 11
701.079
 21
160.992
  0
LINE
  8
Layer1
  6
DASHED1
 62
7
 10
694.48
 20
171.957
 11
691.652
 21
171.957
  0
LINE
  8
Layer1
  6
DASHED1
 62
7
 10
691.652
 20
166.475
 11
694.48
 21
166.475
  0
LINE
  8
Layer1
  6
DASHED1
 62
7
 10
693.538
 20
155.509
 11
696.366
 21
155.509
  0
LINE
  8
Layer1
  6
DASHED1
 62
7
 10
694.48
 20
171.957
 11
694.48
 21
166.475
  0
LINE
  8
Layer1
  6
DASHED1
 62
7
 10
691.652
 20
171.957
 11
691.652
 21
166.475
  0
LINE
  8
Layer1
  6
DASHED1
 62
7
 10
693.538
 20
155.509
 11
693.538
 21
151.946
  0
LINE
  8
Layer1
  6
DASHED1
 62
7
 10
696.366
 20
155.509
 11
696.366
 21
150.683
  0
LINE
  8
Layer1
  6
DASHED1
 62
7
 10
691.652
 20
166.475
 11
693.538
 21
155.509
  0
LINE
  8
Layer1
  6
DASHED1
 62
7
 10
694.48
 20
166.475
 11
696.366
 21
155.509
  0
LINE
  8
Layer1
  6
DASHED1
 62
7
 10
692.595
 20
160.992
 11
693.362
 21
152.041
  0
LINE
  8
Layer1
  6
DASHED1
 62
7
 10
694.716
 20
171.957
 11
695.423
 21
160.992
  0
LINE
  8
Layer1
  6
DASHED1
 62
7
 10
693.538
 20
149.997
 11
693.327
 21
152.45
  0
LINE
  8
Layer1
  6
DASHED1
 62
7
 10
693.538
 20
151.946
 11
693.538
 21
149.997
  0
LINE
  8
Layer1
  6
DASHED1
 62
7
 10
696.366
 20
150.683
 11
696.366
 21
149.997
  0
LINE
  8
Layer1
  6
DASHED1
 62
7
 10
704.85
 20
149.997
 11
707.678
 21
149.997
  0
LINE
  8
Layer1
  6
DASHED1
 62
7
 10
705.793
 20
171.957
 11
702.965
 21
171.957
  0
LINE
  8
Layer1
  6
DASHED1
 62
7
 10
702.965
 20
166.475
 11
705.793
 21
166.475
  0
LINE
  8
Layer1
  6
DASHED1
 62
7
 10
704.85
 20
155.509
 11
707.678
 21
155.509
  0
LINE
  8
Layer1
  6
DASHED1
 62
7
 10
705.793
 20
171.957
 11
705.793
 21
166.475
  0
LINE
  8
Layer1
  6
DASHED1
 62
7
 10
702.965
 20
171.957
 11
702.965
 21
166.475
  0
LINE
  8
Layer1
  6
DASHED1
 62
7
 10
704.85
 20
155.509
 11
704.85
 21
149.997
  0
LINE
  8
Layer1
  6
DASHED1
 62
7
 10
707.678
 20
155.509
 11
707.678
 21
149.997
  0
LINE
  8
Layer1
  6
DASHED1
 62
7
 10
702.965
 20
166.475
 11
704.85
 21
155.509
  0
LINE
  8
Layer1
  6
DASHED1
 62
7
 10
705.793
 20
166.475
 11
707.678
 21
155.509
  0
LINE
  8
Layer1
  6
DASHED1
 62
7
 10
703.908
 20
160.992
 11
704.85
 21
149.997
  0
LINE
  8
Layer1
  6
DASHED1
 62
7
 10
706.029
 20
171.957
 11
706.736
 21
160.992
  0
LINE
  8
Layer1
  6
DASHED1
 62
7
 10
682.225
 20
149.997
 11
685.053
 21
149.997
  0
LINE
  8
Layer1
  6
DASHED1
 62
7
 10
688.824
 20
171.957
 11
685.995
 21
171.957
  0
LINE
  8
Layer1
  6
DASHED1
 62
7
 10
687.881
 20
149.997
 11
690.709
 21
149.997
  0
LINE
  8
Layer1
  6
DASHED1
 62
7
 10
688.824
 20
171.957
 11
685.995
 21
171.957
  0
LINE
  8
Layer1
  6
DASHED1
 62
7
 10
685.995
 20
166.475
 11
688.824
 21
166.475
  0
LINE
  8
Layer1
  6
DASHED1
 62
7
 10
687.881
 20
155.509
 11
690.709
 21
155.509
  0
LINE
  8
Layer1
  6
DASHED1
 62
7
 10
688.824
 20
171.957
 11
688.824
 21
166.475
  0
LINE
  8
Layer1
  6
DASHED1
 62
7
 10
685.995
 20
171.957
 11
685.995
 21
166.475
  0
LINE
  8
Layer1
  6
DASHED1
 62
7
 10
687.881
 20
155.509
 11
687.881
 21
151.946
  0
LINE
  8
Layer1
  6
DASHED1
 62
7
 10
690.709
 20
155.509
 11
690.709
 21
150.683
  0
LINE
  8
Layer1
  6
DASHED1
 62
7
 10
685.995
 20
166.475
 11
687.881
 21
155.509
  0
LINE
  8
Layer1
  6
DASHED1
 62
7
 10
688.824
 20
166.475
 11
690.709
 21
155.509
  0
LINE
  8
Layer1
  6
DASHED1
 62
7
 10
686.938
 20
160.992
 11
687.706
 21
152.041
  0
LINE
  8
Layer1
  6
DASHED1
 62
7
 10
689.06
 20
171.957
 11
689.767
 21
160.992
  0
LINE
  8
Layer1
  6
DASHED1
 62
7
 10
687.881
 20
149.997
 11
687.671
 21
152.45
  0
LINE
  8
Layer1
  6
DASHED1
 62
7
 10
687.881
 20
151.946
 11
687.881
 21
149.997
  0
LINE
  8
Layer1
  6
DASHED1
 62
7
 10
690.709
 20
150.683
 11
690.709
 21
149.997
  0
LINE
  8
Layer1
  6
DASHED1
 62
7
 10
683.168
 20
171.957
 11
682.04
 21
171.957
  0
LINE
  8
Layer1
  6
DASHED1
 62
7
 10
682.04
 20
166.475
 11
683.168
 21
166.475
  0
LINE
  8
Layer1
  6
DASHED1
 62
7
 10
682.225
 20
155.509
 11
685.053
 21
155.509
  0
LINE
  8
Layer1
  6
DASHED1
 62
7
 10
683.168
 20
171.957
 11
683.168
 21
166.475
  0
LINE
  8
Layer1
  6
DASHED1
 62
7
 10
682.225
 20
155.509
 11
682.225
 21
149.997
  0
LINE
  8
Layer1
  6
DASHED1
 62
7
 10
685.053
 20
155.509
 11
685.053
 21
149.997
  0
LINE
  8
Layer1
  6
DASHED1
 62
7
 10
683.168
 20
166.475
 11
685.053
 21
155.509
  0
LINE
  8
Layer1
  6
DASHED1
 62
7
 10
683.403
 20
171.957
 11
684.11
 21
160.992
  0
LINE
  8
Layer1
  6
CONTINUOUS
 62
7
 10
741.04
 20
236.977
 11
741.04
 21
229.477
  0
LINE
  8
Layer1
  6
CONTINUOUS
 62
7
 10
763.988
 20
672.818
 11
763.988
 21
414.818
  0
LINE
  8
Layer1
  6
CONTINUOUS
 62
7
 10
266.335
 20
229.477
 11
288.335
 21
229.477
  0
LINE
  8
Layer1
  6
CONTINUOUS
 62
7
 10
462.335
 20
229.477
 11
440.335
 21
229.477
  0
LINE
  8
Layer1
  6
CONTINUOUS
 62
7
 10
493.335
 20
229.477
 11
235.335
 21
229.477
  0
LINE
  8
Layer1
  6
CENTER1
 62
7
 10
474.335
 20
335.019
 11
474.335
 21
297.613
  0
LINE
  8
Layer1
  6
CENTER1
 62
7
 10
254.335
 20
328.886
 11
254.335
 21
297.513
  0
LINE
  8
Layer1
  6
CONTINUOUS
 62
7
 10
440.664
 20
256.045
 11
448.509
 21
256.045
  0
LINE
  8
Layer1
  6
CONTINUOUS
 62
7
 10
440.337
 20
255.441
 11
448.811
 21
255.441
  0
LINE
  8
Layer1
  6
CONTINUOUS
 62
7
 10
440.242
 20
252.062
 11
448.69
 21
252.062
  0
LINE
  8
Layer1
  6
CONTINUOUS
 62
7
 10
449.414
 20
251.338
 11
439.518
 21
251.338
  0
LINE
  8
Layer1
  6
CONTINUOUS
 62
7
 10
449.414
 20
251.338
 11
449.414
 21
249.467
  0
LINE
  8
Layer1
  6
CONTINUOUS
 62
7
 10
439.518
 20
251.338
 11
439.518
 21
249.467
  0
POLYLINE
  8
Layer1
  6
CONTINUOUS
 62
7
 66
1
 10
0
 20
0
 30
0
  0
VERTEX
  8
Layer1
 10
444.459
 20
253.258
  0
VERTEX
  8
Layer1
 10
444.394
 20
253.315
  0
VERTEX
  8
Layer1
 10
444.327
 20
253.37
  0
VERTEX
  8
Layer1
 10
444.259
 20
253.424
  0
VERTEX
  8
Layer1
 10
444.189
 20
253.476
  0
VERTEX
  8
Layer1
 10
444.119
 20
253.526
  0
VERTEX
  8
Layer1
 10
444.046
 20
253.574
  0
VERTEX
  8
Layer1
 10
443.973
 20
253.62
  0
VERTEX
  8
Layer1
 10
443.899
 20
253.664
  0
VERTEX
  8
Layer1
 10
443.823
 20
253.707
  0
VERTEX
  8
Layer1
 10
443.746
 20
253.747
  0
VERTEX
  8
Layer1
 10
443.668
 20
253.785
  0
VERTEX
  8
Layer1
 10
443.59
 20
253.822
  0
VERTEX
  8
Layer1
 10
443.51
 20
253.856
  0
VERTEX
  8
Layer1
 10
443.43
 20
253.889
  0
VERTEX
  8
Layer1
 10
443.348
 20
253.919
  0
VERTEX
  8
Layer1
 10
443.266
 20
253.947
  0
VERTEX
  8
Layer1
 10
443.184
 20
253.973
  0
VERTEX
  8
Layer1
 10
443.1
 20
253.997
  0
VERTEX
  8
Layer1
 10
443.016
 20
254.018
  0
VERTEX
  8
Layer1
 10
442.932
 20
254.038
  0
VERTEX
  8
Layer1
 10
442.847
 20
254.055
  0
VERTEX
  8
Layer1
 10
442.761
 20
254.07
  0
VERTEX
  8
Layer1
 10
442.676
 20
254.083
  0
VERTEX
  8
Layer1
 10
442.589
 20
254.093
  0
VERTEX
  8
Layer1
 10
442.503
 20
254.102
  0
VERTEX
  8
Layer1
 10
442.417
 20
254.108
  0
VERTEX
  8
Layer1
 10
442.33
 20
254.112
  0
VERTEX
  8
Layer1
 10
442.243
 20
254.113
  0
VERTEX
  8
Layer1
 10
442.157
 20
254.113
  0
VERTEX
  8
Layer1
 10
442.07
 20
254.11
  0
VERTEX
  8
Layer1
 10
441.983
 20
254.105
  0
VERTEX
  8
Layer1
 10
441.897
 20
254.098
  0
VERTEX
  8
Layer1
 10
441.811
 20
254.088
  0
VERTEX
  8
Layer1
 10
441.725
 20
254.076
  0
VERTEX
  8
Layer1
 10
441.639
 20
254.062
  0
VERTEX
  8
Layer1
 10
441.554
 20
254.046
  0
VERTEX
  8
Layer1
 10
441.469
 20
254.028
  0
VERTEX
  8
Layer1
 10
441.385
 20
254.007
  0
VERTEX
  8
Layer1
 10
441.301
 20
253.985
  0
VERTEX
  8
Layer1
 10
441.218
 20
253.96
  0
VERTEX
  8
Layer1
 10
441.136
 20
253.933
  0
VERTEX
  8
Layer1
 10
441.054
 20
253.903
  0
VERTEX
  8
Layer1
 10
440.973
 20
253.872
  0
VERTEX
  8
Layer1
 10
440.893
 20
253.839
  0
VERTEX
  8
Layer1
 10
440.814
 20
253.803
  0
VERTEX
  8
Layer1
 10
440.736
 20
253.766
  0
VERTEX
  8
Layer1
 10
440.659
 20
253.727
  0
VERTEX
  8
Layer1
 10
440.583
 20
253.685
  0
SEQEND
  0
POLYLINE
  8
Layer1
  6
CONTINUOUS
 62
7
 66
1
 10
0
 20
0
 30
0
  0
VERTEX
  8
Layer1
 10
448.812
 20
253.63
  0
VERTEX
  8
Layer1
 10
448.724
 20
253.666
  0
VERTEX
  8
Layer1
 10
448.636
 20
253.7
  0
VERTEX
  8
Layer1
 10
448.547
 20
253.732
  0
VERTEX
  8
Layer1
 10
448.458
 20
253.762
  0
VERTEX
  8
Layer1
 10
448.368
 20
253.791
  0
VERTEX
  8
Layer1
 10
448.277
 20
253.817
  0
VERTEX
  8
Layer1
 10
448.186
 20
253.842
  0
VERTEX
  8
Layer1
 10
448.094
 20
253.865
  0
VERTEX
  8
Layer1
 10
448.002
 20
253.886
  0
VERTEX
  8
Layer1
 10
447.91
 20
253.906
  0
VERTEX
  8
Layer1
 10
447.817
 20
253.923
  0
VERTEX
  8
Layer1
 10
447.724
 20
253.939
  0
VERTEX
  8
Layer1
 10
447.631
 20
253.952
  0
VERTEX
  8
Layer1
 10
447.537
 20
253.964
  0
VERTEX
  8
Layer1
 10
447.443
 20
253.974
  0
VERTEX
  8
Layer1
 10
447.349
 20
253.982
  0
VERTEX
  8
Layer1
 10
447.255
 20
253.989
  0
VERTEX
  8
Layer1
 10
447.16
 20
253.993
  0
VERTEX
  8
Layer1
 10
447.066
 20
253.995
  0
VERTEX
  8
Layer1
 10
446.971
 20
253.996
  0
VERTEX
  8
Layer1
 10
446.877
 20
253.995
  0
VERTEX
  8
Layer1
 10
446.783
 20
253.992
  0
VERTEX
  8
Layer1
 10
446.688
 20
253.987
  0
VERTEX
  8
Layer1
 10
446.594
 20
253.98
  0
VERTEX
  8
Layer1
 10
446.5
 20
253.971
  0
VERTEX
  8
Layer1
 10
446.406
 20
253.96
  0
VERTEX
  8
Layer1
 10
446.313
 20
253.947
  0
VERTEX
  8
Layer1
 10
446.219
 20
253.933
  0
VERTEX
  8
Layer1
 10
446.126
 20
253.917
  0
VERTEX
  8
Layer1
 10
446.034
 20
253.898
  0
VERTEX
  8
Layer1
 10
445.941
 20
253.878
  0
VERTEX
  8
Layer1
 10
445.85
 20
253.856
  0
VERTEX
  8
Layer1
 10
445.758
 20
253.833
  0
VERTEX
  8
Layer1
 10
445.667
 20
253.807
  0
VERTEX
  8
Layer1
 10
445.577
 20
253.78
  0
VERTEX
  8
Layer1
 10
445.487
 20
253.751
  0
VERTEX
  8
Layer1
 10
445.398
 20
253.72
  0
VERTEX
  8
Layer1
 10
445.309
 20
253.687
  0
VERTEX
  8
Layer1
 10
445.221
 20
253.653
  0
VERTEX
  8
Layer1
 10
445.134
 20
253.616
  0
VERTEX
  8
Layer1
 10
445.048
 20
253.578
  0
VERTEX
  8
Layer1
 10
444.962
 20
253.539
  0
VERTEX
  8
Layer1
 10
444.877
 20
253.497
  0
VERTEX
  8
Layer1
 10
444.793
 20
253.454
  0
VERTEX
  8
Layer1
 10
444.71
 20
253.41
  0
VERTEX
  8
Layer1
 10
444.628
 20
253.363
  0
VERTEX
  8
Layer1
 10
444.546
 20
253.315
  0
VERTEX
  8
Layer1
 10
444.466
 20
253.265
  0
SEQEND
  0
LINE
  8
Layer1
  6
CONTINUOUS
 62
7
 10
440.929
 20
253.854
 11
440.595
 21
253.664
  0
LINE
  8
Layer1
  6
CONTINUOUS
 62
7
 10
440.664
 20
256.045
 11
439.805
 21
254.461
  0
LINE
  8
Layer1
  6
CONTINUOUS
 62
7
 10
448.509
 20
256.045
 11
449.397
 21
254.229
  0
LINE
  8
Layer1
  6
CONTINUOUS
 62
7
 10
448.327
 20
253.774
 11
448.812
 21
253.63
  0
POLYLINE
  8
Layer1
  6
CONTINUOUS
 62
7
 66
1
 10
0
 20
0
 30
0
  0
VERTEX
  8
Layer1
 10
439.805
 20
254.461
  0
VERTEX
  8
Layer1
 10
439.79
 20
254.433
  0
VERTEX
  8
Layer1
 10
439.776
 20
254.405
  0
VERTEX
  8
Layer1
 10
439.764
 20
254.375
  0
VERTEX
  8
Layer1
 10
439.754
 20
254.345
  0
VERTEX
  8
Layer1
 10
439.745
 20
254.315
  0
VERTEX
  8
Layer1
 10
439.738
 20
254.284
  0
VERTEX
  8
Layer1
 10
439.733
 20
254.253
  0
VERTEX
  8
Layer1
 10
439.729
 20
254.222
  0
VERTEX
  8
Layer1
 10
439.727
 20
254.19
  0
VERTEX
  8
Layer1
 10
439.727
 20
254.158
  0
VERTEX
  8
Layer1
 10
439.728
 20
254.127
  0
VERTEX
  8
Layer1
 10
439.731
 20
254.095
  0
VERTEX
  8
Layer1
 10
439.736
 20
254.064
  0
VERTEX
  8
Layer1
 10
439.743
 20
254.033
  0
VERTEX
  8
Layer1
 10
439.751
 20
254.003
  0
VERTEX
  8
Layer1
 10
439.761
 20
253.973
  0
VERTEX
  8
Layer1
 10
439.772
 20
253.943
  0
VERTEX
  8
Layer1
 10
439.785
 20
253.914
  0
VERTEX
  8
Layer1
 10
439.8
 20
253.886
  0
VERTEX
  8
Layer1
 10
439.816
 20
253.859
  0
VERTEX
  8
Layer1
 10
439.834
 20
253.833
  0
VERTEX
  8
Layer1
 10
439.853
 20
253.807
  0
VERTEX
  8
Layer1
 10
439.873
 20
253.783
  0
VERTEX
  8
Layer1
 10
439.895
 20
253.76
  0
VERTEX
  8
Layer1
 10
439.918
 20
253.738
  0
VERTEX
  8
Layer1
 10
439.942
 20
253.718
  0
VERTEX
  8
Layer1
 10
439.967
 20
253.699
  0
VERTEX
  8
Layer1
 10
439.993
 20
253.681
  0
VERTEX
  8
Layer1
 10
440.02
 20
253.664
  0
VERTEX
  8
Layer1
 10
440.048
 20
253.649
  0
VERTEX
  8
Layer1
 10
440.076
 20
253.636
  0
VERTEX
  8
Layer1
 10
440.106
 20
253.624
  0
VERTEX
  8
Layer1
 10
440.136
 20
253.614
  0
VERTEX
  8
Layer1
 10
440.166
 20
253.606
  0
VERTEX
  8
Layer1
 10
440.197
 20
253.599
  0
VERTEX
  8
Layer1
 10
440.228
 20
253.594
  0
VERTEX
  8
Layer1
 10
440.26
 20
253.59
  0
VERTEX
  8
Layer1
 10
440.291
 20
253.588
  0
VERTEX
  8
Layer1
 10
440.323
 20
253.588
  0
VERTEX
  8
Layer1
 10
440.355
 20
253.59
  0
VERTEX
  8
Layer1
 10
440.386
 20
253.593
  0
VERTEX
  8
Layer1
 10
440.417
 20
253.599
  0
VERTEX
  8
Layer1
 10
440.448
 20
253.605
  0
VERTEX
  8
Layer1
 10
440.479
 20
253.614
  0
VERTEX
  8
Layer1
 10
440.509
 20
253.624
  0
VERTEX
  8
Layer1
 10
440.538
 20
253.636
  0
VERTEX
  8
Layer1
 10
440.567
 20
253.649
  0
VERTEX
  8
Layer1
 10
440.595
 20
253.664
  0
SEQEND
  0
POLYLINE
  8
Layer1
  6
CONTINUOUS
 62
7
 66
1
 10
0
 20
0
 30
0
  0
VERTEX
  8
Layer1
 10
448.812
 20
253.63
  0
VERTEX
  8
Layer1
 10
448.832
 20
253.625
  0
VERTEX
  8
Layer1
 10
448.853
 20
253.62
  0
VERTEX
  8
Layer1
 10
448.874
 20
253.616
  0
VERTEX
  8
Layer1
 10
448.895
 20
253.614
  0
VERTEX
  8
Layer1
 10
448.917
 20
253.612
  0
VERTEX
  8
Layer1
 10
448.938
 20
253.611
  0
VERTEX
  8
Layer1
 10
448.96
 20
253.611
  0
VERTEX
  8
Layer1
 10
448.981
 20
253.612
  0
VERTEX
  8
Layer1
 10
449.002
 20
253.614
  0
VERTEX
  8
Layer1
 10
449.023
 20
253.617
  0
VERTEX
  8
Layer1
 10
449.044
 20
253.621
  0
VERTEX
  8
Layer1
 10
449.065
 20
253.626
  0
VERTEX
  8
Layer1
 10
449.086
 20
253.632
  0
VERTEX
  8
Layer1
 10
449.106
 20
253.639
  0
VERTEX
  8
Layer1
 10
449.126
 20
253.646
  0
VERTEX
  8
Layer1
 10
449.146
 20
253.655
  0
VERTEX
  8
Layer1
 10
449.165
 20
253.664
  0
VERTEX
  8
Layer1
 10
449.184
 20
253.675
  0
VERTEX
  8
Layer1
 10
449.202
 20
253.686
  0
VERTEX
  8
Layer1
 10
449.22
 20
253.698
  0
VERTEX
  8
Layer1
 10
449.237
 20
253.711
  0
VERTEX
  8
Layer1
 10
449.254
 20
253.724
  0
VERTEX
  8
Layer1
 10
449.269
 20
253.738
  0
VERTEX
  8
Layer1
 10
449.285
 20
253.753
  0
VERTEX
  8
Layer1
 10
449.299
 20
253.769
  0
VERTEX
  8
Layer1
 10
449.313
 20
253.785
  0
VERTEX
  8
Layer1
 10
449.326
 20
253.802
  0
VERTEX
  8
Layer1
 10
449.339
 20
253.82
  0
VERTEX
  8
Layer1
 10
449.35
 20
253.838
  0
VERTEX
  8
Layer1
 10
449.361
 20
253.856
  0
VERTEX
  8
Layer1
 10
449.371
 20
253.875
  0
VERTEX
  8
Layer1
 10
449.38
 20
253.895
  0
VERTEX
  8
Layer1
 10
449.388
 20
253.914
  0
VERTEX
  8
Layer1
 10
449.395
 20
253.934
  0
VERTEX
  8
Layer1
 10
449.402
 20
253.955
  0
VERTEX
  8
Layer1
 10
449.407
 20
253.976
  0
VERTEX
  8
Layer1
 10
449.411
 20
253.997
  0
VERTEX
  8
Layer1
 10
449.415
 20
254.018
  0
VERTEX
  8
Layer1
 10
449.417
 20
254.039
  0
VERTEX
  8
Layer1
 10
449.419
 20
254.06
  0
VERTEX
  8
Layer1
 10
449.419
 20
254.082
  0
VERTEX
  8
Layer1
 10
449.419
 20
254.103
  0
VERTEX
  8
Layer1
 10
449.418
 20
254.124
  0
VERTEX
  8
Layer1
 10
449.415
 20
254.146
  0
VERTEX
  8
Layer1
 10
449.412
 20
254.167
  0
VERTEX
  8
Layer1
 10
449.408
 20
254.188
  0
VERTEX
  8
Layer1
 10
449.403
 20
254.209
  0
VERTEX
  8
Layer1
 10
449.397
 20
254.229
  0
SEQEND
  0
LINE
  8
Layer1
  6
CONTINUOUS
 62
7
 10
447.533
 20
253.965
 11
447.533
 21
252.062
  0
LINE
  8
Layer1
  6
CONTINUOUS
 62
7
 10
441.388
 20
254.008
 11
441.388
 21
252.062
  0
LINE
  8
Layer1
  6
CONTINUOUS
 62
7
 10
440.242
 20
252.062
 11
439.518
 21
251.338
  0
LINE
  8
Layer1
  6
CONTINUOUS
 62
7
 10
448.69
 20
252.062
 11
449.414
 21
251.338
  0
LINE
  8
Layer1
  6
CONTINUOUS
 62
7
 10
671.04
 20
685.818
 11
671.04
 21
443.818
  0
LINE
  8
Layer1
  6
CONTINUOUS
 62
7
 10
831.04
 20
685.818
 11
831.04
 21
401.818
  0
LINE
  8
Layer1
  6
CONTINUOUS
 62
7
 10
671.04
 20
401.818
 11
671.04
 21
672.818
  0
LINE
  8
Layer1
  6
CENTER1
 62
7
 10
678.968
 20
688.818
 11
703.302
 21
688.818
  0
LINE
  8
Layer1
  6
CENTER1
 62
7
 10
739.542
 20
688.818
 11
766.797
 21
688.818
  0
LINE
  8
Layer1
  6
CENTER1
 62
7
 10
796.902
 20
688.818
 11
822.704
 21
688.818
  0
LINE
  8
Layer1
  6
CENTER1
 62
7
 10
736.553
 20
398.818
 11
766.403
 21
398.818
  0
LINE
  8
Layer1
  6
CENTER1
 62
7
 10
792.32
 20
398.818
 11
828.01
 21
398.818
  0
LINE
  8
Layer1
  6
CONTINUOUS
 62
7
 10
818.524
 20
608.818
 11
818.524
 21
478.818
  0
LINE
  8
Layer1
  6
CONTINUOUS
 62
7
 10
778.524
 20
608.818
 11
778.524
 21
478.818
  0
LINE
  8
Layer1
  6
CENTER1
 62
7
 10
347.036
 20
302.477
 11
380.779
 21
302.477
  0
CIRCLE
  8
Layer1
  6
CONTINUOUS
 62
7
 10
364.335
 20
302.477
 40
5.5
  0
LINE
  8
Layer1
  6
DASHED1
 62
7
 10
813.577
 20
261.477
 11
813.577
 21
322.477
  0
LINE
  8
Layer1
  6
DASHED1
 62
7
 10
783.577
 20
267.477
 11
783.577
 21
322.477
  0
LINE
  8
Layer1
  6
DASHED1
 62
7
 10
793.577
 20
257.477
 11
809.577
 21
257.477
  0
LINE
  8
Layer1
  6
DASHED1
 62
7
 10
813.577
 20
261.477
 11
809.577
 21
257.477
  0
LINE
  8
Layer1
  6
DASHED1
 62
7
 10
783.577
 20
267.477
 11
793.577
 21
257.477
  0
LINE
  8
Layer1
  6
CENTER1
 62
7
 10
764.1
 20
264.977
 11
793.089
 21
264.977
  0
LINE
  8
Layer1
  6
CENTER1
 62
7
 10
809.394
 20
264.977
 11
835.211
 21
264.977
  0
LINE
  8
Layer1
  6
CENTER1
 62
7
 10
409.335
 20
261.235
 11
409.335
 21
270.845
  0
LINE
  8
Layer1
  6
CENTER1
 62
7
 10
319.335
 20
257.852
 11
319.335
 21
269.221
  0
LINE
  8
Layer1
  6
CENTER1
 62
7
 10
417.509
 20
264.977
 11
403.026
 21
264.977
  0
CIRCLE
  8
Layer1
  6
CONTINUOUS
 62
7
 10
319.335
 20
264.977
 40
2
  0
CIRCLE
  8
Layer1
  6
CONTINUOUS
 62
7
 10
409.335
 20
264.977
 40
2
  0
LINE
  8
Layer1
  6
CENTER1
 62
7
 10
324.691
 20
264.977
 11
313.863
 21
264.977
  0
CIRCLE
  8
Layer1
  6
CONTINUOUS
 62
7
 10
319.335
 20
264.977
 40
1
  0
CIRCLE
  8
Layer1
  6
CONTINUOUS
 62
7
 10
409.335
 20
264.977
 40
1
  0
LINE
  8
Layer1
  6
CONTINUOUS
 62
7
 10
459.335
 20
262.477
 11
269.335
 21
262.477
  0
LINE
  8
Layer1
  6
CENTER1
 62
7
 10
694.257
 20
623.818
 11
735.264
 21
623.818
  0
LINE
  8
Layer1
  6
CENTER1
 62
7
 10
706.041
 20
463.818
 11
729.503
 21
463.818
  0
CIRCLE
  8
Layer1
  6
CONTINUOUS
 62
7
 10
717.447
 20
463.886
 40
3.76681
  0
ARC
  8
Layer1
  6
CONTINUOUS
 62
7
 10
712.974
 20
463.921
 40
1
 50
140.711
 51
225
  0
LINE
  8
Layer1
  6
CONTINUOUS
 62
7
 10
721.957
 20
465.53
 11
724.22
 21
465.53
  0
LINE
  8
Layer1
  6
CONTINUOUS
 62
7
 10
721.957
 20
462.045
 11
724.22
 21
462.045
  0
LINE
  8
Layer1
  6
CONTINUOUS
 62
7
 10
724.22
 20
465.53
 11
724.22
 21
462.045
  0
ARC
  8
Layer1
  6
CONTINUOUS
 62
7
 10
717.447
 20
463.886
 40
4.80058
 50
20.031
 51
140.098
  0
ARC
  8
Layer1
  6
CONTINUOUS
 62
7
 10
717.447
 20
463.886
 40
4.80058
 50
218.056
 51
337.793
  0
ARC
  8
Layer1
  6
CONTINUOUS
 62
7
 10
704.554
 20
456.636
 40
10.1292
 50
24.1178
 51
40.4581
  0
ARC
  8
Layer1
  6
CONTINUOUS
 62
7
 10
704.493
 20
471.127
 40
10.1292
 50
319.542
 51
335.882
  0
ARC
  8
Layer1
  6
CONTINUOUS
 62
7
 10
723.088
 20
465.53
 40
0.542282
 50
0
 51
180
  0
ARC
  8
Layer1
  6
CONTINUOUS
 62
7
 10
723.088
 20
462.045
 40
0.657613
 50
180
 51
2.03555e-013
  0
POLYLINE
  8
Layer1
  6
CONTINUOUS
 62
7
 66
1
 10
0
 20
0
 30
0
  0
VERTEX
  8
Layer1
 10
732.375
 20
472.347
  0
VERTEX
  8
Layer1
 10
732.36
 20
472.398
  0
VERTEX
  8
Layer1
 10
732.34
 20
472.46
  0
VERTEX
  8
Layer1
 10
732.318
 20
472.522
  0
VERTEX
  8
Layer1
 10
732.293
 20
472.583
  0
VERTEX
  8
Layer1
 10
732.268
 20
472.643
  0
VERTEX
  8
Layer1
 10
732.24
 20
472.702
  0
VERTEX
  8
Layer1
 10
732.21
 20
472.76
  0
VERTEX
  8
Layer1
 10
732.179
 20
472.818
  0
VERTEX
  8
Layer1
 10
732.144
 20
472.874
  0
VERTEX
  8
Layer1
 10
732.11
 20
472.929
  0
VERTEX
  8
Layer1
 10
732.093
 20
472.953
  0
SEQEND
  0
LINE
  8
Layer1
  6
DASHED1
 62
7
 10
702.447
 20
471.818
 11
702.447
 21
455.818
  0
LINE
  8
Layer1
  6
DASHED1
 62
7
 10
730.152
 20
453.818
 11
704.468
 21
453.818
  0
LINE
  8
Layer1
  6
DASHED1
 62
7
 10
729.95
 20
473.818
 11
704.447
 21
473.818
  0
LINE
  8
Layer1
  6
DASHED1
 62
7
 10
732.447
 20
471.605
 11
732.447
 21
455.898
  0
POLYLINE
  8
Layer1
  6
CONTINUOUS
 62
7
 66
1
 10
0
 20
0
 30
0
  0
VERTEX
  8
Layer1
 10
731.163
 20
453.95
  0
VERTEX
  8
Layer1
 10
731.212
 20
453.97
  0
VERTEX
  8
Layer1
 10
731.272
 20
453.996
  0
VERTEX
  8
Layer1
 10
731.331
 20
454.024
  0
VERTEX
  8
Layer1
 10
731.389
 20
454.054
  0
VERTEX
  8
Layer1
 10
731.447
 20
454.086
  0
VERTEX
  8
Layer1
 10
731.503
 20
454.119
  0
VERTEX
  8
Layer1
 10
731.558
 20
454.155
  0
VERTEX
  8
Layer1
 10
731.612
 20
454.192
  0
VERTEX
  8
Layer1
 10
731.664
 20
454.231
  0
VERTEX
  8
Layer1
 10
731.715
 20
454.272
  0
VERTEX
  8
Layer1
 10
731.765
 20
454.314
  0
VERTEX
  8
Layer1
 10
731.814
 20
454.358
  0
VERTEX
  8
Layer1
 10
731.861
 20
454.403
  0
VERTEX
  8
Layer1
 10
731.906
 20
454.45
  0
VERTEX
  8
Layer1
 10
731.95
 20
454.499
  0
VERTEX
  8
Layer1
 10
731.993
 20
454.549
  0
VERTEX
  8
Layer1
 10
732.033
 20
454.6
  0
VERTEX
  8
Layer1
 10
732.072
 20
454.653
  0
VERTEX
  8
Layer1
 10
732.11
 20
454.706
  0
VERTEX
  8
Layer1
 10
732.144
 20
454.761
  0
VERTEX
  8
Layer1
 10
732.179
 20
454.818
  0
VERTEX
  8
Layer1
 10
732.21
 20
454.875
  0
VERTEX
  8
Layer1
 10
732.24
 20
454.933
  0
VERTEX
  8
Layer1
 10
732.25
 20
454.954
  0
SEQEND
  0
LINE
  8
Layer1
  6
CONTINUOUS
 62
7
 10
702.447
 20
455.818
 11
702.447
 21
455.763
  0
POLYLINE
  8
Layer1
  6
CONTINUOUS
 62
7
 66
1
 10
0
 20
0
 30
0
  0
VERTEX
  8
Layer1
 10
704.447
 20
473.818
  0
VERTEX
  8
Layer1
 10
704.381
 20
473.816
  0
VERTEX
  8
Layer1
 10
704.333
 20
473.814
  0
SEQEND
  0
LINE
  8
Layer1
  6
CONTINUOUS
 62
7
 10
704.447
 20
473.818
 11
705.546
 21
473.818
  0
LINE
  8
Layer1
  6
CONTINUOUS
 62
7
 10
704.468
 20
453.818
 11
705.546
 21
453.818
  0
LINE
  8
Layer1
  6
CONTINUOUS
 62
7
 10
702.447
 20
455.818
 11
702.447
 21
456.774
  0
LINE
  8
Layer1
  6
CONTINUOUS
 62
7
 10
732.447
 20
457.044
 11
732.447
 21
455.898
  0
POLYLINE
  8
Layer1
  6
CONTINUOUS
 62
7
 66
1
 10
0
 20
0
 30
0
  0
VERTEX
  8
Layer1
 10
731.23
 20
473.657
  0
VERTEX
  8
Layer1
 10
731.212
 20
473.665
  0
VERTEX
  8
Layer1
 10
731.151
 20
473.689
  0
VERTEX
  8
Layer1
 10
731.089
 20
473.711
  0
VERTEX
  8
Layer1
 10
731.027
 20
473.731
  0
VERTEX
  8
Layer1
 10
730.964
 20
473.749
  0
VERTEX
  8
Layer1
 10
730.901
 20
473.765
  0
VERTEX
  8
Layer1
 10
730.837
 20
473.779
  0
VERTEX
  8
Layer1
 10
730.772
 20
473.791
  0
VERTEX
  8
Layer1
 10
730.708
 20
473.8
  0
VERTEX
  8
Layer1
 10
730.643
 20
473.808
  0
VERTEX
  8
Layer1
 10
730.577
 20
473.813
  0
VERTEX
  8
Layer1
 10
730.556
 20
473.814
  0
SEQEND
  0
POLYLINE
  8
Layer1
  6
CONTINUOUS
 62
7
 66
1
 10
0
 20
0
 30
0
  0
VERTEX
  8
Layer1
 10
703.591
 20
473.625
  0
VERTEX
  8
Layer1
 10
703.562
 20
473.611
  0
VERTEX
  8
Layer1
 10
703.504
 20
473.581
  0
VERTEX
  8
Layer1
 10
703.447
 20
473.55
  0
VERTEX
  8
Layer1
 10
703.39
 20
473.516
  0
VERTEX
  8
Layer1
 10
703.335
 20
473.481
  0
VERTEX
  8
Layer1
 10
703.282
 20
473.443
  0
VERTEX
  8
Layer1
 10
703.229
 20
473.404
  0
VERTEX
  8
Layer1
 10
703.178
 20
473.364
  0
VERTEX
  8
Layer1
 10
703.128
 20
473.321
  0
VERTEX
  8
Layer1
 10
703.079
 20
473.277
  0
VERTEX
  8
Layer1
 10
703.032
 20
473.232
  0
VERTEX
  8
Layer1
 10
702.987
 20
473.185
  0
VERTEX
  8
Layer1
 10
702.943
 20
473.136
  0
VERTEX
  8
Layer1
 10
702.901
 20
473.086
  0
VERTEX
  8
Layer1
 10
702.86
 20
473.035
  0
VERTEX
  8
Layer1
 10
702.821
 20
472.983
  0
VERTEX
  8
Layer1
 10
702.784
 20
472.929
  0
VERTEX
  8
Layer1
 10
702.748
 20
472.874
  0
VERTEX
  8
Layer1
 10
702.715
 20
472.818
  0
VERTEX
  8
Layer1
 10
702.683
 20
472.76
  0
VERTEX
  8
Layer1
 10
702.678
 20
472.751
  0
SEQEND
  0
POLYLINE
  8
Layer1
  6
CONTINUOUS
 62
7
 66
1
 10
0
 20
0
 30
0
  0
VERTEX
  8
Layer1
 10
702.451
 20
471.942
  0
VERTEX
  8
Layer1
 10
702.447
 20
471.883
  0
VERTEX
  8
Layer1
 10
702.447
 20
471.818
  0
SEQEND
  0
POLYLINE
  8
Layer1
  6
CONTINUOUS
 62
7
 66
1
 10
0
 20
0
 30
0
  0
VERTEX
  8
Layer1
 10
702.612
 20
455.022
  0
VERTEX
  8
Layer1
 10
702.625
 20
454.992
  0
VERTEX
  8
Layer1
 10
702.653
 20
454.933
  0
VERTEX
  8
Layer1
 10
702.683
 20
454.875
  0
VERTEX
  8
Layer1
 10
702.715
 20
454.818
  0
VERTEX
  8
Layer1
 10
702.748
 20
454.761
  0
VERTEX
  8
Layer1
 10
702.784
 20
454.706
  0
VERTEX
  8
Layer1
 10
702.821
 20
454.653
  0
VERTEX
  8
Layer1
 10
702.86
 20
454.6
  0
VERTEX
  8
Layer1
 10
702.901
 20
454.549
  0
VERTEX
  8
Layer1
 10
702.943
 20
454.499
  0
VERTEX
  8
Layer1
 10
702.987
 20
454.45
  0
VERTEX
  8
Layer1
 10
703.032
 20
454.403
  0
VERTEX
  8
Layer1
 10
703.079
 20
454.358
  0
VERTEX
  8
Layer1
 10
703.128
 20
454.314
  0
VERTEX
  8
Layer1
 10
703.178
 20
454.272
  0
VERTEX
  8
Layer1
 10
703.229
 20
454.231
  0
VERTEX
  8
Layer1
 10
703.282
 20
454.192
  0
VERTEX
  8
Layer1
 10
703.335
 20
454.155
  0
VERTEX
  8
Layer1
 10
703.39
 20
454.119
  0
VERTEX
  8
Layer1
 10
703.447
 20
454.086
  0
VERTEX
  8
Layer1
 10
703.504
 20
454.054
  0
VERTEX
  8
Layer1
 10
703.562
 20
454.024
  0
VERTEX
  8
Layer1
 10
703.62
 20
453.996
  0
VERTEX
  8
Layer1
 10
703.681
 20
453.97
  0
VERTEX
  8
Layer1
 10
703.726
 20
453.952
  0
SEQEND
  0
LINE
  8
Layer1
  6
CENTER1
 62
7
 10
717.54
 20
448.49
 11
717.54
 21
480.287
  0
LINE
  8
Layer1
  6
DASHED1
 62
7
 10
725.04
 20
590.818
 11
725.04
 21
643.818
  0
LINE
  8
Layer1
  6
DASHED1
 62
7
 10
725.04
 20
496.818
 11
725.04
 21
443.818
  0
LINE
  8
Layer1
  6
DASHED1
 62
7
 10
723.04
 20
590.818
 11
723.04
 21
643.818
  0
LINE
  8
Layer1
  6
DASHED1
 62
7
 10
723.04
 20
496.818
 11
723.04
 21
443.818
  0
LINE
  8
Layer1
  6
CENTER1
 62
7
 10
749.043
 20
302.477
 11
788.684
 21
302.477
  0
LINE
  8
Layer1
  6
CONTINUOUS
 62
7
 10
723.092
 20
229.477
 11
723.092
 21
207.953
  0
LINE
  8
Layer1
  6
CONTINUOUS
 62
7
 10
725.092
 20
229.477
 11
725.092
 21
206.73
  0
LINE
  8
Layer1
  6
CONTINUOUS
 62
7
 10
763.04
 20
229.477
 11
669.04
 21
229.477
  0
LINE
  8
Layer1
  6
CONTINUOUS
 62
7
 10
671.04
 20
179.477
 11
669.04
 21
179.477
  0
LINE
  8
Layer1
  6
CONTINUOUS
 62
7
 10
723.092
 20
227.977
 11
725.092
 21
227.977
  0
LINE
  8
Layer1
  6
CONTINUOUS
 62
7
 10
464.335
 20
179.477
 11
464.335
 21
229.477
  0
LINE
  8
Layer1
  6
CONTINUOUS
 62
7
 10
264.335
 20
179.477
 11
264.335
 21
229.477
  0
LINE
  8
Layer1
  6
CONTINUOUS
 62
7
 10
207.335
 20
170.477
 11
232.335
 21
170.477
  0
LINE
  8
Layer1
  6
CONTINUOUS
 62
7
 10
263.335
 20
229.477
 11
235.335
 21
229.477
  0
LINE
  8
Layer1
  6
CONTINUOUS
 62
7
 10
522.335
 20
169.477
 11
522.335
 21
143.477
  0
LINE
  8
Layer1
  6
CONTINUOUS
 62
7
 10
206.335
 20
143.477
 11
206.335
 21
169.477
  0
LINE
  8
Layer1
  6
CONTINUOUS
 62
7
 10
234.335
 20
228.477
 11
234.335
 21
172.477
  0
LINE
  8
Layer1
  6
CONTINUOUS
 62
7
 10
494.335
 20
228.477
 11
494.335
 21
172.477
  0
LINE
  8
Layer1
  6
CONTINUOUS
 62
7
 10
521.335
 20
170.477
 11
496.335
 21
170.477
  0
ARC
  8
Layer1
  6
CONTINUOUS
 62
7
 10
232.335
 20
172.477
 40
2
 50
270
 51
0
  0
ARC
  8
Layer1
  6
CONTINUOUS
 62
7
 10
496.335
 20
172.477
 40
2
 50
180
 51
270
  0
LINE
  8
Layer1
  6
CONTINUOUS
 62
7
 10
493.335
 20
249.477
 11
235.335
 21
249.477
  0
LINE
  8
Layer1
  6
CONTINUOUS
 62
7
 10
493.335
 20
229.477
 11
465.335
 21
229.477
  0
LINE
  8
Layer1
  6
CONTINUOUS
 62
7
 10
235.335
 20
229.477
 11
234.335
 21
228.477
  0
LINE
  8
Layer1
  6
CONTINUOUS
 62
7
 10
263.335
 20
229.477
 11
264.335
 21
228.477
  0
LINE
  8
Layer1
  6
CONTINUOUS
 62
7
 10
464.335
 20
228.477
 11
465.335
 21
229.477
  0
LINE
  8
Layer1
  6
CONTINUOUS
 62
7
 10
493.335
 20
229.477
 11
494.335
 21
228.477
  0
LINE
  8
Layer1
  6
CONTINUOUS
 62
7
 10
494.335
 20
248.477
 11
494.335
 21
230.477
  0
LINE
  8
Layer1
  6
CONTINUOUS
 62
7
 10
234.335
 20
230.477
 11
234.335
 21
248.477
  0
LINE
  8
Layer1
  6
CONTINUOUS
 62
7
 10
234.335
 20
248.477
 11
235.335
 21
249.477
  0
LINE
  8
Layer1
  6
CONTINUOUS
 62
7
 10
235.335
 20
229.477
 11
234.335
 21
230.477
  0
LINE
  8
Layer1
  6
CONTINUOUS
 62
7
 10
493.335
 20
229.477
 11
494.335
 21
230.477
  0
LINE
  8
Layer1
  6
CONTINUOUS
 62
7
 10
494.335
 20
248.477
 11
493.335
 21
249.477
  0
LINE
  8
Layer1
  6
CONTINUOUS
 62
7
 10
265.335
 20
179.477
 11
264.335
 21
180.477
  0
LINE
  8
Layer1
  6
CENTER1
 62
7
 10
509.335
 20
134.365
 11
509.335
 21
180.489
  0
LINE
  8
Layer1
  6
CENTER1
 62
7
 10
219.335
 20
129.094
 11
219.335
 21
180.974
  0
LINE
  8
Layer1
  6
DASHED1
 62
7
 10
502.835
 20
169.477
 11
502.835
 21
142.477
  0
LINE
  8
Layer1
  6
CONTINUOUS
 62
7
 10
207.335
 20
170.477
 11
206.335
 21
169.477
  0
LINE
  8
Layer1
  6
CONTINUOUS
 62
7
 10
206.335
 20
143.477
 11
207.335
 21
142.477
  0
LINE
  8
Layer1
  6
CONTINUOUS
 62
7
 10
521.335
 20
142.477
 11
522.335
 21
143.477
  0
LINE
  8
Layer1
  6
CONTINUOUS
 62
7
 10
522.335
 20
169.477
 11
521.335
 21
170.477
  0
LINE
  8
Layer1
  6
CONTINUOUS
 62
7
 10
464.335
 20
180.477
 11
463.335
 21
179.477
  0
LINE
  8
Layer1
  6
CONTINUOUS
 62
7
 10
489.335
 20
303.477
 11
489.335
 21
321.477
  0
LINE
  8
Layer1
  6
CONTINUOUS
 62
7
 10
239.335
 20
303.477
 11
239.335
 21
321.477
  0
LINE
  8
Layer1
  6
CONTINUOUS
 62
7
 10
239.335
 20
321.477
 11
240.335
 21
322.477
  0
LINE
  8
Layer1
  6
CONTINUOUS
 62
7
 10
239.335
 20
303.477
 11
240.335
 21
302.477
  0
LINE
  8
Layer1
  6
CONTINUOUS
 62
7
 10
488.335
 20
322.477
 11
489.335
 21
321.477
  0
LINE
  8
Layer1
  6
CONTINUOUS
 62
7
 10
488.335
 20
302.477
 11
489.335
 21
303.477
  0
LINE
  8
Layer1
  6
DASHED1
 62
7
 10
459.335
 20
218.477
 11
459.335
 21
249.477
  0
LINE
  8
Layer1
  6
DASHED1
 62
7
 10
269.335
 20
218.477
 11
269.335
 21
249.477
  0
ARC
  8
Layer1
  6
CONTINUOUS
 62
7
 10
267.335
 20
300.477
 40
2
 50
0
 51
90
  0
ARC
  8
Layer1
  6
CONTINUOUS
 62
7
 10
461.335
 20
300.477
 40
2
 50
90
 51
180
  0
LINE
  8
Layer1
  6
CONTINUOUS
 62
7
 10
269.335
 20
218.477
 11
270.335
 21
217.477
  0
LINE
  8
Layer1
  6
CONTINUOUS
 62
7
 10
458.335
 20
217.477
 11
459.335
 21
218.477
  0
LINE
  8
Layer1
  6
CONTINUOUS
 62
7
 10
269.335
 20
249.477
 11
269.335
 21
300.477
  0
LINE
  8
Layer1
  6
CONTINUOUS
 62
7
 10
459.335
 20
249.477
 11
459.335
 21
300.477
  0
LINE
  8
Layer1
  6
DASHED1
 62
7
 10
379.335
 20
227.477
 11
379.335
 21
232.477
  0
LINE
  8
Layer1
  6
DASHED1
 62
7
 10
349.335
 20
227.477
 11
349.335
 21
232.477
  0
ARC
  8
Layer1
  6
DASHED1
 62
7
 10
364.335
 20
232.477
 40
15
 50
90
 51
180
  0
ARC
  8
Layer1
  6
DASHED1
 62
7
 10
364.335
 20
232.477
 40
15
 50
0
 51
90
  0
LINE
  8
Layer1
  6
DASHED1
 62
7
 10
349.335
 20
227.477
 11
339.335
 21
217.477
  0
LINE
  8
Layer1
  6
DASHED1
 62
7
 10
379.335
 20
227.477
 11
389.335
 21
217.477
  0
LINE
  8
Layer1
  6
CENTER1
 62
7
 10
444.335
 20
268.739
 11
444.335
 21
217.477
  0
LINE
  8
Layer1
  6
CENTER1
 62
7
 10
284.335
 20
268.286
 11
284.335
 21
221.6
  0
LINE
  8
Layer1
  6
CENTER1
 62
7
 10
248.335
 20
213.894
 11
248.335
 21
262.847
  0
LINE
  8
Layer1
  6
CENTER1
 62
7
 10
480.335
 20
263.753
 11
480.335
 21
216.614
  0
LINE
  8
Layer1
  6
CONTINUOUS
 62
7
 10
754.526
 20
170.477
 11
672.04
 21
170.477
  0
LINE
  8
Layer1
  6
CONTINUOUS
 62
7
 10
401.335
 20
226.477
 11
327.335
 21
226.477
  0
LINE
  8
Layer1
  6
CONTINUOUS
 62
7
 10
324.335
 20
229.477
 11
327.335
 21
226.477
  0
LINE
  8
Layer1
  6
CONTINUOUS
 62
7
 10
404.335
 20
229.477
 11
401.335
 21
226.477
  0
LINE
  8
Layer1
  6
DASHED1
 62
7
 10
682.04
 20
171.957
 11
682.04
 21
153.556
  0
LINE
  8
Layer1
  6
CONTINUOUS
 62
7
 10
831.04
 20
169.477
 11
831.04
 21
159.977
  0
LINE
  8
Layer1
  6
CONTINUOUS
 62
7
 10
671.04
 20
169.477
 11
671.04
 21
154.977
  0
LINE
  8
Layer1
  6
CONTINUOUS
 62
7
 10
671.04
 20
169.477
 11
672.04
 21
170.477
  0
LINE
  8
Layer1
  6
CONTINUOUS
 62
7
 10
861.04
 20
153.477
 11
861.04
 21
239.477
  0
LINE
  8
Layer1
  6
CONTINUOUS
 62
7
 10
860.04
 20
240.477
 11
861.04
 21
239.477
  0
LINE
  8
Layer1
  6
CONTINUOUS
 62
7
 10
861.04
 20
153.477
 11
860.04
 21
152.477
  0
LINE
  8
Layer1
  6
CONTINUOUS
 62
7
 10
687.04
 20
701.818
 11
815.01
 21
701.818
  0
LINE
  8
Layer1
  6
CONTINUOUS
 62
7
 10
687.04
 20
385.818
 11
815.01
 21
385.818
  0
LINE
  8
Layer1
  6
DASHED1
 62
7
 10
671.04
 20
443.818
 11
831.01
 21
443.818
  0
LINE
  8
Layer1
  6
DASHED1
 62
7
 10
671.04
 20
643.818
 11
831.01
 21
643.818
  0
LINE
  8
Layer1
  6
CONTINUOUS
 62
7
 10
762.988
 20
673.818
 11
672.04
 21
673.818
  0
LINE
  8
Layer1
  6
CONTINUOUS
 62
7
 10
762.988
 20
413.818
 11
672.04
 21
413.818
  0
LINE
  8
Layer1
  6
CONTINUOUS
 62
7
 10
669.04
 20
443.818
 11
671.04
 21
443.818
  0
LINE
  8
Layer1
  6
CONTINUOUS
 62
7
 10
667.04
 20
443.818
 11
645.04
 21
443.818
  0
LINE
  8
Layer1
  6
CONTINUOUS
 62
7
 10
669.04
 20
643.818
 11
671.04
 21
643.818
  0
LINE
  8
Layer1
  6
CONTINUOUS
 62
7
 10
667.04
 20
643.818
 11
645.04
 21
643.818
  0
LINE
  8
Layer1
  6
CONTINUOUS
 62
7
 10
645.04
 20
643.818
 11
644.04
 21
642.818
  0
LINE
  8
Layer1
  6
CONTINUOUS
 62
7
 10
667.04
 20
643.818
 11
668.04
 21
642.818
  0
LINE
  8
Layer1
  6
CONTINUOUS
 62
7
 10
669.04
 20
643.818
 11
668.04
 21
642.818
  0
LINE
  8
Layer1
  6
CONTINUOUS
 62
7
 10
644.04
 20
444.818
 11
645.04
 21
443.818
  0
LINE
  8
Layer1
  6
CONTINUOUS
 62
7
 10
667.04
 20
443.818
 11
668.04
 21
444.818
  0
LINE
  8
Layer1
  6
CONTINUOUS
 62
7
 10
669.04
 20
443.818
 11
668.04
 21
444.818
  0
LINE
  8
Layer1
  6
CONTINUOUS
 62
7
 10
671.04
 20
414.818
 11
672.04
 21
413.818
  0
LINE
  8
Layer1
  6
CONTINUOUS
 62
7
 10
762.988
 20
413.818
 11
763.988
 21
414.818
  0
LINE
  8
Layer1
  6
CONTINUOUS
 62
7
 10
672.04
 20
673.818
 11
671.04
 21
672.818
  0
LINE
  8
Layer1
  6
CONTINUOUS
 62
7
 10
762.988
 20
673.818
 11
763.988
 21
672.818
  0
CIRCLE
  8
Layer1
  6
CONTINUOUS
 62
7
 10
687.54
 20
427.818
 40
10
  0
LINE
  8
Layer1
  6
CENTER1
 62
7
 10
687.54
 20
412.51
 11
687.54
 21
443.067
  0
POLYLINE
  8
Layer1
  6
CONTINUOUS
 62
7
 66
1
 10
0
 20
0
 30
0
 70
1
  0
VERTEX
  8
Layer1
 10
687.54
 20
433.533
  0
VERTEX
  8
Layer1
 10
682.591
 20
430.675
  0
VERTEX
  8
Layer1
 10
682.591
 20
424.96
  0
VERTEX
  8
Layer1
 10
687.54
 20
422.103
  0
VERTEX
  8
Layer1
 10
692.49
 20
424.96
  0
VERTEX
  8
Layer1
 10
692.49
 20
430.675
  0
SEQEND
  0
CIRCLE
  8
Layer1
  6
CONTINUOUS
 62
7
 10
687.54
 20
427.818
 40
5.715
  0
LINE
  8
Layer1
  6
CENTER1
 62
7
 10
674.828
 20
427.818
 11
701.492
 21
427.818
  0
CIRCLE
  8
Layer1
  6
CONTINUOUS
 62
7
 10
747.54
 20
427.847
 40
10
  0
LINE
  8
Layer1
  6
CENTER1
 62
7
 10
747.54
 20
412.539
 11
747.54
 21
443.096
  0
POLYLINE
  8
Layer1
  6
CONTINUOUS
 62
7
 66
1
 10
0
 20
0
 30
0
 70
1
  0
VERTEX
  8
Layer1
 10
747.54
 20
433.562
  0
VERTEX
  8
Layer1
 10
742.591
 20
430.704
  0
VERTEX
  8
Layer1
 10
742.591
 20
424.989
  0
VERTEX
  8
Layer1
 10
747.54
 20
422.132
  0
VERTEX
  8
Layer1
 10
752.49
 20
424.989
  0
VERTEX
  8
Layer1
 10
752.49
 20
430.704
  0
SEQEND
  0
CIRCLE
  8
Layer1
  6
CONTINUOUS
 62
7
 10
747.54
 20
427.847
 40
5.715
  0
LINE
  8
Layer1
  6
CENTER1
 62
7
 10
734.828
 20
427.847
 11
761.492
 21
427.847
  0
CIRCLE
  8
Layer1
  6
CONTINUOUS
 62
7
 10
687.54
 20
659.818
 40
10
  0
LINE
  8
Layer1
  6
CENTER1
 62
7
 10
687.54
 20
644.51
 11
687.54
 21
675.067
  0
POLYLINE
  8
Layer1
  6
CONTINUOUS
 62
7
 66
1
 10
0
 20
0
 30
0
 70
1
  0
VERTEX
  8
Layer1
 10
687.54
 20
665.533
  0
VERTEX
  8
Layer1
 10
682.591
 20
662.675
  0
VERTEX
  8
Layer1
 10
682.591
 20
656.96
  0
VERTEX
  8
Layer1
 10
687.54
 20
654.103
  0
VERTEX
  8
Layer1
 10
692.49
 20
656.96
  0
VERTEX
  8
Layer1
 10
692.49
 20
662.675
  0
SEQEND
  0
CIRCLE
  8
Layer1
  6
CONTINUOUS
 62
7
 10
687.54
 20
659.818
 40
5.715
  0
LINE
  8
Layer1
  6
CENTER1
 62
7
 10
674.828
 20
659.818
 11
701.492
 21
659.818
  0
CIRCLE
  8
Layer1
  6
CONTINUOUS
 62
7
 10
747.54
 20
659.847
 40
10
  0
LINE
  8
Layer1
  6
CENTER1
 62
7
 10
747.54
 20
644.539
 11
747.54
 21
675.096
  0
POLYLINE
  8
Layer1
  6
CONTINUOUS
 62
7
 66
1
 10
0
 20
0
 30
0
 70
1
  0
VERTEX
  8
Layer1
 10
747.54
 20
665.562
  0
VERTEX
  8
Layer1
 10
742.591
 20
662.704
  0
VERTEX
  8
Layer1
 10
742.591
 20
656.989
  0
VERTEX
  8
Layer1
 10
747.54
 20
654.132
  0
VERTEX
  8
Layer1
 10
752.49
 20
656.989
  0
VERTEX
  8
Layer1
 10
752.49
 20
662.704
  0
SEQEND
  0
CIRCLE
  8
Layer1
  6
CONTINUOUS
 62
7
 10
747.54
 20
659.847
 40
5.715
  0
LINE
  8
Layer1
  6
CENTER1
 62
7
 10
734.828
 20
659.847
 11
761.492
 21
659.847
  0
LINE
  8
Layer1
  6
CONTINUOUS
 62
7
 10
861.04
 20
439.818
 11
876.04
 21
439.818
  0
LINE
  8
Layer1
  6
CONTINUOUS
 62
7
 10
861.04
 20
415.818
 11
876.04
 21
415.818
  0
LINE
  8
Layer1
  6
CONTINUOUS
 62
7
 10
876.04
 20
439.818
 11
876.04
 21
415.818
  0
LINE
  8
Layer1
  6
CONTINUOUS
 62
7
 10
877.04
 20
438.818
 11
877.04
 21
416.818
  0
LINE
  8
Layer1
  6
CONTINUOUS
 62
7
 10
876.04
 20
439.818
 11
877.04
 21
438.818
  0
LINE
  8
Layer1
  6
CONTINUOUS
 62
7
 10
876.04
 20
415.818
 11
877.04
 21
416.818
  0
LINE
  8
Layer1
  6
CONTINUOUS
 62
7
 10
861.04
 20
415.818
 11
861.04
 21
439.818
  0
LINE
  8
Layer1
  6
CONTINUOUS
 62
7
 10
861.665
 20
416.818
 11
875.415
 21
416.818
  0
LINE
  8
Layer1
  6
CONTINUOUS
 62
7
 10
862.29
 20
417.818
 11
874.79
 21
417.818
  0
LINE
  8
Layer1
  6
CONTINUOUS
 62
7
 10
862.915
 20
418.818
 11
874.165
 21
418.818
  0
LINE
  8
Layer1
  6
CONTINUOUS
 62
7
 10
863.54
 20
419.818
 11
873.54
 21
419.818
  0
LINE
  8
Layer1
  6
CONTINUOUS
 62
7
 10
864.165
 20
420.818
 11
872.915
 21
420.818
  0
LINE
  8
Layer1
  6
CONTINUOUS
 62
7
 10
864.79
 20
421.818
 11
872.29
 21
421.818
  0
LINE
  8
Layer1
  6
CONTINUOUS
 62
7
 10
865.415
 20
422.818
 11
871.665
 21
422.818
  0
LINE
  8
Layer1
  6
CONTINUOUS
 62
7
 10
832.04
 20
673.818
 11
860.04
 21
673.818
  0
LINE
  8
Layer1
  6
CONTINUOUS
 62
7
 10
832.04
 20
413.818
 11
860.04
 21
413.818
  0
LINE
  8
Layer1
  6
CONTINUOUS
 62
7
 10
861.04
 20
414.818
 11
861.04
 21
672.818
  0
LINE
  8
Layer1
  6
CONTINUOUS
 62
7
 10
860.04
 20
673.818
 11
861.04
 21
672.818
  0
LINE
  8
Layer1
  6
CONTINUOUS
 62
7
 10
861.04
 20
414.818
 11
860.04
 21
413.818
  0
LINE
  8
Layer1
  6
CONTINUOUS
 62
7
 10
861.04
 20
200.447
 11
869.903
 21
200.447
  0
LINE
  8
Layer1
  6
CONTINUOUS
 62
7
 10
869.903
 20
200.447
 11
871.04
 21
198.477
  0
LINE
  8
Layer1
  6
CONTINUOUS
 62
7
 10
871.04
 20
198.477
 11
871.04
 21
180.477
  0
LINE
  8
Layer1
  6
CONTINUOUS
 62
7
 10
871.04
 20
180.477
 11
869.903
 21
178.507
  0
LINE
  8
Layer1
  6
CONTINUOUS
 62
7
 10
869.903
 20
178.507
 11
861.04
 21
178.507
  0
LINE
  8
Layer1
  6
CONTINUOUS
 62
7
 10
861.04
 20
194.962
 11
869.903
 21
194.962
  0
LINE
  8
Layer1
  6
CONTINUOUS
 62
7
 10
861.04
 20
183.992
 11
869.903
 21
183.992
  0
LINE
  8
Layer1
  6
CONTINUOUS
 62
7
 10
871.04
 20
195.477
 11
872.086
 21
195.477
  0
ARC
  8
Layer1
  6
CONTINUOUS
 62
7
 10
852.889
 20
189.477
 40
18.151
 50
342.412
 51
17.588
  0
ARC
  8
Layer1
  6
CONTINUOUS
 62
7
 10
865.894
 20
197.704
 40
4.856
 50
325.616
 51
34.384
  0
ARC
  8
Layer1
  6
CONTINUOUS
 62
7
 10
865.894
 20
181.25
 40
4.856
 50
325.616
 51
34.384
  0
LINE
  8
Layer1
  6
CONTINUOUS
 62
7
 10
861.04
 20
200.447
 11
861.04
 21
178.507
  0
LINE
  8
Layer1
  6
CONTINUOUS
 62
7
 10
871.04
 20
183.477
 11
872.086
 21
183.477
  0
LINE
  8
Layer1
  6
CONTINUOUS
 62
7
 10
872.086
 20
195.477
 11
872.086
 21
183.477
  0
LINE
  8
Layer1
  6
CONTINUOUS
 62
7
 10
874.086
 20
193.477
 11
874.086
 21
185.477
  0
LINE
  8
Layer1
  6
CONTINUOUS
 62
7
 10
872.086
 20
195.477
 11
874.086
 21
193.477
  0
LINE
  8
Layer1
  6
CONTINUOUS
 62
7
 10
872.086
 20
183.477
 11
874.086
 21
185.477
  0
LINE
  8
Layer1
  6
CONTINUOUS
 62
7
 10
871.04
 20
194.727
 11
872.836
 21
194.727
  0
LINE
  8
Layer1
  6
CONTINUOUS
 62
7
 10
870.961
 20
184.227
 11
872.836
 21
184.227
  0
LINE
  8
Layer1
  6
CONTINUOUS
 62
7
 10
831.04
 20
195.477
 11
831.04
 21
183.477
  0
LINE
  8
Layer1
  6
CONTINUOUS
 62
7
 10
829.04
 20
193.477
 11
829.04
 21
185.477
  0
LINE
  8
Layer1
  6
CONTINUOUS
 62
7
 10
831.04
 20
195.477
 11
829.04
 21
193.477
  0
LINE
  8
Layer1
  6
CONTINUOUS
 62
7
 10
831.04
 20
183.477
 11
829.04
 21
185.477
  0
LINE
  8
Layer1
  6
CONTINUOUS
 62
7
 10
831.04
 20
194.727
 11
830.29
 21
194.727
  0
LINE
  8
Layer1
  6
CONTINUOUS
 62
7
 10
831.04
 20
184.227
 11
830.29
 21
184.227
  0
LINE
  8
Layer1
  6
CONTINUOUS
 62
7
 10
831.01
 20
672.818
 11
832.01
 21
673.818
  0
LINE
  8
Layer1
  6
CONTINUOUS
 62
7
 10
831.01
 20
414.818
 11
832.01
 21
413.818
  0
LINE
  8
Layer1
  6
CENTER1
 62
7
 10
821.495
 20
659.818
 11
883.407
 21
659.818
  0
LINE
  8
Layer1
  6
CENTER1
 62
7
 10
804.58
 20
427.818
 11
883.745
 21
427.818
  0
LINE
  8
Layer1
  6
CONTINUOUS
 62
7
 10
861.04
 20
671.818
 11
876.04
 21
671.818
  0
LINE
  8
Layer1
  6
CONTINUOUS
 62
7
 10
861.04
 20
647.818
 11
876.04
 21
647.818
  0
LINE
  8
Layer1
  6
CONTINUOUS
 62
7
 10
876.04
 20
671.818
 11
876.04
 21
647.818
  0
LINE
  8
Layer1
  6
CONTINUOUS
 62
7
 10
877.04
 20
670.818
 11
877.04
 21
648.818
  0
LINE
  8
Layer1
  6
CONTINUOUS
 62
7
 10
876.04
 20
671.818
 11
877.04
 21
670.818
  0
LINE
  8
Layer1
  6
CONTINUOUS
 62
7
 10
876.04
 20
647.818
 11
877.04
 21
648.818
  0
LINE
  8
Layer1
  6
CONTINUOUS
 62
7
 10
861.04
 20
647.818
 11
861.04
 21
671.818
  0
LINE
  8
Layer1
  6
CONTINUOUS
 62
7
 10
861.665
 20
648.818
 11
875.415
 21
648.818
  0
LINE
  8
Layer1
  6
CONTINUOUS
 62
7
 10
862.29
 20
649.818
 11
874.79
 21
649.818
  0
LINE
  8
Layer1
  6
CONTINUOUS
 62
7
 10
862.915
 20
650.818
 11
874.165
 21
650.818
  0
LINE
  8
Layer1
  6
CONTINUOUS
 62
7
 10
863.54
 20
651.818
 11
873.54
 21
651.818
  0
LINE
  8
Layer1
  6
CONTINUOUS
 62
7
 10
864.165
 20
652.818
 11
872.915
 21
652.818
  0
LINE
  8
Layer1
  6
CONTINUOUS
 62
7
 10
864.79
 20
653.818
 11
872.29
 21
653.818
  0
LINE
  8
Layer1
  6
CONTINUOUS
 62
7
 10
865.415
 20
654.818
 11
871.665
 21
654.818
  0
LINE
  8
Layer1
  6
CONTINUOUS
 62
7
 10
830.01
 20
668.818
 11
767.04
 21
668.818
  0
LINE
  8
Layer1
  6
CONTINUOUS
 62
7
 10
830.01
 20
418.818
 11
767.04
 21
418.818
  0
LINE
  8
Layer1
  6
CONTINUOUS
 62
7
 10
766.04
 20
419.818
 11
767.04
 21
418.818
  0
LINE
  8
Layer1
  6
CONTINUOUS
 62
7
 10
830.01
 20
418.818
 11
831.01
 21
419.818
  0
LINE
  8
Layer1
  6
CONTINUOUS
 62
7
 10
766.04
 20
667.818
 11
767.04
 21
668.818
  0
LINE
  8
Layer1
  6
CONTINUOUS
 62
7
 10
830.01
 20
668.818
 11
831.01
 21
667.818
  0
LINE
  8
Layer1
  6
CONTINUOUS
 62
7
 10
830.01
 20
673.818
 11
758.539
 21
673.818
  0
LINE
  8
Layer1
  6
CONTINUOUS
 62
7
 10
830.01
 20
413.818
 11
758.877
 21
413.818
  0
LINE
  8
Layer1
  6
CONTINUOUS
 62
7
 10
831.01
 20
414.818
 11
830.01
 21
413.818
  0
LINE
  8
Layer1
  6
CONTINUOUS
 62
7
 10
830.01
 20
673.818
 11
831.01
 21
672.818
  0
LINE
  8
Layer1
  6
CENTER1
 62
7
 10
751.089
 20
653.818
 11
793.547
 21
653.818
  0
LINE
  8
Layer1
  6
CENTER1
 62
7
 10
750.781
 20
433.818
 11
839.757
 21
433.818
  0
CIRCLE
  8
Layer1
  6
CONTINUOUS
 62
7
 10
811.04
 20
398.818
 40
10
  0
CIRCLE
  8
Layer1
  6
CONTINUOUS
 62
7
 10
691.04
 20
398.818
 40
10
  0
CIRCLE
  8
Layer1
  6
CONTINUOUS
 62
7
 10
751.04
 20
398.818
 40
10
  0
LINE
  8
Layer1
  6
CONTINUOUS
 62
7
 10
815.01
 20
385.818
 11
831.01
 21
401.818
  0
LINE
  8
Layer1
  6
CONTINUOUS
 62
7
 10
687.04
 20
385.818
 11
671.04
 21
401.818
  0
LINE
  8
Layer1
  6
CONTINUOUS
 62
7
 10
831.04
 20
685.818
 11
815.01
 21
701.818
  0
LINE
  8
Layer1
  6
CONTINUOUS
 62
7
 10
687.04
 20
701.818
 11
671.04
 21
685.818
  0
CIRCLE
  8
Layer1
  6
CONTINUOUS
 62
7
 10
811.04
 20
398.818
 40
6.5
  0
CIRCLE
  8
Layer1
  6
CONTINUOUS
 62
7
 10
751.04
 20
398.818
 40
6.5
  0
CIRCLE
  8
Layer1
  6
CONTINUOUS
 62
7
 10
691.04
 20
398.818
 40
6.5
  0
CIRCLE
  8
Layer1
  6
CONTINUOUS
 62
7
 10
691.04
 20
688.818
 40
6.5
  0
CIRCLE
  8
Layer1
  6
CONTINUOUS
 62
7
 10
751.04
 20
688.818
 40
6.5
  0
CIRCLE
  8
Layer1
  6
CONTINUOUS
 62
7
 10
811.04
 20
688.818
 40
6.5
  0
CIRCLE
  8
Layer1
  6
CONTINUOUS
 62
7
 10
811.04
 20
688.818
 40
10
  0
CIRCLE
  8
Layer1
  6
CONTINUOUS
 62
7
 10
751.04
 20
688.818
 40
10
  0
CIRCLE
  8
Layer1
  6
CONTINUOUS
 62
7
 10
691.135
 20
688.818
 40
10
  0
LINE
  8
Layer1
  6
DASHED1
 62
7
 10
723.04
 20
590.818
 11
725.04
 21
590.818
  0
LINE
  8
Layer1
  6
DASHED1
 62
7
 10
723.04
 20
496.818
 11
725.04
 21
496.818
  0
CIRCLE
  8
Layer1
  6
CONTINUOUS
 62
7
 10
818.54
 20
653.818
 40
6.5
  0
CIRCLE
  8
Layer1
  6
CONTINUOUS
 62
7
 10
818.54
 20
653.818
 40
10
  0
CIRCLE
  8
Layer1
  6
CONTINUOUS
 62
7
 10
778.54
 20
653.818
 40
6.5
  0
CIRCLE
  8
Layer1
  6
CONTINUOUS
 62
7
 10
778.54
 20
653.818
 40
10
  0
CIRCLE
  8
Layer1
  6
CONTINUOUS
 62
7
 10
778.54
 20
433.818
 40
6.5
  0
CIRCLE
  8
Layer1
  6
DASHED1
 62
7
 10
778.54
 20
433.818
 40
10
  0
CIRCLE
  8
Layer1
  6
CONTINUOUS
 62
7
 10
818.54
 20
433.818
 40
6.5
  0
CIRCLE
  8
Layer1
  6
DASHED1
 62
7
 10
818.54
 20
433.818
 40
10
  0
LINE
  8
Layer1
  6
CENTER1
 62
7
 10
806.433
 20
653.818
 11
841.787
 21
653.818
  0
LINE
  8
Layer1
  6
CONTINUOUS
 62
7
 10
778.524
 20
478.818
 11
818.524
 21
478.818
  0
LINE
  8
Layer1
  6
CONTINUOUS
 62
7
 10
778.524
 20
608.818
 11
818.524
 21
608.818
  0
LINE
  8
Layer1
  6
CENTER1
 62
7
 10
747.811
 20
588.818
 11
785.604
 21
588.818
  0
LINE
  8
Layer1
  6
CENTER1
 62
7
 10
809.316
 20
588.818
 11
843.147
 21
588.818
  0
LINE
  8
Layer1
  6
CENTER1
 62
7
 10
747.811
 20
498.818
 11
785.604
 21
498.818
  0
LINE
  8
Layer1
  6
CENTER1
 62
7
 10
806.61
 20
498.818
 11
845.177
 21
498.818
  0
TEXT
  8
Layer1
 62
7
 10
206.335
 20
269.977
 72
1
 11
206.335
 21
269.977
 40
8
 41
1
 50
90
  1
 105 
  0
LINE
  8
Layer1
  6
CONTINUOUS
 62
7
 10
270.335
 20
217.477
 11
204.335
 21
217.477
  0
LINE
  8
Layer1
  6
CONTINUOUS
 62
7
 10
245.813
 20
322.477
 11
204.335
 21
322.477
  0
POLYLINE
  8
Layer1
  6
CONTINUOUS
 62
7
 66
1
 10
0
 20
0
 30
0
  0
VERTEX
  8
Layer1
 10
206.335
 20
217.477
  0
VERTEX
  8
Layer1
 10
206.335
 20
322.477
  0
SEQEND
  0
POLYLINE
  8
Layer1
  6
CONTINUOUS
 62
7
 66
1
 10
0
 20
0
 30
0
 70
1
  0
VERTEX
  8
Layer1
 10
207.37
 20
221.341
  0
VERTEX
  8
Layer1
 10
206.335
 20
217.477
  0
VERTEX
  8
Layer1
 10
205.299
 20
221.341
  0
SEQEND
  0
POLYLINE
  8
Layer1
  6
CONTINUOUS
 62
7
 66
1
 10
0
 20
0
 30
0
 70
1
  0
VERTEX
  8
Layer1
 10
205.299
 20
318.614
  0
VERTEX
  8
Layer1
 10
206.335
 20
322.477
  0
VERTEX
  8
Layer1
 10
207.37
 20
318.614
  0
SEQEND
  0
TEXT
  8
Layer1
 62
7
 10
219.335
 20
312.477
 72
1
 11
219.335
 21
312.477
 40
8
 41
1
 50
90
  1
 20 
  0
LINE
  8
Layer1
  6
CONTINUOUS
 62
7
 10
245.212
 20
302.477
 11
217.335
 21
302.477
  0
LINE
  8
Layer1
  6
CONTINUOUS
 62
7
 10
230.792
 20
322.477
 11
217.335
 21
322.477
  0
POLYLINE
  8
Layer1
  6
CONTINUOUS
 62
7
 66
1
 10
0
 20
0
 30
0
  0
VERTEX
  8
Layer1
 10
219.335
 20
302.477
  0
VERTEX
  8
Layer1
 10
219.335
 20
322.477
  0
SEQEND
  0
POLYLINE
  8
Layer1
  6
CONTINUOUS
 62
7
 66
1
 10
0
 20
0
 30
0
 70
1
  0
VERTEX
  8
Layer1
 10
220.37
 20
306.341
  0
VERTEX
  8
Layer1
 10
219.335
 20
302.477
  0
VERTEX
  8
Layer1
 10
218.299
 20
306.341
  0
SEQEND
  0
POLYLINE
  8
Layer1
  6
CONTINUOUS
 62
7
 66
1
 10
0
 20
0
 30
0
 70
1
  0
VERTEX
  8
Layer1
 10
218.299
 20
318.614
  0
VERTEX
  8
Layer1
 10
219.335
 20
322.477
  0
VERTEX
  8
Layer1
 10
220.37
 20
318.614
  0
SEQEND
  0
TEXT
  8
Layer1
 62
7
 10
364.335
 20
119.453
 72
1
 11
364.335
 21
119.453
 40
8
 41
1
  1
 200 
  0
LINE
  8
Layer1
  6
CONTINUOUS
 62
7
 10
264.335
 20
180.477
 11
264.335
 21
117.453
  0
LINE
  8
Layer1
  6
CONTINUOUS
 62
7
 10
464.335
 20
180.477
 11
464.335
 21
117.453
  0
POLYLINE
  8
Layer1
  6
CONTINUOUS
 62
7
 66
1
 10
0
 20
0
 30
0
  0
VERTEX
  8
Layer1
 10
264.335
 20
119.453
  0
VERTEX
  8
Layer1
 10
464.335
 20
119.453
  0
SEQEND
  0
POLYLINE
  8
Layer1
  6
CONTINUOUS
 62
7
 66
1
 10
0
 20
0
 30
0
 70
1
  0
VERTEX
  8
Layer1
 10
268.198
 20
118.418
  0
VERTEX
  8
Layer1
 10
264.335
 20
119.453
  0
VERTEX
  8
Layer1
 10
268.198
 20
120.489
  0
SEQEND
  0
POLYLINE
  8
Layer1
  6
CONTINUOUS
 62
7
 66
1
 10
0
 20
0
 30
0
 70
1
  0
VERTEX
  8
Layer1
 10
460.471
 20
120.489
  0
VERTEX
  8
Layer1
 10
464.335
 20
119.453
  0
VERTEX
  8
Layer1
 10
460.471
 20
118.418
  0
SEQEND
  0
TEXT
  8
Layer1
 62
7
 10
509.335
 20
204.477
 72
1
 11
509.335
 21
204.477
 40
8
 41
1
 50
90
  1
 50 
  0
LINE
  8
Layer1
  6
CONTINUOUS
 62
7
 10
458.515
 20
179.477
 11
511.335
 21
179.477
  0
LINE
  8
Layer1
  6
CONTINUOUS
 62
7
 10
459.335
 20
229.477
 11
511.335
 21
229.477
  0
POLYLINE
  8
Layer1
  6
CONTINUOUS
 62
7
 66
1
 10
0
 20
0
 30
0
  0
VERTEX
  8
Layer1
 10
509.335
 20
179.477
  0
VERTEX
  8
Layer1
 10
509.335
 20
229.477
  0
SEQEND
  0
POLYLINE
  8
Layer1
  6
CONTINUOUS
 62
7
 66
1
 10
0
 20
0
 30
0
 70
1
  0
VERTEX
  8
Layer1
 10
510.37
 20
183.341
  0
VERTEX
  8
Layer1
 10
509.335
 20
179.477
  0
VERTEX
  8
Layer1
 10
508.299
 20
183.341
  0
SEQEND
  0
POLYLINE
  8
Layer1
  6
CONTINUOUS
 62
7
 66
1
 10
0
 20
0
 30
0
 70
1
  0
VERTEX
  8
Layer1
 10
508.299
 20
225.614
  0
VERTEX
  8
Layer1
 10
509.335
 20
229.477
  0
VERTEX
  8
Layer1
 10
510.37
 20
225.614
  0
SEQEND
  0
TEXT
  8
Layer1
 62
7
 10
554.051
 20
173.477
 72
1
 11
554.051
 21
173.477
 40
8
 41
1
 50
90
  1
 62 
  0
LINE
  8
Layer1
  6
CONTINUOUS
 62
7
 10
497.666
 20
204.477
 11
556.051
 21
204.477
  0
LINE
  8
Layer1
  6
CONTINUOUS
 62
7
 10
509.587
 20
142.477
 11
556.051
 21
142.477
  0
POLYLINE
  8
Layer1
  6
CONTINUOUS
 62
7
 66
1
 10
0
 20
0
 30
0
  0
VERTEX
  8
Layer1
 10
554.051
 20
204.477
  0
VERTEX
  8
Layer1
 10
554.051
 20
142.477
  0
SEQEND
  0
POLYLINE
  8
Layer1
  6
CONTINUOUS
 62
7
 66
1
 10
0
 20
0
 30
0
 70
1
  0
VERTEX
  8
Layer1
 10
553.015
 20
200.614
  0
VERTEX
  8
Layer1
 10
554.051
 20
204.477
  0
VERTEX
  8
Layer1
 10
555.086
 20
200.614
  0
SEQEND
  0
POLYLINE
  8
Layer1
  6
CONTINUOUS
 62
7
 66
1
 10
0
 20
0
 30
0
 70
1
  0
VERTEX
  8
Layer1
 10
555.086
 20
146.341
  0
VERTEX
  8
Layer1
 10
554.051
 20
142.477
  0
VERTEX
  8
Layer1
 10
553.015
 20
146.341
  0
SEQEND
  0
TEXT
  8
Layer1
 62
7
 10
570.874
 20
195.977
 72
1
 11
570.874
 21
195.977
 40
8
 41
1
 50
90
  1
 107 
  0
LINE
  8
Layer1
  6
CONTINUOUS
 62
7
 10
493.335
 20
249.477
 11
572.874
 21
249.477
  0
LINE
  8
Layer1
  6
CONTINUOUS
 62
7
 10
554.051
 20
142.477
 11
572.874
 21
142.477
  0
POLYLINE
  8
Layer1
  6
CONTINUOUS
 62
7
 66
1
 10
0
 20
0
 30
0
  0
VERTEX
  8
Layer1
 10
570.874
 20
249.477
  0
VERTEX
  8
Layer1
 10
570.874
 20
142.477
  0
SEQEND
  0
POLYLINE
  8
Layer1
  6
CONTINUOUS
 62
7
 66
1
 10
0
 20
0
 30
0
 70
1
  0
VERTEX
  8
Layer1
 10
569.839
 20
245.614
  0
VERTEX
  8
Layer1
 10
570.874
 20
249.477
  0
VERTEX
  8
Layer1
 10
571.91
 20
245.614
  0
SEQEND
  0
POLYLINE
  8
Layer1
  6
CONTINUOUS
 62
7
 66
1
 10
0
 20
0
 30
0
 70
1
  0
VERTEX
  8
Layer1
 10
571.91
 20
146.341
  0
VERTEX
  8
Layer1
 10
570.874
 20
142.477
  0
VERTEX
  8
Layer1
 10
569.839
 20
146.341
  0
SEQEND
  0
TEXT
  8
Layer1
 62
7
 10
537.227
 20
156.477
 72
1
 11
537.227
 21
156.477
 40
8
 41
1
 50
90
  1
 28 
  0
LINE
  8
Layer1
  6
CONTINUOUS
 62
7
 10
521.335
 20
170.477
 11
539.227
 21
170.477
  0
LINE
  8
Layer1
  6
CONTINUOUS
 62
7
 10
521.335
 20
142.477
 11
539.227
 21
142.477
  0
POLYLINE
  8
Layer1
  6
CONTINUOUS
 62
7
 66
1
 10
0
 20
0
 30
0
  0
VERTEX
  8
Layer1
 10
537.227
 20
170.477
  0
VERTEX
  8
Layer1
 10
537.227
 20
142.477
  0
SEQEND
  0
POLYLINE
  8
Layer1
  6
CONTINUOUS
 62
7
 66
1
 10
0
 20
0
 30
0
 70
1
  0
VERTEX
  8
Layer1
 10
536.191
 20
166.614
  0
VERTEX
  8
Layer1
 10
537.227
 20
170.477
  0
VERTEX
  8
Layer1
 10
538.262
 20
166.614
  0
SEQEND
  0
POLYLINE
  8
Layer1
  6
CONTINUOUS
 62
7
 66
1
 10
0
 20
0
 30
0
 70
1
  0
VERTEX
  8
Layer1
 10
538.262
 20
146.341
  0
VERTEX
  8
Layer1
 10
537.227
 20
142.477
  0
VERTEX
  8
Layer1
 10
536.191
 20
146.341
  0
SEQEND
  0
LINE
  8
Layer1
  6
CENTER1
 62
7
 10
687.54
 20
227.907
 11
687.54
 21
253.143
  0
POLYLINE
  8
Layer1
  6
CONTINUOUS
 62
7
 66
1
 10
0
 20
0
 30
0
  0
VERTEX
  8
Layer1
 10
695.717
 20
249.477
  0
VERTEX
  8
Layer1
 10
696.413
 20
248.174
  0
VERTEX
  8
Layer1
 10
697.067
 20
246.868
  0
VERTEX
  8
Layer1
 10
697.636
 20
245.558
  0
VERTEX
  8
Layer1
 10
698.079
 20
244.242
  0
VERTEX
  8
Layer1
 10
698.353
 20
242.917
  0
VERTEX
  8
Layer1
 10
698.416
 20
241.581
  0
VERTEX
  8
Layer1
 10
698.257
 20
240.233
  0
VERTEX
  8
Layer1
 10
697.953
 20
238.873
  0
VERTEX
  8
Layer1
 10
697.599
 20
237.502
  0
VERTEX
  8
Layer1
 10
697.288
 20
236.119
  0
VERTEX
  8
Layer1
 10
697.108
 20
234.727
  0
VERTEX
  8
Layer1
 10
697.084
 20
233.33
  0
VERTEX
  8
Layer1
 10
697.208
 20
231.933
  0
VERTEX
  8
Layer1
 10
697.47
 20
230.545
  0
VERTEX
  8
Layer1
 10
697.859
 20
229.171
  0
VERTEX
  8
Layer1
 10
698.366
 20
227.818
  0
VERTEX
  8
Layer1
 10
698.981
 20
226.493
  0
VERTEX
  8
Layer1
 10
699.694
 20
225.203
  0
VERTEX
  8
Layer1
 10
700.495
 20
223.953
  0
VERTEX
  8
Layer1
 10
701.375
 20
222.752
  0
VERTEX
  8
Layer1
 10
702.325
 20
221.605
  0
VERTEX
  8
Layer1
 10
703.332
 20
220.519
  0
VERTEX
  8
Layer1
 10
704.389
 20
219.5
  0
VERTEX
  8
Layer1
 10
705.484
 20
218.556
  0
VERTEX
  8
Layer1
 10
706.614
 20
217.682
  0
VERTEX
  8
Layer1
 10
707.772
 20
216.87
  0
VERTEX
  8
Layer1
 10
708.955
 20
216.113
  0
VERTEX
  8
Layer1
 10
710.158
 20
215.401
  0
VERTEX
  8
Layer1
 10
711.379
 20
214.727
  0
VERTEX
  8
Layer1
 10
712.611
 20
214.082
  0
VERTEX
  8
Layer1
 10
713.853
 20
213.457
  0
VERTEX
  8
Layer1
 10
715.098
 20
212.845
  0
VERTEX
  8
Layer1
 10
716.343
 20
212.237
  0
VERTEX
  8
Layer1
 10
717.585
 20
211.625
  0
VERTEX
  8
Layer1
 10
718.818
 20
211
  0
VERTEX
  8
Layer1
 10
720.039
 20
210.354
  0
VERTEX
  8
Layer1
 10
721.243
 20
209.679
  0
VERTEX
  8
Layer1
 10
722.43
 20
208.973
  0
VERTEX
  8
Layer1
 10
723.6
 20
208.238
  0
VERTEX
  8
Layer1
 10
724.753
 20
207.473
  0
VERTEX
  8
Layer1
 10
725.888
 20
206.68
  0
VERTEX
  8
Layer1
 10
727.007
 20
205.86
  0
VERTEX
  8
Layer1
 10
728.108
 20
205.013
  0
VERTEX
  8
Layer1
 10
729.193
 20
204.141
  0
VERTEX
  8
Layer1
 10
730.261
 20
203.244
  0
VERTEX
  8
Layer1
 10
731.313
 20
202.324
  0
VERTEX
  8
Layer1
 10
732.348
 20
201.38
  0
VERTEX
  8
Layer1
 10
733.367
 20
200.415
  0
VERTEX
  8
Layer1
 10
734.37
 20
199.428
  0
VERTEX
  8
Layer1
 10
735.356
 20
198.421
  0
VERTEX
  8
Layer1
 10
736.327
 20
197.395
  0
VERTEX
  8
Layer1
 10
737.282
 20
196.351
  0
VERTEX
  8
Layer1
 10
738.221
 20
195.288
  0
VERTEX
  8
Layer1
 10
739.144
 20
194.209
  0
VERTEX
  8
Layer1
 10
740.053
 20
193.115
  0
VERTEX
  8
Layer1
 10
740.945
 20
192.005
  0
VERTEX
  8
Layer1
 10
741.822
 20
190.881
  0
VERTEX
  8
Layer1
 10
742.685
 20
189.744
  0
VERTEX
  8
Layer1
 10
743.533
 20
188.595
  0
VERTEX
  8
Layer1
 10
744.365
 20
187.435
  0
VERTEX
  8
Layer1
 10
745.183
 20
186.264
  0
VERTEX
  8
Layer1
 10
745.986
 20
185.083
  0
VERTEX
  8
Layer1
 10
746.774
 20
183.894
  0
VERTEX
  8
Layer1
 10
747.548
 20
182.697
  0
VERTEX
  8
Layer1
 10
748.308
 20
181.493
  0
VERTEX
  8
Layer1
 10
749.054
 20
180.282
  0
VERTEX
  8
Layer1
 10
749.785
 20
179.067
  0
VERTEX
  8
Layer1
 10
750.503
 20
177.847
  0
VERTEX
  8
Layer1
 10
751.207
 20
176.623
  0
VERTEX
  8
Layer1
 10
751.899
 20
175.394
  0
VERTEX
  8
Layer1
 10
752.578
 20
174.161
  0
VERTEX
  8
Layer1
 10
753.245
 20
172.925
  0
VERTEX
  8
Layer1
 10
753.901
 20
171.684
  0
VERTEX
  8
Layer1
 10
754.545
 20
170.44
  0
VERTEX
  8
Layer1
 10
755.179
 20
169.193
  0
VERTEX
  8
Layer1
 10
755.804
 20
167.942
  0
VERTEX
  8
Layer1
 10
756.418
 20
166.688
  0
VERTEX
  8
Layer1
 10
757.024
 20
165.431
  0
VERTEX
  8
Layer1
 10
757.62
 20
164.172
  0
VERTEX
  8
Layer1
 10
758.21
 20
162.909
  0
VERTEX
  8
Layer1
 10
758.791
 20
161.645
  0
VERTEX
  8
Layer1
 10
759.365
 20
160.377
  0
VERTEX
  8
Layer1
 10
759.933
 20
159.108
  0
VERTEX
  8
Layer1
 10
760.494
 20
157.837
  0
VERTEX
  8
Layer1
 10
761.048
 20
156.563
  0
VERTEX
  8
Layer1
 10
761.599
 20
155.288
  0
VERTEX
  8
Layer1
 10
762.144
 20
154.012
  0
VERTEX
  8
Layer1
 10
762.686
 20
152.734
  0
VERTEX
  8
Layer1
 10
763.223
 20
151.454
  0
VERTEX
  8
Layer1
 10
763.758
 20
150.174
  0
VERTEX
  8
Layer1
 10
764.289
 20
148.893
  0
VERTEX
  8
Layer1
 10
764.817
 20
147.611
  0
VERTEX
  8
Layer1
 10
765.344
 20
146.328
  0
VERTEX
  8
Layer1
 10
765.87
 20
145.045
  0
VERTEX
  8
Layer1
 10
766.394
 20
143.761
  0
VERTEX
  8
Layer1
 10
766.918
 20
142.477
  0
SEQEND
  0
LINE
  8
Layer1
  6
CONTINUOUS
 62
7
 10
756.54
 20
236.977
 11
756.54
 21
248.277
  0
LINE
  8
Layer1
  6
CONTINUOUS
 62
7
 10
738.54
 20
236.977
 11
738.54
 21
248.277
  0
LINE
  8
Layer1
  6
CONTINUOUS
 62
7
 10
756.54
 20
248.277
 11
738.54
 21
248.277
  0
LINE
  8
Layer1
  6
CONTINUOUS
 62
7
 10
755.84
 20
248.977
 11
739.24
 21
248.977
  0
LINE
  8
Layer1
  6
CONTINUOUS
 62
7
 10
756.54
 20
248.277
 11
755.84
 21
248.977
  0
LINE
  8
Layer1
  6
CONTINUOUS
 62
7
 10
738.54
 20
248.277
 11
739.24
 21
248.977
  0
LINE
  8
Layer1
  6
CONTINUOUS
 62
7
 10
738.54
 20
236.977
 11
756.54
 21
236.977
  0
LINE
  8
Layer1
  6
CONTINUOUS
 62
7
 10
738.54
 20
236.977
 11
738.54
 21
248.277
  0
LINE
  8
Layer1
  6
CONTINUOUS
 62
7
 10
739.54
 20
237.605
 11
739.54
 21
247.65
  0
LINE
  8
Layer1
  6
CONTINUOUS
 62
7
 10
740.54
 20
238.233
 11
740.54
 21
247.022
  0
LINE
  8
Layer1
  6
CONTINUOUS
 62
7
 10
741.54
 20
246.394
 11
741.54
 21
238.861
  0
LINE
  8
Layer1
  6
CONTINUOUS
 62
7
 10
742.54
 20
245.766
 11
742.54
 21
239.489
  0
LINE
  8
Layer1
  6
CONTINUOUS
 62
7
 10
743.54
 20
245.139
 11
743.54
 21
240.116
  0
LINE
  8
Layer1
  6
CONTINUOUS
 62
7
 10
744.54
 20
244.511
 11
744.54
 21
240.744
  0
LINE
  8
Layer1
  6
CONTINUOUS
 62
7
 10
745.54
 20
243.883
 11
745.54
 21
241.372
  0
LINE
  8
Layer1
  6
CONTINUOUS
 62
7
 10
697.241
 20
235.696
 11
711.022
 21
249.477
  0
LINE
  8
Layer1
  6
CONTINUOUS
 62
7
 10
698.373
 20
240.828
 11
707.022
 21
249.477
  0
LINE
  8
Layer1
  6
CONTINUOUS
 62
7
 10
698.006
 20
244.461
 11
703.022
 21
249.477
  0
LINE
  8
Layer1
  6
CONTINUOUS
 62
7
 10
696.849
 20
247.304
 11
699.022
 21
249.477
  0
LINE
  8
Layer1
  6
CONTINUOUS
 62
7
 10
697.278
 20
231.733
 11
702.54
 21
236.995
  0
LINE
  8
Layer1
  6
CONTINUOUS
 62
7
 10
705.022
 20
239.477
 11
715.022
 21
249.477
  0
LINE
  8
Layer1
  6
CONTINUOUS
 62
7
 10
713.022
 20
239.477
 11
714.499
 21
240.954
  0
LINE
  8
Layer1
  6
CONTINUOUS
 62
7
 10
720.499
 20
242.954
 11
727.022
 21
249.477
  0
LINE
  8
Layer1
  6
CONTINUOUS
 62
7
 10
721.022
 20
239.477
 11
731.022
 21
249.477
  0
LINE
  8
Layer1
  6
CONTINUOUS
 62
7
 10
725.022
 20
239.477
 11
735.022
 21
249.477
  0
LINE
  8
Layer1
  6
CONTINUOUS
 62
7
 10
729.022
 20
239.477
 11
739.022
 21
249.477
  0
LINE
  8
Layer1
  6
CONTINUOUS
 62
7
 10
732.339
 20
238.794
 11
743.022
 21
249.477
  0
LINE
  8
Layer1
  6
CONTINUOUS
 62
7
 10
732.54
 20
235.212
 11
738.54
 21
241.447
  0
LINE
  8
Layer1
  6
CONTINUOUS
 62
7
 10
731.022
 20
229.477
 11
738.531
 21
236.986
  0
LINE
  8
Layer1
  6
CONTINUOUS
 62
7
 10
735.022
 20
229.477
 11
742.612
 21
237.067
  0
LINE
  8
Layer1
  6
CONTINUOUS
 62
7
 10
739.022
 20
229.477
 11
741.04
 21
231.495
  0
LINE
  8
Layer1
  6
CONTINUOUS
 62
7
 10
754.04
 20
232.495
 11
764.04
 21
242.495
  0
LINE
  8
Layer1
  6
CONTINUOUS
 62
7
 10
755.022
 20
229.477
 11
764.04
 21
238.495
  0
LINE
  8
Layer1
  6
CONTINUOUS
 62
7
 10
759.022
 20
229.477
 11
764.04
 21
234.495
  0
LINE
  8
Layer1
  6
CONTINUOUS
 62
7
 10
763.022
 20
229.477
 11
764.04
 21
230.495
  0
LINE
  8
Layer1
  6
CONTINUOUS
 62
7
 10
756.462
 20
246.917
 11
759.022
 21
249.477
  0
LINE
  8
Layer1
  6
CONTINUOUS
 62
7
 10
756.899
 20
243.355
 11
763.022
 21
249.477
  0
LINE
  8
Layer1
  6
CONTINUOUS
 62
7
 10
756.54
 20
238.995
 11
764.04
 21
246.495
  0
LINE
  8
Layer1
  6
CONTINUOUS
 62
7
 10
720.499
 20
246.954
 11
723.022
 21
249.477
  0
LINE
  8
Layer1
  6
CONTINUOUS
 62
7
 10
709.022
 20
239.477
 11
714.499
 21
244.954
  0
LINE
  8
Layer1
  6
CONTINUOUS
 62
7
 10
699.022
 20
229.477
 11
702.54
 21
232.995
  0
LINE
  8
Layer1
  6
DASHED1
 62
7
 10
757.409
 20
164.619
 11
757.643
 21
160.992
  0
LINE
  8
Layer1
  6
CONTINUOUS
 62
7
 10
762.357
 20
171.957
 11
759.528
 21
171.957
  0
LINE
  8
Layer1
  6
CONTINUOUS
 62
7
 10
759.528
 20
166.475
 11
762.357
 21
166.475
  0
LINE
  8
Layer1
  6
CONTINUOUS
 62
7
 10
761.414
 20
155.509
 11
764.242
 21
155.509
  0
LINE
  8
Layer1
  6
CONTINUOUS
 62
7
 10
762.357
 20
171.957
 11
762.357
 21
166.475
  0
LINE
  8
Layer1
  6
CONTINUOUS
 62
7
 10
759.528
 20
171.957
 11
759.528
 21
166.475
  0
LINE
  8
Layer1
  6
CONTINUOUS
 62
7
 10
761.414
 20
155.509
 11
761.414
 21
155.488
  0
LINE
  8
Layer1
  6
CONTINUOUS
 62
7
 10
764.242
 20
155.509
 11
764.242
 21
149.997
  0
LINE
  8
Layer1
  6
CONTINUOUS
 62
7
 10
759.528
 20
166.475
 11
761.414
 21
155.509
  0
LINE
  8
Layer1
  6
CONTINUOUS
 62
7
 10
762.357
 20
166.475
 11
764.242
 21
155.509
  0
LINE
  8
Layer1
  6
CONTINUOUS
 62
7
 10
760.471
 20
160.992
 11
760.824
 21
156.872
  0
LINE
  8
Layer1
  6
CONTINUOUS
 62
7
 10
762.592
 20
171.957
 11
763.298
 21
160.992
  0
LINE
  8
Layer1
  6
DASHED1
 62
7
 10
760.824
 20
156.872
 11
761.414
 21
149.997
  0
LINE
  8
Layer1
  6
DASHED1
 62
7
 10
761.414
 20
155.488
 11
761.414
 21
149.997
  0
LINE
  8
Layer1
  6
CONTINUOUS
 62
7
 10
763.753
 20
149.997
 11
764.242
 21
149.997
  0
LINE
  8
Layer1
  6
CONTINUOUS
 62
7
 10
764.04
 20
179.477
 11
764.04
 21
171.819
  0
LINE
  8
Layer1
  6
CONTINUOUS
 62
7
 10
764.041
 20
171.957
 11
753.872
 21
171.957
  0
LINE
  8
Layer1
  6
CONTINUOUS
 62
7
 10
749.54
 20
179.477
 11
807.04
 21
179.477
  0
LINE
  8
Layer1
  6
DASHED1
 62
7
 10
766.04
 20
307.977
 11
783.047
 21
307.977
  0
LINE
  8
Layer1
  6
DASHED1
 62
7
 10
766.04
 20
298.588
 11
783.577
 21
298.588
  0
LINE
  8
Layer1
  6
DASHED1
 62
7
 10
766.04
 20
266.227
 11
784.827
 21
266.227
  0
LINE
  8
Layer1
  6
DASHED1
 62
7
 10
766.04
 20
263.727
 11
787.327
 21
263.727
  0
LINE
  8
Layer1
  6
DASHED1
 62
7
 10
813.577
 20
266.227
 11
831.021
 21
266.227
  0
LINE
  8
Layer1
  6
DASHED1
 62
7
 10
813.577
 20
263.727
 11
831.019
 21
263.727
  0
LINE
  8
Layer1
  6
PHANTOM1
 62
7
 10
767.04
 20
287.477
 11
830.069
 21
287.477
  0
LINE
  8
Layer1
  6
PHANTOM1
 62
7
 10
830.055
 20
267.477
 11
767.04
 21
267.477
  0
LINE
  8
Layer1
  6
CONTINUOUS
 62
7
 10
872.827
 20
184.477
 11
876.04
 21
184.477
  0
LINE
  8
Layer1
  6
CONTINUOUS
 62
7
 10
861.04
 20
227.477
 11
876.04
 21
227.477
  0
LINE
  8
Layer1
  6
CONTINUOUS
 62
7
 10
861.04
 20
203.477
 11
876.04
 21
203.477
  0
LINE
  8
Layer1
  6
CONTINUOUS
 62
7
 10
876.04
 20
227.477
 11
876.04
 21
203.477
  0
LINE
  8
Layer1
  6
CONTINUOUS
 62
7
 10
877.04
 20
226.477
 11
877.04
 21
204.477
  0
LINE
  8
Layer1
  6
CONTINUOUS
 62
7
 10
876.04
 20
227.477
 11
877.04
 21
226.477
  0
LINE
  8
Layer1
  6
CONTINUOUS
 62
7
 10
876.04
 20
203.477
 11
877.04
 21
204.477
  0
LINE
  8
Layer1
  6
CONTINUOUS
 62
7
 10
861.04
 20
203.477
 11
861.04
 21
227.477
  0
LINE
  8
Layer1
  6
CONTINUOUS
 62
7
 10
861.665
 20
204.477
 11
875.415
 21
204.477
  0
LINE
  8
Layer1
  6
CONTINUOUS
 62
7
 10
862.29
 20
205.477
 11
874.79
 21
205.477
  0
LINE
  8
Layer1
  6
CONTINUOUS
 62
7
 10
862.915
 20
206.477
 11
874.165
 21
206.477
  0
LINE
  8
Layer1
  6
CONTINUOUS
 62
7
 10
863.54
 20
207.477
 11
873.54
 21
207.477
  0
LINE
  8
Layer1
  6
CONTINUOUS
 62
7
 10
864.165
 20
208.477
 11
872.915
 21
208.477
  0
LINE
  8
Layer1
  6
CONTINUOUS
 62
7
 10
864.79
 20
209.477
 11
872.29
 21
209.477
  0
LINE
  8
Layer1
  6
CONTINUOUS
 62
7
 10
865.415
 20
210.477
 11
871.665
 21
210.477
  0
LINE
  8
Layer1
  6
CONTINUOUS
 62
7
 10
861.04
 20
166.507
 11
861.04
 21
190.507
  0
LINE
  8
Layer1
  6
PHANTOM1
 62
7
 10
632.04
 20
229.477
 11
610.04
 21
229.477
  0
LINE
  8
Layer1
  6
PHANTOM1
 62
7
 10
609.04
 20
180.477
 11
609.04
 21
228.477
  0
LINE
  8
Layer1
  6
PHANTOM1
 62
7
 10
632.04
 20
179.477
 11
610.04
 21
179.477
  0
LINE
  8
Layer1
  6
PHANTOM1
 62
7
 10
610.04
 20
229.477
 11
609.04
 21
228.477
  0
LINE
  8
Layer1
  6
PHANTOM1
 62
7
 10
609.04
 20
180.477
 11
610.04
 21
179.477
  0
LINE
  8
Layer1
  6
PHANTOM1
 62
7
 10
632.04
 20
229.477
 11
633.04
 21
228.477
  0
LINE
  8
Layer1
  6
PHANTOM1
 62
7
 10
632.04
 20
179.477
 11
633.04
 21
180.477
  0
LINE
  8
Layer1
  6
PHANTOM1
 62
7
 10
633.04
 20
180.477
 11
633.04
 21
228.477
  0
TEXT
  8
Layer1
 62
7
 10
669.54
 20
259.808
 72
1
 11
669.54
 21
259.808
 40
8
 41
1
  1
 3 
  0
LINE
  8
Layer1
  6
CONTINUOUS
 62
7
 10
668.04
 20
223.544
 11
668.04
 21
261.808
  0
LINE
  8
Layer1
  6
CONTINUOUS
 62
7
 10
671.04
 20
234.533
 11
671.04
 21
261.808
  0
POLYLINE
  8
Layer1
  6
CONTINUOUS
 62
7
 66
1
 10
0
 20
0
 30
0
  0
VERTEX
  8
Layer1
 10
658.04
 20
259.808
  0
VERTEX
  8
Layer1
 10
668.04
 20
259.808
  0
SEQEND
  0
POLYLINE
  8
Layer1
  6
CONTINUOUS
 62
7
 66
1
 10
0
 20
0
 30
0
 70
1
  0
VERTEX
  8
Layer1
 10
664.176
 20
260.843
  0
VERTEX
  8
Layer1
 10
668.04
 20
259.808
  0
VERTEX
  8
Layer1
 10
664.176
 20
258.773
  0
SEQEND
  0
POLYLINE
  8
Layer1
  6
CONTINUOUS
 62
7
 66
1
 10
0
 20
0
 30
0
  0
VERTEX
  8
Layer1
 10
681.04
 20
259.808
  0
VERTEX
  8
Layer1
 10
671.04
 20
259.808
  0
SEQEND
  0
POLYLINE
  8
Layer1
  6
CONTINUOUS
 62
7
 66
1
 10
0
 20
0
 30
0
 70
1
  0
VERTEX
  8
Layer1
 10
674.904
 20
258.773
  0
VERTEX
  8
Layer1
 10
671.04
 20
259.808
  0
VERTEX
  8
Layer1
 10
674.904
 20
260.843
  0
SEQEND
  0
LINE
  8
Layer1
  6
CONTINUOUS
 62
7
 10
668.04
 20
259.808
 11
671.04
 21
259.808
  0
TEXT
  8
Layer1
 62
7
 10
656.04
 20
259.808
 72
1
 11
656.04
 21
259.808
 40
8
 41
1
  1
 24 
  0
LINE
  8
Layer1
  6
CONTINUOUS
 62
7
 10
644.04
 20
228.477
 11
644.04
 21
261.808
  0
POLYLINE
  8
Layer1
  6
CONTINUOUS
 62
7
 66
1
 10
0
 20
0
 30
0
  0
VERTEX
  8
Layer1
 10
668.04
 20
259.808
  0
VERTEX
  8
Layer1
 10
644.04
 20
259.808
  0
SEQEND
  0
POLYLINE
  8
Layer1
  6
CONTINUOUS
 62
7
 66
1
 10
0
 20
0
 30
0
 70
1
  0
VERTEX
  8
Layer1
 10
664.176
 20
260.843
  0
VERTEX
  8
Layer1
 10
668.04
 20
259.808
  0
VERTEX
  8
Layer1
 10
664.176
 20
258.773
  0
SEQEND
  0
POLYLINE
  8
Layer1
  6
CONTINUOUS
 62
7
 66
1
 10
0
 20
0
 30
0
 70
1
  0
VERTEX
  8
Layer1
 10
647.904
 20
258.773
  0
VERTEX
  8
Layer1
 10
644.04
 20
259.808
  0
VERTEX
  8
Layer1
 10
647.904
 20
260.843
  0
SEQEND
  0
TEXT
  8
Layer1
 62
7
 10
628.466
 20
130.798
 72
1
 11
628.466
 21
130.798
 40
6
 41
1
  1
35ストローク 
  0
LINE
  8
Layer1
  6
CONTINUOUS
 62
7
 10
609.04
 20
180.477
 11
609.04
 21
140.477
  0
LINE
  8
Layer1
  6
CONTINUOUS
 62
7
 10
644.04
 20
180.477
 11
644.04
 21
140.477
  0
POLYLINE
  8
Layer1
  6
CONTINUOUS
 62
7
 66
1
 10
0
 20
0
 30
0
  0
VERTEX
  8
Layer1
 10
609.04
 20
142.477
  0
VERTEX
  8
Layer1
 10
644.04
 20
142.477
  0
SEQEND
  0
POLYLINE
  8
Layer1
  6
CONTINUOUS
 62
7
 66
1
 10
0
 20
0
 30
0
 70
1
  0
VERTEX
  8
Layer1
 10
612.904
 20
141.442
  0
VERTEX
  8
Layer1
 10
609.04
 20
142.477
  0
VERTEX
  8
Layer1
 10
612.904
 20
143.513
  0
SEQEND
  0
POLYLINE
  8
Layer1
  6
CONTINUOUS
 62
7
 66
1
 10
0
 20
0
 30
0
 70
1
  0
VERTEX
  8
Layer1
 10
640.176
 20
143.513
  0
VERTEX
  8
Layer1
 10
644.04
 20
142.477
  0
VERTEX
  8
Layer1
 10
640.176
 20
141.442
  0
SEQEND
  0
TEXT
  8
Layer1
 62
7
 10
895.551
 20
193.977
 72
1
 11
895.551
 21
193.977
 40
8
 41
1
 50
90
  1
 43
  0
LINE
  8
Layer1
  6
CONTINUOUS
 62
7
 10
868.176
 20
215.477
 11
897.551
 21
215.477
  0
LINE
  8
Layer1
  6
CONTINUOUS
 62
7
 10
872.471
 20
172.477
 11
897.551
 21
172.477
  0
POLYLINE
  8
Layer1
  6
CONTINUOUS
 62
7
 66
1
 10
0
 20
0
 30
0
  0
VERTEX
  8
Layer1
 10
895.551
 20
215.477
  0
VERTEX
  8
Layer1
 10
895.551
 20
172.477
  0
SEQEND
  0
POLYLINE
  8
Layer1
  6
CONTINUOUS
 62
7
 66
1
 10
0
 20
0
 30
0
 70
1
  0
VERTEX
  8
Layer1
 10
894.516
 20
211.614
  0
VERTEX
  8
Layer1
 10
895.551
 20
215.477
  0
VERTEX
  8
Layer1
 10
896.587
 20
211.614
  0
SEQEND
  0
POLYLINE
  8
Layer1
  6
CONTINUOUS
 62
7
 66
1
 10
0
 20
0
 30
0
 70
1
  0
VERTEX
  8
Layer1
 10
896.587
 20
176.341
  0
VERTEX
  8
Layer1
 10
895.551
 20
172.477
  0
VERTEX
  8
Layer1
 10
894.516
 20
176.341
  0
SEQEND
  0
TEXT
  8
Layer1
 62
7
 10
895.551
 20
160.825
 72
1
 11
895.551
 21
160.825
 40
8
 41
1
 50
90
  1
 20
  0
LINE
  8
Layer1
  6
CONTINUOUS
 62
7
 10
857.918
 20
152.477
 11
897.551
 21
152.477
  0
POLYLINE
  8
Layer1
  6
CONTINUOUS
 62
7
 66
1
 10
0
 20
0
 30
0
  0
VERTEX
  8
Layer1
 10
895.551
 20
172.477
  0
VERTEX
  8
Layer1
 10
895.551
 20
152.477
  0
SEQEND
  0
POLYLINE
  8
Layer1
  6
CONTINUOUS
 62
7
 66
1
 10
0
 20
0
 30
0
 70
1
  0
VERTEX
  8
Layer1
 10
894.516
 20
168.614
  0
VERTEX
  8
Layer1
 10
895.551
 20
172.477
  0
VERTEX
  8
Layer1
 10
896.587
 20
168.614
  0
SEQEND
  0
POLYLINE
  8
Layer1
  6
CONTINUOUS
 62
7
 66
1
 10
0
 20
0
 30
0
 70
1
  0
VERTEX
  8
Layer1
 10
896.587
 20
156.341
  0
VERTEX
  8
Layer1
 10
895.551
 20
152.477
  0
VERTEX
  8
Layer1
 10
894.516
 20
156.341
  0
SEQEND
  0
TEXT
  8
Layer1
 62
7
 10
895.551
 20
147.477
 72
1
 11
895.551
 21
147.477
 40
8
 41
1
 50
90
  1
 10 
  0
LINE
  8
Layer1
  6
CONTINUOUS
 62
7
 10
830.086
 20
142.477
 11
897.551
 21
142.477
  0
POLYLINE
  8
Layer1
  6
CONTINUOUS
 62
7
 66
1
 10
0
 20
0
 30
0
  0
VERTEX
  8
Layer1
 10
895.551
 20
162.477
  0
VERTEX
  8
Layer1
 10
895.551
 20
152.477
  0
SEQEND
  0
POLYLINE
  8
Layer1
  6
CONTINUOUS
 62
7
 66
1
 10
0
 20
0
 30
0
 70
1
  0
VERTEX
  8
Layer1
 10
896.587
 20
156.341
  0
VERTEX
  8
Layer1
 10
895.551
 20
152.477
  0
VERTEX
  8
Layer1
 10
894.516
 20
156.341
  0
SEQEND
  0
POLYLINE
  8
Layer1
  6
CONTINUOUS
 62
7
 66
1
 10
0
 20
0
 30
0
  0
VERTEX
  8
Layer1
 10
895.551
 20
132.477
  0
VERTEX
  8
Layer1
 10
895.551
 20
142.477
  0
SEQEND
  0
POLYLINE
  8
Layer1
  6
CONTINUOUS
 62
7
 66
1
 10
0
 20
0
 30
0
 70
1
  0
VERTEX
  8
Layer1
 10
894.516
 20
138.614
  0
VERTEX
  8
Layer1
 10
895.551
 20
142.477
  0
VERTEX
  8
Layer1
 10
896.587
 20
138.614
  0
SEQEND
  0
LINE
  8
Layer1
  6
CONTINUOUS
 62
7
 10
895.551
 20
152.477
 11
895.551
 21
142.477
  0
TEXT
  8
Layer1
 62
7
 10
923.344
 20
214.977
 72
1
 11
923.344
 21
214.977
 40
8
 41
1
 50
90
  1
 145 
  0
LINE
  8
Layer1
  6
CONTINUOUS
 62
7
 10
895.505
 20
142.477
 11
925.344
 21
142.477
  0
LINE
  8
Layer1
  6
CONTINUOUS
 62
7
 10
830.069
 20
287.477
 11
925.344
 21
287.477
  0
POLYLINE
  8
Layer1
  6
CONTINUOUS
 62
7
 66
1
 10
0
 20
0
 30
0
  0
VERTEX
  8
Layer1
 10
923.344
 20
142.477
  0
VERTEX
  8
Layer1
 10
923.344
 20
287.477
  0
SEQEND
  0
POLYLINE
  8
Layer1
  6
CONTINUOUS
 62
7
 66
1
 10
0
 20
0
 30
0
 70
1
  0
VERTEX
  8
Layer1
 10
924.38
 20
146.341
  0
VERTEX
  8
Layer1
 10
923.344
 20
142.477
  0
VERTEX
  8
Layer1
 10
922.309
 20
146.341
  0
SEQEND
  0
POLYLINE
  8
Layer1
  6
CONTINUOUS
 62
7
 66
1
 10
0
 20
0
 30
0
 70
1
  0
VERTEX
  8
Layer1
 10
922.309
 20
283.614
  0
VERTEX
  8
Layer1
 10
923.344
 20
287.477
  0
VERTEX
  8
Layer1
 10
924.38
 20
283.614
  0
SEQEND
  0
TEXT
  8
Layer1
 62
7
 10
942.393
 20
232.477
 72
1
 11
942.393
 21
232.477
 40
8
 41
1
 50
90
  1
 180 
  0
LINE
  8
Layer1
  6
CONTINUOUS
 62
7
 10
830.069
 20
322.477
 11
944.393
 21
322.477
  0
LINE
  8
Layer1
  6
CONTINUOUS
 62
7
 10
923.344
 20
142.477
 11
944.393
 21
142.477
  0
POLYLINE
  8
Layer1
  6
CONTINUOUS
 62
7
 66
1
 10
0
 20
0
 30
0
  0
VERTEX
  8
Layer1
 10
942.393
 20
322.477
  0
VERTEX
  8
Layer1
 10
942.393
 20
142.477
  0
SEQEND
  0
POLYLINE
  8
Layer1
  6
CONTINUOUS
 62
7
 66
1
 10
0
 20
0
 30
0
 70
1
  0
VERTEX
  8
Layer1
 10
941.357
 20
318.614
  0
VERTEX
  8
Layer1
 10
942.393
 20
322.477
  0
VERTEX
  8
Layer1
 10
943.428
 20
318.614
  0
SEQEND
  0
POLYLINE
  8
Layer1
  6
CONTINUOUS
 62
7
 66
1
 10
0
 20
0
 30
0
 70
1
  0
VERTEX
  8
Layer1
 10
943.428
 20
146.341
  0
VERTEX
  8
Layer1
 10
942.393
 20
142.477
  0
VERTEX
  8
Layer1
 10
941.357
 20
146.341
  0
SEQEND
  0
TEXT
  8
Layer1
 62
7
 10
916.75
 20
244.843
 72
1
 11
916.75
 21
244.843
 40
3
 41
1
 50
90
  1
(シャットハイト） 
  0
TEXT
  8
Layer1
 62
7
 10
940.666
 20
261.022
 72
1
 11
940.666
 21
261.022
 40
3
 41
1
 50
90
  1
(オープンハイト）
  0
TEXT
  8
Layer1
 62
7
 10
810.437
 20
247.168
 72
1
 11
810.437
 21
247.168
 40
8
 41
1
 50
22.4758
  1
 45°
  0
ARC
  8
Layer1
  6
CONTINUOUS
 62
7
 10
830.963
 20
197.554
 40
53.692
 50
89.9517
 51
135
  0
LINE
  8
Layer1
  6
CONTINUOUS
 62
7
 10
831.04
 20
228.629
 11
831.04
 21
234.701
  0
LINE
  8
Layer1
  6
CONTINUOUS
 62
7
 10
813.585
 20
179.477
 11
805.04
 21
179.477
  0
LINE
  8
Layer1
  6
PHANTOM1
 62
7
 10
764.747
 20
228.77
 11
793.333
 21
200.185
  0
LINE
  8
Layer1
  6
PHANTOM1
 62
7
 10
794.04
 20
198.477
 11
794.04
 21
180.477
  0
LINE
  8
Layer1
  6
PHANTOM1
 62
7
 10
794.04
 20
198.477
 11
793.333
 21
200.185
  0
TEXT
  8
Layer1
 62
7
 10
896.947
 20
543.818
 72
1
 11
896.947
 21
543.818
 40
8
 41
1
 50
90
  1
 220 
  0
LINE
  8
Layer1
  6
CONTINUOUS
 62
7
 10
841.793
 20
653.818
 11
898.947
 21
653.818
  0
LINE
  8
Layer1
  6
CONTINUOUS
 62
7
 10
839.764
 20
433.818
 11
898.947
 21
433.818
  0
POLYLINE
  8
Layer1
  6
CONTINUOUS
 62
7
 66
1
 10
0
 20
0
 30
0
  0
VERTEX
  8
Layer1
 10
896.947
 20
653.818
  0
VERTEX
  8
Layer1
 10
896.947
 20
433.818
  0
SEQEND
  0
POLYLINE
  8
Layer1
  6
CONTINUOUS
 62
7
 66
1
 10
0
 20
0
 30
0
 70
1
  0
VERTEX
  8
Layer1
 10
895.913
 20
649.954
  0
VERTEX
  8
Layer1
 10
896.947
 20
653.818
  0
VERTEX
  8
Layer1
 10
897.984
 20
649.954
  0
SEQEND
  0
POLYLINE
  8
Layer1
  6
CONTINUOUS
 62
7
 66
1
 10
0
 20
0
 30
0
 70
1
  0
VERTEX
  8
Layer1
 10
897.984
 20
437.681
  0
VERTEX
  8
Layer1
 10
896.947
 20
433.818
  0
VERTEX
  8
Layer1
 10
895.913
 20
437.681
  0
SEQEND
  0
TEXT
  8
Layer1
 62
7
 10
915.264
 20
543.818
 72
1
 11
915.264
 21
543.818
 40
8
 41
1
 50
90
  1
 232 
  0
LINE
  8
Layer1
  6
CONTINUOUS
 62
7
 10
883.407
 20
659.818
 11
917.264
 21
659.818
  0
LINE
  8
Layer1
  6
CONTINUOUS
 62
7
 10
883.745
 20
427.818
 11
917.264
 21
427.818
  0
POLYLINE
  8
Layer1
  6
CONTINUOUS
 62
7
 66
1
 10
0
 20
0
 30
0
  0
VERTEX
  8
Layer1
 10
915.264
 20
659.818
  0
VERTEX
  8
Layer1
 10
915.264
 20
427.818
  0
SEQEND
  0
POLYLINE
  8
Layer1
  6
CONTINUOUS
 62
7
 66
1
 10
0
 20
0
 30
0
 70
1
  0
VERTEX
  8
Layer1
 10
914.228
 20
655.954
  0
VERTEX
  8
Layer1
 10
915.264
 20
659.818
  0
VERTEX
  8
Layer1
 10
916.298
 20
655.954
  0
SEQEND
  0
POLYLINE
  8
Layer1
  6
CONTINUOUS
 62
7
 66
1
 10
0
 20
0
 30
0
 70
1
  0
VERTEX
  8
Layer1
 10
916.298
 20
431.681
  0
VERTEX
  8
Layer1
 10
915.264
 20
427.818
  0
VERTEX
  8
Layer1
 10
914.228
 20
431.681
  0
SEQEND
  0
TEXT
  8
Layer1
 62
7
 10
950.158
 20
543.818
 72
1
 11
950.158
 21
543.818
 40
8
 41
1
 50
90
  1
 260 
  0
LINE
  8
Layer1
  6
CONTINUOUS
 62
7
 10
860.04
 20
673.818
 11
952.158
 21
673.818
  0
LINE
  8
Layer1
  6
CONTINUOUS
 62
7
 10
854.471
 20
413.818
 11
952.158
 21
413.818
  0
POLYLINE
  8
Layer1
  6
CONTINUOUS
 62
7
 66
1
 10
0
 20
0
 30
0
  0
VERTEX
  8
Layer1
 10
950.158
 20
673.818
  0
VERTEX
  8
Layer1
 10
950.158
 20
413.818
  0
SEQEND
  0
POLYLINE
  8
Layer1
  6
CONTINUOUS
 62
7
 66
1
 10
0
 20
0
 30
0
 70
1
  0
VERTEX
  8
Layer1
 10
949.122
 20
669.954
  0
VERTEX
  8
Layer1
 10
950.158
 20
673.818
  0
VERTEX
  8
Layer1
 10
951.193
 20
669.954
  0
SEQEND
  0
POLYLINE
  8
Layer1
  6
CONTINUOUS
 62
7
 66
1
 10
0
 20
0
 30
0
 70
1
  0
VERTEX
  8
Layer1
 10
951.193
 20
417.681
  0
VERTEX
  8
Layer1
 10
950.158
 20
413.818
  0
VERTEX
  8
Layer1
 10
949.122
 20
417.681
  0
SEQEND
  0
TEXT
  8
Layer1
 62
7
 10
969.206
 20
543.818
 72
1
 11
969.206
 21
543.818
 40
8
 41
1
 50
90
  1
 290 
  0
LINE
  8
Layer1
  6
CONTINUOUS
 62
7
 10
821.07
 20
688.818
 11
971.206
 21
688.818
  0
LINE
  8
Layer1
  6
CONTINUOUS
 62
7
 10
828.04
 20
398.818
 11
971.206
 21
398.818
  0
POLYLINE
  8
Layer1
  6
CONTINUOUS
 62
7
 66
1
 10
0
 20
0
 30
0
  0
VERTEX
  8
Layer1
 10
969.206
 20
688.818
  0
VERTEX
  8
Layer1
 10
969.206
 20
398.818
  0
SEQEND
  0
POLYLINE
  8
Layer1
  6
CONTINUOUS
 62
7
 66
1
 10
0
 20
0
 30
0
 70
1
  0
VERTEX
  8
Layer1
 10
968.17
 20
684.954
  0
VERTEX
  8
Layer1
 10
969.206
 20
688.818
  0
VERTEX
  8
Layer1
 10
970.241
 20
684.954
  0
SEQEND
  0
POLYLINE
  8
Layer1
  6
CONTINUOUS
 62
7
 66
1
 10
0
 20
0
 30
0
 70
1
  0
VERTEX
  8
Layer1
 10
970.241
 20
402.681
  0
VERTEX
  8
Layer1
 10
969.206
 20
398.818
  0
VERTEX
  8
Layer1
 10
968.17
 20
402.681
  0
SEQEND
  0
TEXT
  8
Layer1
 62
7
 10
988.986
 20
543.818
 72
1
 11
988.986
 21
543.818
 40
8
 41
1
 50
90
  1
 316 
  0
LINE
  8
Layer1
  6
CONTINUOUS
 62
7
 10
815.04
 20
385.818
 11
990.986
 21
385.818
  0
LINE
  8
Layer1
  6
CONTINUOUS
 62
7
 10
815.04
 20
701.818
 11
990.986
 21
701.818
  0
POLYLINE
  8
Layer1
  6
CONTINUOUS
 62
7
 66
1
 10
0
 20
0
 30
0
  0
VERTEX
  8
Layer1
 10
988.986
 20
385.818
  0
VERTEX
  8
Layer1
 10
988.986
 20
701.818
  0
SEQEND
  0
POLYLINE
  8
Layer1
  6
CONTINUOUS
 62
7
 66
1
 10
0
 20
0
 30
0
 70
1
  0
VERTEX
  8
Layer1
 10
990.022
 20
389.681
  0
VERTEX
  8
Layer1
 10
988.986
 20
385.818
  0
VERTEX
  8
Layer1
 10
987.951
 20
389.681
  0
SEQEND
  0
POLYLINE
  8
Layer1
  6
CONTINUOUS
 62
7
 66
1
 10
0
 20
0
 30
0
 70
1
  0
VERTEX
  8
Layer1
 10
987.951
 20
697.954
  0
VERTEX
  8
Layer1
 10
988.986
 20
701.818
  0
VERTEX
  8
Layer1
 10
990.022
 20
697.954
  0
SEQEND
  0
TEXT
  8
Layer1
 62
7
 10
798.54
 20
351.061
 72
1
 11
798.54
 21
351.061
 40
8
 41
1
  1
 65 
  0
LINE
  8
Layer1
  6
CONTINUOUS
 62
7
 10
766.04
 20
449.773
 11
766.04
 21
349.061
  0
LINE
  8
Layer1
  6
CONTINUOUS
 62
7
 10
831.04
 20
422.651
 11
831.04
 21
349.061
  0
POLYLINE
  8
Layer1
  6
CONTINUOUS
 62
7
 66
1
 10
0
 20
0
 30
0
  0
VERTEX
  8
Layer1
 10
766.04
 20
351.061
  0
VERTEX
  8
Layer1
 10
831.04
 20
351.061
  0
SEQEND
  0
POLYLINE
  8
Layer1
  6
CONTINUOUS
 62
7
 66
1
 10
0
 20
0
 30
0
 70
1
  0
VERTEX
  8
Layer1
 10
769.904
 20
350.026
  0
VERTEX
  8
Layer1
 10
766.04
 20
351.061
  0
VERTEX
  8
Layer1
 10
769.904
 20
352.097
  0
SEQEND
  0
POLYLINE
  8
Layer1
  6
CONTINUOUS
 62
7
 66
1
 10
0
 20
0
 30
0
 70
1
  0
VERTEX
  8
Layer1
 10
827.176
 20
352.097
  0
VERTEX
  8
Layer1
 10
831.04
 20
351.061
  0
VERTEX
  8
Layer1
 10
827.176
 20
350.026
  0
SEQEND
  0
TEXT
  8
Layer1
 62
7
 10
838.583
 20
362.148
 72
1
 11
838.583
 21
362.148
 40
8
 41
1
  1
 12.5 
  0
LINE
  8
Layer1
  6
CONTINUOUS
 62
7
 10
778.54
 20
423.818
 11
778.54
 21
360.148
  0
LINE
  8
Layer1
  6
CONTINUOUS
 62
7
 10
766.04
 20
382.317
 11
766.04
 21
360.148
  0
POLYLINE
  8
Layer1
  6
CONTINUOUS
 62
7
 66
1
 10
0
 20
0
 30
0
  0
VERTEX
  8
Layer1
 10
788.54
 20
362.148
  0
VERTEX
  8
Layer1
 10
778.54
 20
362.148
  0
SEQEND
  0
POLYLINE
  8
Layer1
  6
CONTINUOUS
 62
7
 66
1
 10
0
 20
0
 30
0
 70
1
  0
VERTEX
  8
Layer1
 10
782.404
 20
361.112
  0
VERTEX
  8
Layer1
 10
778.54
 20
362.148
  0
VERTEX
  8
Layer1
 10
782.404
 20
363.183
  0
SEQEND
  0
POLYLINE
  8
Layer1
  6
CONTINUOUS
 62
7
 66
1
 10
0
 20
0
 30
0
  0
VERTEX
  8
Layer1
 10
831.04
 20
362.148
  0
VERTEX
  8
Layer1
 10
848.21
 20
362.148
  0
SEQEND
  0
POLYLINE
  8
Layer1
  6
CONTINUOUS
 62
7
 66
1
 10
0
 20
0
 30
0
 70
1
  0
VERTEX
  8
Layer1
 10
834.904
 20
363.183
  0
VERTEX
  8
Layer1
 10
831.04
 20
362.148
  0
VERTEX
  8
Layer1
 10
834.904
 20
361.112
  0
SEQEND
  0
LINE
  8
Layer1
  6
CONTINUOUS
 62
7
 10
831.04
 20
362.148
 11
818.54
 21
362.148
  0
TEXT
  8
Layer1
 62
7
 10
798.54
 20
362.148
 72
1
 11
798.54
 21
362.148
 40
8
 41
1
  1
 40 
  0
LINE
  8
Layer1
  6
CONTINUOUS
 62
7
 10
818.54
 20
418.939
 11
818.54
 21
360.148
  0
POLYLINE
  8
Layer1
  6
CONTINUOUS
 62
7
 66
1
 10
0
 20
0
 30
0
  0
VERTEX
  8
Layer1
 10
778.54
 20
362.148
  0
VERTEX
  8
Layer1
 10
818.54
 20
362.148
  0
SEQEND
  0
POLYLINE
  8
Layer1
  6
CONTINUOUS
 62
7
 66
1
 10
0
 20
0
 30
0
 70
1
  0
VERTEX
  8
Layer1
 10
782.404
 20
361.112
  0
VERTEX
  8
Layer1
 10
778.54
 20
362.148
  0
VERTEX
  8
Layer1
 10
782.404
 20
363.183
  0
SEQEND
  0
POLYLINE
  8
Layer1
  6
CONTINUOUS
 62
7
 66
1
 10
0
 20
0
 30
0
 70
1
  0
VERTEX
  8
Layer1
 10
814.676
 20
363.183
  0
VERTEX
  8
Layer1
 10
818.54
 20
362.148
  0
VERTEX
  8
Layer1
 10
814.676
 20
361.112
  0
SEQEND
  0
TEXT
  8
Layer1
 62
7
 10
751.024
 20
717.467
 72
1
 11
751.024
 21
717.467
 40
8
 41
1
  1
 160 
  0
LINE
  8
Layer1
  6
CONTINUOUS
 62
7
 10
671.04
 20
685.818
 11
671.04
 21
719.467
  0
LINE
  8
Layer1
  6
CONTINUOUS
 62
7
 10
831.01
 20
685.818
 11
831.01
 21
719.467
  0
POLYLINE
  8
Layer1
  6
CONTINUOUS
 62
7
 66
1
 10
0
 20
0
 30
0
  0
VERTEX
  8
Layer1
 10
671.04
 20
717.467
  0
VERTEX
  8
Layer1
 10
831.01
 20
717.467
  0
SEQEND
  0
POLYLINE
  8
Layer1
  6
CONTINUOUS
 62
7
 66
1
 10
0
 20
0
 30
0
 70
1
  0
VERTEX
  8
Layer1
 10
674.904
 20
716.432
  0
VERTEX
  8
Layer1
 10
671.04
 20
717.467
  0
VERTEX
  8
Layer1
 10
674.904
 20
718.502
  0
SEQEND
  0
POLYLINE
  8
Layer1
  6
CONTINUOUS
 62
7
 66
1
 10
0
 20
0
 30
0
 70
1
  0
VERTEX
  8
Layer1
 10
827.146
 20
718.502
  0
VERTEX
  8
Layer1
 10
831.01
 20
717.467
  0
VERTEX
  8
Layer1
 10
827.146
 20
716.432
  0
SEQEND
  0
TEXT
  8
Layer1
 62
7
 10
681.04
 20
707.943
 72
1
 11
681.04
 21
707.943
 40
8
 41
1
  1
 20 
  0
LINE
  8
Layer1
  6
CONTINUOUS
 62
7
 10
691.04
 20
701.818
 11
691.04
 21
709.943
  0
LINE
  8
Layer1
  6
CONTINUOUS
 62
7
 10
671.04
 20
710.141
 11
671.04
 21
705.943
  0
POLYLINE
  8
Layer1
  6
CONTINUOUS
 62
7
 66
1
 10
0
 20
0
 30
0
  0
VERTEX
  8
Layer1
 10
691.04
 20
707.943
  0
VERTEX
  8
Layer1
 10
671.04
 20
707.943
  0
SEQEND
  0
POLYLINE
  8
Layer1
  6
CONTINUOUS
 62
7
 66
1
 10
0
 20
0
 30
0
 70
1
  0
VERTEX
  8
Layer1
 10
687.176
 20
708.978
  0
VERTEX
  8
Layer1
 10
691.04
 20
707.943
  0
VERTEX
  8
Layer1
 10
687.176
 20
706.908
  0
SEQEND
  0
POLYLINE
  8
Layer1
  6
CONTINUOUS
 62
7
 66
1
 10
0
 20
0
 30
0
 70
1
  0
VERTEX
  8
Layer1
 10
674.904
 20
706.908
  0
VERTEX
  8
Layer1
 10
671.04
 20
707.943
  0
VERTEX
  8
Layer1
 10
674.904
 20
708.978
  0
SEQEND
  0
TEXT
  8
Layer1
 62
7
 10
721.04
 20
707.943
 72
1
 11
721.04
 21
707.943
 40
8
 41
1
  1
 60 
  0
LINE
  8
Layer1
  6
CONTINUOUS
 62
7
 10
751.04
 20
705.382
 11
751.04
 21
709.943
  0
POLYLINE
  8
Layer1
  6
CONTINUOUS
 62
7
 66
1
 10
0
 20
0
 30
0
  0
VERTEX
  8
Layer1
 10
691.04
 20
707.943
  0
VERTEX
  8
Layer1
 10
751.04
 20
707.943
  0
SEQEND
  0
POLYLINE
  8
Layer1
  6
CONTINUOUS
 62
7
 66
1
 10
0
 20
0
 30
0
 70
1
  0
VERTEX
  8
Layer1
 10
694.904
 20
706.908
  0
VERTEX
  8
Layer1
 10
691.04
 20
707.943
  0
VERTEX
  8
Layer1
 10
694.904
 20
708.978
  0
SEQEND
  0
POLYLINE
  8
Layer1
  6
CONTINUOUS
 62
7
 66
1
 10
0
 20
0
 30
0
 70
1
  0
VERTEX
  8
Layer1
 10
747.176
 20
708.978
  0
VERTEX
  8
Layer1
 10
751.04
 20
707.943
  0
VERTEX
  8
Layer1
 10
747.176
 20
706.908
  0
SEQEND
  0
TEXT
  8
Layer1
 62
7
 10
781.04
 20
707.943
 72
1
 11
781.04
 21
707.943
 40
8
 41
1
  1
 60 
  0
LINE
  8
Layer1
  6
CONTINUOUS
 62
7
 10
811.04
 20
701.818
 11
811.04
 21
709.943
  0
POLYLINE
  8
Layer1
  6
CONTINUOUS
 62
7
 66
1
 10
0
 20
0
 30
0
  0
VERTEX
  8
Layer1
 10
751.04
 20
707.943
  0
VERTEX
  8
Layer1
 10
811.04
 20
707.943
  0
SEQEND
  0
POLYLINE
  8
Layer1
  6
CONTINUOUS
 62
7
 66
1
 10
0
 20
0
 30
0
 70
1
  0
VERTEX
  8
Layer1
 10
754.904
 20
706.908
  0
VERTEX
  8
Layer1
 10
751.04
 20
707.943
  0
VERTEX
  8
Layer1
 10
754.904
 20
708.978
  0
SEQEND
  0
POLYLINE
  8
Layer1
  6
CONTINUOUS
 62
7
 66
1
 10
0
 20
0
 30
0
 70
1
  0
VERTEX
  8
Layer1
 10
807.176
 20
708.978
  0
VERTEX
  8
Layer1
 10
811.04
 20
707.943
  0
VERTEX
  8
Layer1
 10
807.176
 20
706.908
  0
SEQEND
  0
TEXT
  8
Layer1
 62
7
 10
846.04
 20
717.467
 72
1
 11
846.04
 21
717.467
 40
8
 41
1
  1
 30 
  0
LINE
  8
Layer1
  6
CONTINUOUS
 62
7
 10
861.04
 20
671.818
 11
861.04
 21
719.467
  0
POLYLINE
  8
Layer1
  6
CONTINUOUS
 62
7
 66
1
 10
0
 20
0
 30
0
  0
VERTEX
  8
Layer1
 10
861.04
 20
717.467
  0
VERTEX
  8
Layer1
 10
831.04
 20
717.467
  0
SEQEND
  0
POLYLINE
  8
Layer1
  6
CONTINUOUS
 62
7
 66
1
 10
0
 20
0
 30
0
 70
1
  0
VERTEX
  8
Layer1
 10
857.176
 20
718.502
  0
VERTEX
  8
Layer1
 10
861.04
 20
717.467
  0
VERTEX
  8
Layer1
 10
857.176
 20
716.432
  0
SEQEND
  0
POLYLINE
  8
Layer1
  6
CONTINUOUS
 62
7
 66
1
 10
0
 20
0
 30
0
 70
1
  0
VERTEX
  8
Layer1
 10
834.904
 20
716.432
  0
VERTEX
  8
Layer1
 10
831.04
 20
717.467
  0
VERTEX
  8
Layer1
 10
834.904
 20
718.502
  0
SEQEND
  0
TEXT
  8
Layer1
 62
7
 10
562.219
 20
168.233
 72
1
 11
562.219
 21
168.233
 40
6
 41
1
 50
90
  1
(中心間距離）
  0
POLYLINE
  8
Layer1
  6
CONTINUOUS
 62
7
 66
1
 10
0
 20
0
 30
0
  0
VERTEX
  8
Layer1
 10
368.224
 20
306.367
  0
VERTEX
  8
Layer1
 10
396.561
 20
339.841
  0
VERTEX
  8
Layer1
 10
396.561
 20
339.841
  0
SEQEND
  0
POLYLINE
  8
Layer1
  6
CONTINUOUS
 62
7
 66
1
 10
0
 20
0
 30
0
 70
1
  0
VERTEX
  8
Layer1
 10
373.154
 20
309.787
  0
VERTEX
  8
Layer1
 10
368.224
 20
306.367
  0
VERTEX
  8
Layer1
 10
370.783
 20
311.793
  0
SEQEND
  0
LINE
  8
Layer1
  6
CONTINUOUS
 62
7
 10
396.561
 20
339.841
 11
444.561
 21
339.841
  0
TEXT
  8
Layer1
 62
7
 10
444.561
 20
339.841
 72
2
 11
444.561
 21
339.841
 40
6
 41
1
  1
φ11オイル注入口
  0
POLYLINE
  8
Layer1
  6
CONTINUOUS
 62
7
 66
1
 10
0
 20
0
 30
0
  0
VERTEX
  8
Layer1
 10
701.943
 20
202.188
  0
VERTEX
  8
Layer1
 10
672.085
 20
120.154
  0
VERTEX
  8
Layer1
 10
672.085
 20
120.154
  0
SEQEND
  0
CIRCLE
  8
Layer1
  6
CONTINUOUS
 62
7
 10
701.943
 20
202.188
 40
1
  0
CIRCLE
  8
Layer1
  6
CONTINUOUS
 62
7
 10
670.938
 20
117.002
 40
3.3541
  0
TEXT
  8
Layer1
 62
7
 10
670.938
 20
117.002
 72
1
 73
2
 11
670.938
 21
117.002
 40
6
 41
1
  1
1
  0
POLYLINE
  8
Layer1
  6
CONTINUOUS
 62
7
 66
1
 10
0
 20
0
 30
0
  0
VERTEX
  8
Layer1
 10
810.286
 20
166.353
  0
VERTEX
  8
Layer1
 10
794.307
 20
120.154
  0
VERTEX
  8
Layer1
 10
794.307
 20
120.154
  0
SEQEND
  0
CIRCLE
  8
Layer1
  6
CONTINUOUS
 62
7
 10
810.286
 20
166.353
 40
1
  0
CIRCLE
  8
Layer1
  6
CONTINUOUS
 62
7
 10
793.211
 20
116.984
 40
3.3541
  0
TEXT
  8
Layer1
 62
7
 10
793.211
 20
116.984
 72
1
 73
2
 11
793.211
 21
116.984
 40
6
 41
1
  1
6
  0
POLYLINE
  8
Layer1
  6
CONTINUOUS
 62
7
 66
1
 10
0
 20
0
 30
0
  0
VERTEX
  8
Layer1
 10
735.449
 20
208.765
  0
VERTEX
  8
Layer1
 10
703.25
 20
120.154
  0
VERTEX
  8
Layer1
 10
703.25
 20
120.154
  0
SEQEND
  0
CIRCLE
  8
Layer1
  6
CONTINUOUS
 62
7
 10
735.449
 20
208.765
 40
1
  0
CIRCLE
  8
Layer1
  6
CONTINUOUS
 62
7
 10
702.106
 20
117.001
 40
3.3541
  0
TEXT
  8
Layer1
 62
7
 10
702.106
 20
117.001
 72
1
 73
2
 11
702.106
 21
117.001
 40
6
 41
1
  1
2
  0
POLYLINE
  8
Layer1
  6
CONTINUOUS
 62
7
 66
1
 10
0
 20
0
 30
0
  0
VERTEX
  8
Layer1
 10
766.782
 20
168.417
  0
VERTEX
  8
Layer1
 10
748.49
 20
120.154
  0
VERTEX
  8
Layer1
 10
748.49
 20
120.154
  0
SEQEND
  0
CIRCLE
  8
Layer1
  6
CONTINUOUS
 62
7
 10
766.782
 20
168.417
 40
1
  0
CIRCLE
  8
Layer1
  6
CONTINUOUS
 62
7
 10
747.301
 20
117.018
 40
3.3541
  0
TEXT
  8
Layer1
 62
7
 10
747.301
 20
117.018
 72
1
 73
2
 11
747.301
 21
117.018
 40
6
 41
1
  1
7
  0
POLYLINE
  8
Layer1
  6
CONTINUOUS
 62
7
 66
1
 10
0
 20
0
 30
0
  0
VERTEX
  8
Layer1
 10
865.798
 20
190.709
  0
VERTEX
  8
Layer1
 10
888.463
 20
120.154
  0
VERTEX
  8
Layer1
 10
888.463
 20
120.154
  0
SEQEND
  0
CIRCLE
  8
Layer1
  6
CONTINUOUS
 62
7
 10
865.798
 20
190.709
 40
1
  0
CIRCLE
  8
Layer1
  6
CONTINUOUS
 62
7
 10
889.76
 20
116.115
 40
4.24264
  0
TEXT
  8
Layer1
 62
7
 10
889.76
 20
116.115
 72
1
 73
2
 11
889.76
 21
116.115
 40
6
 41
1
  1
12
  0
POLYLINE
  8
Layer1
  6
CONTINUOUS
 62
7
 66
1
 10
0
 20
0
 30
0
  0
VERTEX
  8
Layer1
 10
822.284
 20
172.709
  0
VERTEX
  8
Layer1
 10
842.581
 20
120.154
  0
VERTEX
  8
Layer1
 10
842.581
 20
120.154
  0
SEQEND
  0
CIRCLE
  8
Layer1
  6
CONTINUOUS
 62
7
 10
822.284
 20
172.709
 40
1
  0
CIRCLE
  8
Layer1
  6
CONTINUOUS
 62
7
 10
844.109
 20
116.196
 40
4.24264
  0
TEXT
  8
Layer1
 62
7
 10
844.109
 20
116.196
 72
1
 73
2
 11
844.109
 21
116.196
 40
6
 41
1
  1
10
  0
POLYLINE
  8
Layer1
  6
CONTINUOUS
 62
7
 66
1
 10
0
 20
0
 30
0
  0
VERTEX
  8
Layer1
 10
852.786
 20
228.55
  0
VERTEX
  8
Layer1
 10
894.691
 20
345.451
  0
VERTEX
  8
Layer1
 10
894.691
 20
345.451
  0
SEQEND
  0
CIRCLE
  8
Layer1
  6
CONTINUOUS
 62
7
 10
852.786
 20
228.55
 40
1
  0
CIRCLE
  8
Layer1
  6
CONTINUOUS
 62
7
 10
895.822
 20
348.609
 40
3.3541
  0
TEXT
  8
Layer1
 62
7
 10
895.822
 20
348.609
 72
1
 73
2
 11
895.822
 21
348.609
 40
6
 41
1
  1
5
  0
POLYLINE
  8
Layer1
  6
CONTINUOUS
 62
7
 66
1
 10
0
 20
0
 30
0
  0
VERTEX
  8
Layer1
 10
869.828
 20
220.477
  0
VERTEX
  8
Layer1
 10
914.711
 20
345.268
  0
VERTEX
  8
Layer1
 10
914.711
 20
345.268
  0
SEQEND
  0
CIRCLE
  8
Layer1
  6
CONTINUOUS
 62
7
 10
869.828
 20
220.477
 40
1
  0
CIRCLE
  8
Layer1
  6
CONTINUOUS
 62
7
 10
915.846
 20
348.424
 40
3.3541
  0
TEXT
  8
Layer1
 62
7
 10
915.846
 20
348.424
 72
1
 73
2
 11
915.846
 21
348.424
 40
6
 41
1
  1
9
  0
TEXT
  8
Layer1
 62
7
 10
882.027
 20
707.104
 40
6
 41
1
  1
アッパー取付穴
  0
POLYLINE
  8
Layer1
  6
CONTINUOUS
 62
7
 66
1
 10
0
 20
0
 30
0
  0
VERTEX
  8
Layer1
 10
823.173
 20
658.414
  0
VERTEX
  8
Layer1
 10
884.979
 20
717.574
  0
VERTEX
  8
Layer1
 10
884.979
 20
717.574
  0
SEQEND
  0
POLYLINE
  8
Layer1
  6
CONTINUOUS
 62
7
 66
1
 10
0
 20
0
 30
0
 70
1
  0
VERTEX
  8
Layer1
 10
826.681
 20
660.338
  0
VERTEX
  8
Layer1
 10
823.173
 20
658.414
  0
VERTEX
  8
Layer1
 10
825.249
 20
661.833
  0
SEQEND
  0
LINE
  8
Layer1
  6
CONTINUOUS
 62
7
 10
884.979
 20
717.574
 11
902.979
 21
717.574
  0
TEXT
  8
Layer1
 62
7
 10
902.979
 20
719.574
 72
2
 11
902.979
 21
719.574
 40
6
 41
1
  1
4-φ13
  0
POLYLINE
  8
Layer1
  6
CONTINUOUS
 62
7
 66
1
 10
0
 20
0
 30
0
  0
VERTEX
  8
Layer1
 10
686.444
 20
693.414
  0
VERTEX
  8
Layer1
 10
655.979
 20
721.127
  0
VERTEX
  8
Layer1
 10
655.979
 20
721.127
  0
SEQEND
  0
POLYLINE
  8
Layer1
  6
CONTINUOUS
 62
7
 66
1
 10
0
 20
0
 30
0
 70
1
  0
VERTEX
  8
Layer1
 10
684.283
 20
696.78
  0
VERTEX
  8
Layer1
 10
686.444
 20
693.414
  0
VERTEX
  8
Layer1
 10
682.889
 20
695.248
  0
SEQEND
  0
LINE
  8
Layer1
  6
CONTINUOUS
 62
7
 10
655.979
 20
721.127
 11
637.979
 21
721.127
  0
TEXT
  8
Layer1
 62
7
 10
637.979
 20
723.127
 40
6
 41
1
  1
6-φ13
  0
TEXT
  8
Layer1
 62
7
 10
622.678
 20
707.491
 40
6
 41
1
  1
ベース取付穴
  0
LINE
  8
Layer1
  6
CONTINUOUS
 62
7
 10
825.703
 20
266.227
 11
825.703
 21
263.727
  0
LINE
  8
Layer1
  6
CONTINUOUS
 62
7
 10
771.131
 20
266.227
 11
771.131
 21
263.727
  0
POLYLINE
  8
Layer1
  6
CONTINUOUS
 62
7
 66
1
 10
0
 20
0
 30
0
  0
VERTEX
  8
Layer1
 10
657.809
 20
226
  0
VERTEX
  8
Layer1
 10
634.875
 20
306.896
  0
VERTEX
  8
Layer1
 10
634.875
 20
306.896
  0
SEQEND
  0
CIRCLE
  8
Layer1
  6
CONTINUOUS
 62
7
 10
657.809
 20
226
 40
1
  0
CIRCLE
  8
Layer1
  6
CONTINUOUS
 62
7
 10
633.718
 20
310.978
 40
4.24264
  0
TEXT
  8
Layer1
 62
7
 10
633.718
 20
310.978
 72
1
 73
2
 11
633.718
 21
310.978
 40
6
 41
1
  1
13
  0
POLYLINE
  8
Layer1
  6
CONTINUOUS
 62
7
 66
1
 10
0
 20
0
 30
0
  0
VERTEX
  8
Layer1
 10
766.04
 20
268.924
  0
VERTEX
  8
Layer1
 10
743.065
 20
331.924
  0
VERTEX
  8
Layer1
 10
743.065
 20
331.924
  0
SEQEND
  0
CIRCLE
  8
Layer1
  6
CONTINUOUS
 62
7
 10
766.04
 20
268.924
 40
1
  0
CIRCLE
  8
Layer1
  6
CONTINUOUS
 62
7
 10
741.612
 20
335.91
 40
4.24264
  0
TEXT
  8
Layer1
 62
7
 10
741.612
 20
335.91
 72
1
 73
2
 11
741.612
 21
335.91
 40
6
 41
1
  1
14
  0
POLYLINE
  8
Layer1
  6
CONTINUOUS
 62
7
 66
1
 10
0
 20
0
 30
0
  0
VERTEX
  8
Layer1
 10
707.47
 20
243.9
  0
VERTEX
  8
Layer1
 10
685.003
 20
306.972
  0
VERTEX
  8
Layer1
 10
685.003
 20
306.972
  0
SEQEND
  0
CIRCLE
  8
Layer1
  6
CONTINUOUS
 62
7
 10
707.47
 20
243.9
 40
1
  0
CIRCLE
  8
Layer1
  6
CONTINUOUS
 62
7
 10
683.878
 20
310.132
 40
3.3541
  0
TEXT
  8
Layer1
 62
7
 10
683.878
 20
310.132
 72
1
 73
2
 11
683.878
 21
310.132
 40
6
 41
1
  1
4
  0
POLYLINE
  8
Layer1
  6
CONTINUOUS
 62
7
 66
1
 10
0
 20
0
 30
0
  0
VERTEX
  8
Layer1
 10
747.54
 20
248.277
  0
VERTEX
  8
Layer1
 10
725.642
 20
306.972
  0
VERTEX
  8
Layer1
 10
725.642
 20
306.972
  0
SEQEND
  0
CIRCLE
  8
Layer1
  6
CONTINUOUS
 62
7
 10
747.54
 20
248.277
 40
1
  0
CIRCLE
  8
Layer1
  6
CONTINUOUS
 62
7
 10
724.159
 20
310.947
 40
4.24264
  0
TEXT
  8
Layer1
 62
7
 10
724.159
 20
310.947
 72
1
 73
2
 11
724.159
 21
310.947
 40
6
 41
1
  1
11
  0
POLYLINE
  8
Layer1
  6
CONTINUOUS
 62
7
 66
1
 10
0
 20
0
 30
0
  0
VERTEX
  8
Layer1
 10
716.971
 20
256.03
  0
VERTEX
  8
Layer1
 10
698.753
 20
307.583
  0
VERTEX
  8
Layer1
 10
698.753
 20
307.583
  0
SEQEND
  0
CIRCLE
  8
Layer1
  6
CONTINUOUS
 62
7
 10
716.971
 20
256.03
 40
1
  0
CIRCLE
  8
Layer1
  6
CONTINUOUS
 62
7
 10
697.636
 20
310.745
 40
3.3541
  0
TEXT
  8
Layer1
 62
7
 10
697.636
 20
310.745
 72
1
 73
2
 11
697.636
 21
310.745
 40
6
 41
1
  1
8
  0
POLYLINE
  8
Layer1
  6
CONTINUOUS
 62
7
 66
1
 10
0
 20
0
 30
0
  0
VERTEX
  8
Layer1
 10
775.486
 20
279.999
  0
VERTEX
  8
Layer1
 10
758.065
 20
328.437
  0
VERTEX
  8
Layer1
 10
758.065
 20
328.437
  0
SEQEND
  0
CIRCLE
  8
Layer1
  6
CONTINUOUS
 62
7
 10
775.486
 20
279.999
 40
1
  0
CIRCLE
  8
Layer1
  6
CONTINUOUS
 62
7
 10
756.93
 20
331.593
 40
3.3541
  0
TEXT
  8
Layer1
 62
7
 10
756.93
 20
331.593
 72
1
 73
2
 11
756.93
 21
331.593
 40
6
 41
1
  1
3
  0
TEXT
  8
Layer1
 62
7
 10
933.054
 20
543.818
 72
1
 11
933.054
 21
543.818
 40
8
 41
1
 50
90
  1
 250 
  0
LINE
  8
Layer1
  6
CONTINUOUS
 62
7
 10
822.482
 20
668.818
 11
935.054
 21
668.818
  0
LINE
  8
Layer1
  6
CONTINUOUS
 62
7
 10
823.524
 20
418.818
 11
935.054
 21
418.818
  0
POLYLINE
  8
Layer1
  6
CONTINUOUS
 62
7
 66
1
 10
0
 20
0
 30
0
  0
VERTEX
  8
Layer1
 10
933.054
 20
668.818
  0
VERTEX
  8
Layer1
 10
933.054
 20
418.818
  0
SEQEND
  0
POLYLINE
  8
Layer1
  6
CONTINUOUS
 62
7
 66
1
 10
0
 20
0
 30
0
 70
1
  0
VERTEX
  8
Layer1
 10
932.018
 20
664.954
  0
VERTEX
  8
Layer1
 10
933.054
 20
668.818
  0
VERTEX
  8
Layer1
 10
934.089
 20
664.954
  0
SEQEND
  0
POLYLINE
  8
Layer1
  6
CONTINUOUS
 62
7
 66
1
 10
0
 20
0
 30
0
 70
1
  0
VERTEX
  8
Layer1
 10
934.089
 20
422.681
  0
VERTEX
  8
Layer1
 10
933.054
 20
418.818
  0
VERTEX
  8
Layer1
 10
932.018
 20
422.681
  0
SEQEND
  0
LINE
  8
Layer1
  6
CONTINUOUS
 62
7
 10
861.04
 20
160.477
 11
876.04
 21
160.477
  0
LINE
  8
Layer1
  6
CONTINUOUS
 62
7
 10
876.04
 20
184.477
 11
876.04
 21
160.477
  0
LINE
  8
Layer1
  6
CONTINUOUS
 62
7
 10
877.04
 20
183.477
 11
877.04
 21
161.477
  0
LINE
  8
Layer1
  6
CONTINUOUS
 62
7
 10
876.04
 20
184.477
 11
877.04
 21
183.477
  0
LINE
  8
Layer1
  6
CONTINUOUS
 62
7
 10
876.04
 20
160.477
 11
877.04
 21
161.477
  0
LINE
  8
Layer1
  6
CONTINUOUS
 62
7
 10
861.665
 20
161.477
 11
875.415
 21
161.477
  0
LINE
  8
Layer1
  6
CONTINUOUS
 62
7
 10
865.415
 20
167.477
 11
871.665
 21
167.477
  0
LINE
  8
Layer1
  6
CONTINUOUS
 62
7
 10
864.165
 20
165.477
 11
872.915
 21
165.477
  0
LINE
  8
Layer1
  6
CONTINUOUS
 62
7
 10
863.54
 20
164.477
 11
873.54
 21
164.477
  0
LINE
  8
Layer1
  6
CONTINUOUS
 62
7
 10
862.915
 20
163.477
 11
874.165
 21
163.477
  0
LINE
  8
Layer1
  6
CONTINUOUS
 62
7
 10
862.29
 20
162.477
 11
874.79
 21
162.477
  0
LINE
  8
Layer1
  6
CONTINUOUS
 62
7
 10
864.79
 20
166.477
 11
872.29
 21
166.477
  0
LINE
  8
Layer1
  6
DASHED1
 62
7
 10
515.835
 20
169.477
 11
515.835
 21
142.477
  0
LINE
  8
Layer1
  6
DASHED1
 62
7
 10
499.335
 20
169.477
 11
519.335
 21
169.477
  0
LINE
  8
Layer1
  6
CONTINUOUS
 62
7
 10
499.335
 20
170.477
 11
499.335
 21
169.477
  0
LINE
  8
Layer1
  6
CONTINUOUS
 62
7
 10
519.335
 20
170.477
 11
519.335
 21
169.477
  0
LINE
  8
Layer1
  6
DASHED1
 62
7
 10
225.835
 20
169.477
 11
225.835
 21
142.477
  0
LINE
  8
Layer1
  6
DASHED1
 62
7
 10
209.335
 20
169.477
 11
229.335
 21
169.477
  0
LINE
  8
Layer1
  6
CONTINUOUS
 62
7
 10
209.335
 20
170.477
 11
209.335
 21
169.477
  0
LINE
  8
Layer1
  6
CONTINUOUS
 62
7
 10
229.335
 20
170.477
 11
229.335
 21
169.477
  0
ENDSEC
  0
EOF
