  0
SECTION
  2
HEADER
  9
$EXTMIN
 10
0
 20
0
  9
$EXTMAX
 10
1189
 20
841
  9
$LTSCALE
 40
1
  9
$LIMMIN
 10
0
 20
0
  9
$LIMMAX
 10
1189
 20
841
  9
$DIMSCALE
 40
1
  0
ENDSEC
  0
SECTION
  2
TABLES
  0
TABLE
  2
LTYPE
 70
9
  0
LTYPE
  2
CONTINUOUS
 70
64
  3
----------
 72
65
 73
0
 40
0
  0
LTYPE
  2
DASHED1
 70
64
  3
--  --  --  --  --  --  --  --  
 72
65
 73
2
 40
2.5
 49
1.25
 49
-1.25
  0
LTYPE
  2
DASHED2
 70
64
  3
----    ----    ----    ----    
 72
65
 73
2
 40
5
 49
2.5
 49
-2.5
  0
LTYPE
  2
DASHED3
 70
64
  3
------  ------  ------  ------  
 72
65
 73
2
 40
5
 49
3.75
 49
-1.25
  0
LTYPE
  2
CENTER1
 70
64
  3
----- - ----- - ----- - ----- - 
 72
65
 73
4
 40
7.5
 49
3.75
 49
-1.25
 49
1.25
 49
-1.25
  0
LTYPE
  2
CENTER2
 70
64
  3
----------  --  ----------  --  
 72
65
 73
4
 40
13.75
 49
6.25
 49
-2.5
 49
2.5
 49
-2.5
  0
LTYPE
  2
PHANTOM1
 70
64
  3
--- - - --- - - --- - - --- - - 
 72
65
 73
6
 40
9.5
 49
3.25
 49
-1.25
 49
1.25
 49
-1.25
 49
1.25
 49
-1.25
  0
LTYPE
  2
PHANTOM2
 70
64
  3
--------  -  -  --------  -  -  
 72
65
 73
6
 40
18
 49
8
 49
-2.5
 49
1.25
 49
-2.5
 49
1.25
 49
-2.5
  0
LTYPE
  2
DOT
 70
64
  3
-   -   -   -   -   -   -   -   
 72
65
 73
2
 40
2.5
 49
0.625
 49
-1.875
  0
LTYPE
  2
HOJO
 70
64
  3
-   -   -   -   -   -   -   -   
 72
65
 73
2
 40
2.5
 49
0.625
 49
-1.875
  0
ENDTAB
  0
TABLE
  2
STYLE
 70
2
  0
STYLE
  2
STANDARD
 70
64
 40
0
 41
1
 42
0
 50
0
 71
0
  3
TXT
  4
BIGFONT
  0
STYLE
  2
TATEGAKI
 70
68
 40
0
 41
1
 42
0
 50
0
 71
0
  3
TXT
  4
EXTFONT
  0
ENDTAB
  0
TABLE
  2
LAYER
 70
1
  0
LAYER
  2
Layer1
 70
64
 62
7
  6
CONTINUOUS
  0
ENDTAB
  0
ENDSEC
  0
SECTION
  2
ENTITIES
  0
LINE
  8
Layer1
  6
CONTINUOUS
 62
7
 10
513.989
 20
177.177
 11
265.99
 21
177.177
  0
LINE
  8
Layer1
  6
CENTER2
 62
7
 10
389.989
 20
290.102
 11
389.989
 21
196.848
  0
LINE
  8
Layer1
  6
CONTINUOUS
 62
7
 10
265.99
 20
202.177
 11
288.989
 21
202.177
  0
LINE
  8
Layer1
  6
CONTINUOUS
 62
7
 10
513.989
 20
202.177
 11
490.989
 21
202.177
  0
LINE
  8
Layer1
  6
CENTER2
 62
7
 10
613.798
 20
541.359
 11
859.515
 21
541.359
  0
LINE
  8
Layer1
  6
CONTINUOUS
 62
7
 10
464.989
 20
214.177
 11
314.989
 21
214.177
  0
LINE
  8
Layer1
  6
DASHED1
 62
7
 10
428.499
 20
285.637
 11
428.483
 21
285.621
  0
LINE
  8
Layer1
  6
CENTER1
 62
7
 10
308.5
 20
239.177
 11
470.653
 21
239.177
  0
LINE
  8
Layer1
  6
CONTINUOUS
 62
7
 10
712.273
 20
283.199
 11
712.273
 21
274.977
  0
CIRCLE
  8
Layer1
  6
CONTINUOUS
 62
7
 10
709.686
 20
596.428
 40
3.76681
  0
ARC
  8
Layer1
  6
CONTINUOUS
 62
7
 10
705.213
 20
596.462
 40
1
 50
140.711
 51
225
  0
LINE
  8
Layer1
  6
CONTINUOUS
 62
7
 10
714.196
 20
598.072
 11
716.46
 21
598.072
  0
LINE
  8
Layer1
  6
CONTINUOUS
 62
7
 10
714.196
 20
594.587
 11
716.46
 21
594.587
  0
LINE
  8
Layer1
  6
CONTINUOUS
 62
7
 10
716.46
 20
598.072
 11
716.46
 21
594.587
  0
ARC
  8
Layer1
  6
CONTINUOUS
 62
7
 10
709.686
 20
596.428
 40
4.80058
 50
20.031
 51
140.098
  0
ARC
  8
Layer1
  6
CONTINUOUS
 62
7
 10
709.686
 20
596.428
 40
4.80058
 50
218.056
 51
337.793
  0
ARC
  8
Layer1
  6
CONTINUOUS
 62
7
 10
696.793
 20
589.178
 40
10.1292
 50
24.1178
 51
40.4581
  0
ARC
  8
Layer1
  6
CONTINUOUS
 62
7
 10
696.732
 20
603.668
 40
10.1292
 50
319.542
 51
335.882
  0
ARC
  8
Layer1
  6
CONTINUOUS
 62
7
 10
715.328
 20
598.072
 40
0.542282
 50
0
 51
180
  0
ARC
  8
Layer1
  6
CONTINUOUS
 62
7
 10
715.328
 20
594.587
 40
0.657613
 50
180
 51
2.03555e-013
  0
LINE
  8
Layer1
  6
CONTINUOUS
 62
7
 10
331.188
 20
289.708
 11
339.033
 21
289.708
  0
LINE
  8
Layer1
  6
CONTINUOUS
 62
7
 10
330.86
 20
289.105
 11
339.334
 21
289.105
  0
LINE
  8
Layer1
  6
CONTINUOUS
 62
7
 10
330.765
 20
285.725
 11
339.214
 21
285.725
  0
LINE
  8
Layer1
  6
CONTINUOUS
 62
7
 10
339.938
 20
285.001
 11
330.041
 21
285.001
  0
LINE
  8
Layer1
  6
CONTINUOUS
 62
7
 10
339.938
 20
285.001
 11
339.938
 21
283.13
  0
LINE
  8
Layer1
  6
CONTINUOUS
 62
7
 10
330.041
 20
285.001
 11
330.041
 21
283.13
  0
POLYLINE
  8
Layer1
  6
CONTINUOUS
 62
7
 66
1
 10
0
 20
0
 30
0
  0
VERTEX
  8
Layer1
 10
334.983
 20
286.921
  0
VERTEX
  8
Layer1
 10
334.917
 20
286.978
  0
VERTEX
  8
Layer1
 10
334.851
 20
287.034
  0
VERTEX
  8
Layer1
 10
334.782
 20
287.087
  0
VERTEX
  8
Layer1
 10
334.713
 20
287.139
  0
VERTEX
  8
Layer1
 10
334.642
 20
287.189
  0
VERTEX
  8
Layer1
 10
334.57
 20
287.237
  0
VERTEX
  8
Layer1
 10
334.496
 20
287.283
  0
VERTEX
  8
Layer1
 10
334.422
 20
287.328
  0
VERTEX
  8
Layer1
 10
334.346
 20
287.37
  0
VERTEX
  8
Layer1
 10
334.27
 20
287.41
  0
VERTEX
  8
Layer1
 10
334.192
 20
287.449
  0
VERTEX
  8
Layer1
 10
334.113
 20
287.485
  0
VERTEX
  8
Layer1
 10
334.033
 20
287.52
  0
VERTEX
  8
Layer1
 10
333.953
 20
287.552
  0
VERTEX
  8
Layer1
 10
333.872
 20
287.582
  0
VERTEX
  8
Layer1
 10
333.79
 20
287.61
  0
VERTEX
  8
Layer1
 10
333.707
 20
287.636
  0
VERTEX
  8
Layer1
 10
333.624
 20
287.66
  0
VERTEX
  8
Layer1
 10
333.54
 20
287.682
  0
VERTEX
  8
Layer1
 10
333.455
 20
287.701
  0
VERTEX
  8
Layer1
 10
333.37
 20
287.718
  0
VERTEX
  8
Layer1
 10
333.285
 20
287.733
  0
VERTEX
  8
Layer1
 10
333.199
 20
287.746
  0
VERTEX
  8
Layer1
 10
333.113
 20
287.757
  0
VERTEX
  8
Layer1
 10
333.027
 20
287.765
  0
VERTEX
  8
Layer1
 10
332.94
 20
287.771
  0
VERTEX
  8
Layer1
 10
332.853
 20
287.775
  0
VERTEX
  8
Layer1
 10
332.767
 20
287.777
  0
VERTEX
  8
Layer1
 10
332.68
 20
287.776
  0
VERTEX
  8
Layer1
 10
332.593
 20
287.773
  0
VERTEX
  8
Layer1
 10
332.507
 20
287.768
  0
VERTEX
  8
Layer1
 10
332.42
 20
287.761
  0
VERTEX
  8
Layer1
 10
332.334
 20
287.752
  0
VERTEX
  8
Layer1
 10
332.248
 20
287.74
  0
VERTEX
  8
Layer1
 10
332.163
 20
287.726
  0
VERTEX
  8
Layer1
 10
332.078
 20
287.71
  0
VERTEX
  8
Layer1
 10
331.993
 20
287.691
  0
VERTEX
  8
Layer1
 10
331.909
 20
287.671
  0
VERTEX
  8
Layer1
 10
331.825
 20
287.648
  0
VERTEX
  8
Layer1
 10
331.742
 20
287.623
  0
VERTEX
  8
Layer1
 10
331.659
 20
287.596
  0
VERTEX
  8
Layer1
 10
331.578
 20
287.567
  0
VERTEX
  8
Layer1
 10
331.497
 20
287.536
  0
VERTEX
  8
Layer1
 10
331.417
 20
287.502
  0
VERTEX
  8
Layer1
 10
331.338
 20
287.467
  0
VERTEX
  8
Layer1
 10
331.259
 20
287.429
  0
VERTEX
  8
Layer1
 10
331.182
 20
287.39
  0
VERTEX
  8
Layer1
 10
331.106
 20
287.349
  0
SEQEND
  0
POLYLINE
  8
Layer1
  6
CONTINUOUS
 62
7
 66
1
 10
0
 20
0
 30
0
  0
VERTEX
  8
Layer1
 10
339.335
 20
287.294
  0
VERTEX
  8
Layer1
 10
339.248
 20
287.329
  0
VERTEX
  8
Layer1
 10
339.159
 20
287.363
  0
VERTEX
  8
Layer1
 10
339.071
 20
287.395
  0
VERTEX
  8
Layer1
 10
338.981
 20
287.425
  0
VERTEX
  8
Layer1
 10
338.891
 20
287.454
  0
VERTEX
  8
Layer1
 10
338.8
 20
287.481
  0
VERTEX
  8
Layer1
 10
338.709
 20
287.505
  0
VERTEX
  8
Layer1
 10
338.618
 20
287.528
  0
VERTEX
  8
Layer1
 10
338.526
 20
287.55
  0
VERTEX
  8
Layer1
 10
338.433
 20
287.569
  0
VERTEX
  8
Layer1
 10
338.34
 20
287.586
  0
VERTEX
  8
Layer1
 10
338.247
 20
287.602
  0
VERTEX
  8
Layer1
 10
338.154
 20
287.616
  0
VERTEX
  8
Layer1
 10
338.06
 20
287.628
  0
VERTEX
  8
Layer1
 10
337.966
 20
287.638
  0
VERTEX
  8
Layer1
 10
337.872
 20
287.646
  0
VERTEX
  8
Layer1
 10
337.778
 20
287.652
  0
VERTEX
  8
Layer1
 10
337.684
 20
287.656
  0
VERTEX
  8
Layer1
 10
337.589
 20
287.659
  0
VERTEX
  8
Layer1
 10
337.495
 20
287.659
  0
VERTEX
  8
Layer1
 10
337.4
 20
287.658
  0
VERTEX
  8
Layer1
 10
337.306
 20
287.655
  0
VERTEX
  8
Layer1
 10
337.212
 20
287.65
  0
VERTEX
  8
Layer1
 10
337.118
 20
287.643
  0
VERTEX
  8
Layer1
 10
337.024
 20
287.634
  0
VERTEX
  8
Layer1
 10
336.93
 20
287.623
  0
VERTEX
  8
Layer1
 10
336.836
 20
287.611
  0
VERTEX
  8
Layer1
 10
336.743
 20
287.596
  0
VERTEX
  8
Layer1
 10
336.65
 20
287.58
  0
VERTEX
  8
Layer1
 10
336.557
 20
287.562
  0
VERTEX
  8
Layer1
 10
336.465
 20
287.542
  0
VERTEX
  8
Layer1
 10
336.373
 20
287.52
  0
VERTEX
  8
Layer1
 10
336.282
 20
287.496
  0
VERTEX
  8
Layer1
 10
336.191
 20
287.471
  0
VERTEX
  8
Layer1
 10
336.1
 20
287.443
  0
VERTEX
  8
Layer1
 10
336.01
 20
287.414
  0
VERTEX
  8
Layer1
 10
335.921
 20
287.383
  0
VERTEX
  8
Layer1
 10
335.833
 20
287.351
  0
VERTEX
  8
Layer1
 10
335.745
 20
287.316
  0
VERTEX
  8
Layer1
 10
335.658
 20
287.28
  0
VERTEX
  8
Layer1
 10
335.571
 20
287.242
  0
VERTEX
  8
Layer1
 10
335.485
 20
287.202
  0
VERTEX
  8
Layer1
 10
335.401
 20
287.161
  0
VERTEX
  8
Layer1
 10
335.316
 20
287.118
  0
VERTEX
  8
Layer1
 10
335.233
 20
287.073
  0
VERTEX
  8
Layer1
 10
335.151
 20
287.027
  0
VERTEX
  8
Layer1
 10
335.07
 20
286.978
  0
VERTEX
  8
Layer1
 10
334.989
 20
286.929
  0
SEQEND
  0
LINE
  8
Layer1
  6
CONTINUOUS
 62
7
 10
331.452
 20
287.517
 11
331.118
 21
287.327
  0
LINE
  8
Layer1
  6
CONTINUOUS
 62
7
 10
331.188
 20
289.708
 11
330.328
 21
288.124
  0
LINE
  8
Layer1
  6
CONTINUOUS
 62
7
 10
339.033
 20
289.708
 11
339.92
 21
287.893
  0
LINE
  8
Layer1
  6
CONTINUOUS
 62
7
 10
338.851
 20
287.438
 11
339.335
 21
287.294
  0
POLYLINE
  8
Layer1
  6
CONTINUOUS
 62
7
 66
1
 10
0
 20
0
 30
0
  0
VERTEX
  8
Layer1
 10
330.328
 20
288.124
  0
VERTEX
  8
Layer1
 10
330.313
 20
288.097
  0
VERTEX
  8
Layer1
 10
330.3
 20
288.068
  0
VERTEX
  8
Layer1
 10
330.288
 20
288.039
  0
VERTEX
  8
Layer1
 10
330.277
 20
288.009
  0
VERTEX
  8
Layer1
 10
330.268
 20
287.978
  0
VERTEX
  8
Layer1
 10
330.261
 20
287.948
  0
VERTEX
  8
Layer1
 10
330.256
 20
287.916
  0
VERTEX
  8
Layer1
 10
330.252
 20
287.885
  0
VERTEX
  8
Layer1
 10
330.25
 20
287.853
  0
VERTEX
  8
Layer1
 10
330.25
 20
287.822
  0
VERTEX
  8
Layer1
 10
330.251
 20
287.79
  0
VERTEX
  8
Layer1
 10
330.255
 20
287.759
  0
VERTEX
  8
Layer1
 10
330.259
 20
287.727
  0
VERTEX
  8
Layer1
 10
330.266
 20
287.697
  0
VERTEX
  8
Layer1
 10
330.274
 20
287.666
  0
VERTEX
  8
Layer1
 10
330.284
 20
287.636
  0
VERTEX
  8
Layer1
 10
330.296
 20
287.606
  0
VERTEX
  8
Layer1
 10
330.309
 20
287.578
  0
VERTEX
  8
Layer1
 10
330.323
 20
287.55
  0
VERTEX
  8
Layer1
 10
330.339
 20
287.522
  0
VERTEX
  8
Layer1
 10
330.357
 20
287.496
  0
VERTEX
  8
Layer1
 10
330.376
 20
287.471
  0
VERTEX
  8
Layer1
 10
330.396
 20
287.447
  0
VERTEX
  8
Layer1
 10
330.418
 20
287.424
  0
VERTEX
  8
Layer1
 10
330.441
 20
287.402
  0
VERTEX
  8
Layer1
 10
330.465
 20
287.381
  0
VERTEX
  8
Layer1
 10
330.49
 20
287.362
  0
VERTEX
  8
Layer1
 10
330.516
 20
287.344
  0
VERTEX
  8
Layer1
 10
330.543
 20
287.328
  0
VERTEX
  8
Layer1
 10
330.571
 20
287.313
  0
VERTEX
  8
Layer1
 10
330.6
 20
287.299
  0
VERTEX
  8
Layer1
 10
330.629
 20
287.288
  0
VERTEX
  8
Layer1
 10
330.659
 20
287.277
  0
VERTEX
  8
Layer1
 10
330.69
 20
287.269
  0
VERTEX
  8
Layer1
 10
330.72
 20
287.262
  0
VERTEX
  8
Layer1
 10
330.752
 20
287.257
  0
VERTEX
  8
Layer1
 10
330.783
 20
287.253
  0
VERTEX
  8
Layer1
 10
330.815
 20
287.252
  0
VERTEX
  8
Layer1
 10
330.846
 20
287.252
  0
VERTEX
  8
Layer1
 10
330.878
 20
287.253
  0
VERTEX
  8
Layer1
 10
330.909
 20
287.257
  0
VERTEX
  8
Layer1
 10
330.941
 20
287.262
  0
VERTEX
  8
Layer1
 10
330.972
 20
287.269
  0
VERTEX
  8
Layer1
 10
331.002
 20
287.277
  0
VERTEX
  8
Layer1
 10
331.032
 20
287.287
  0
VERTEX
  8
Layer1
 10
331.061
 20
287.299
  0
VERTEX
  8
Layer1
 10
331.09
 20
287.312
  0
VERTEX
  8
Layer1
 10
331.118
 20
287.327
  0
SEQEND
  0
POLYLINE
  8
Layer1
  6
CONTINUOUS
 62
7
 66
1
 10
0
 20
0
 30
0
  0
VERTEX
  8
Layer1
 10
339.335
 20
287.294
  0
VERTEX
  8
Layer1
 10
339.356
 20
287.288
  0
VERTEX
  8
Layer1
 10
339.377
 20
287.284
  0
VERTEX
  8
Layer1
 10
339.398
 20
287.28
  0
VERTEX
  8
Layer1
 10
339.419
 20
287.277
  0
VERTEX
  8
Layer1
 10
339.44
 20
287.275
  0
VERTEX
  8
Layer1
 10
339.462
 20
287.274
  0
VERTEX
  8
Layer1
 10
339.483
 20
287.274
  0
VERTEX
  8
Layer1
 10
339.504
 20
287.275
  0
VERTEX
  8
Layer1
 10
339.526
 20
287.278
  0
VERTEX
  8
Layer1
 10
339.547
 20
287.281
  0
VERTEX
  8
Layer1
 10
339.568
 20
287.284
  0
VERTEX
  8
Layer1
 10
339.589
 20
287.289
  0
VERTEX
  8
Layer1
 10
339.609
 20
287.295
  0
VERTEX
  8
Layer1
 10
339.63
 20
287.302
  0
VERTEX
  8
Layer1
 10
339.65
 20
287.31
  0
VERTEX
  8
Layer1
 10
339.669
 20
287.318
  0
VERTEX
  8
Layer1
 10
339.688
 20
287.328
  0
VERTEX
  8
Layer1
 10
339.707
 20
287.338
  0
VERTEX
  8
Layer1
 10
339.725
 20
287.349
  0
VERTEX
  8
Layer1
 10
339.743
 20
287.361
  0
VERTEX
  8
Layer1
 10
339.76
 20
287.374
  0
VERTEX
  8
Layer1
 10
339.777
 20
287.387
  0
VERTEX
  8
Layer1
 10
339.793
 20
287.402
  0
VERTEX
  8
Layer1
 10
339.808
 20
287.417
  0
VERTEX
  8
Layer1
 10
339.823
 20
287.432
  0
VERTEX
  8
Layer1
 10
339.837
 20
287.449
  0
VERTEX
  8
Layer1
 10
339.85
 20
287.466
  0
VERTEX
  8
Layer1
 10
339.862
 20
287.483
  0
VERTEX
  8
Layer1
 10
339.874
 20
287.501
  0
VERTEX
  8
Layer1
 10
339.884
 20
287.52
  0
VERTEX
  8
Layer1
 10
339.894
 20
287.538
  0
VERTEX
  8
Layer1
 10
339.903
 20
287.558
  0
VERTEX
  8
Layer1
 10
339.911
 20
287.578
  0
VERTEX
  8
Layer1
 10
339.919
 20
287.598
  0
VERTEX
  8
Layer1
 10
339.925
 20
287.618
  0
VERTEX
  8
Layer1
 10
339.93
 20
287.639
  0
VERTEX
  8
Layer1
 10
339.935
 20
287.66
  0
VERTEX
  8
Layer1
 10
339.938
 20
287.681
  0
VERTEX
  8
Layer1
 10
339.941
 20
287.702
  0
VERTEX
  8
Layer1
 10
339.942
 20
287.724
  0
VERTEX
  8
Layer1
 10
339.943
 20
287.745
  0
VERTEX
  8
Layer1
 10
339.942
 20
287.766
  0
VERTEX
  8
Layer1
 10
339.941
 20
287.788
  0
VERTEX
  8
Layer1
 10
339.939
 20
287.809
  0
VERTEX
  8
Layer1
 10
339.936
 20
287.83
  0
VERTEX
  8
Layer1
 10
339.931
 20
287.851
  0
VERTEX
  8
Layer1
 10
339.926
 20
287.872
  0
VERTEX
  8
Layer1
 10
339.92
 20
287.893
  0
SEQEND
  0
LINE
  8
Layer1
  6
CONTINUOUS
 62
7
 10
338.057
 20
287.628
 11
338.057
 21
285.725
  0
LINE
  8
Layer1
  6
CONTINUOUS
 62
7
 10
331.912
 20
287.671
 11
331.912
 21
285.725
  0
LINE
  8
Layer1
  6
CONTINUOUS
 62
7
 10
330.765
 20
285.725
 11
330.041
 21
285.001
  0
LINE
  8
Layer1
  6
CONTINUOUS
 62
7
 10
339.214
 20
285.725
 11
339.938
 21
285.001
  0
LINE
  8
Layer1
  6
CONTINUOUS
 62
7
 10
710.926
 20
596.359
 11
708.633
 21
596.359
  0
POLYLINE
  8
Layer1
  6
DASHED1
 62
7
 66
1
 10
0
 20
0
 30
0
  0
VERTEX
  8
Layer1
 10
724.615
 20
604.888
  0
VERTEX
  8
Layer1
 10
724.6
 20
604.94
  0
VERTEX
  8
Layer1
 10
724.58
 20
605.002
  0
VERTEX
  8
Layer1
 10
724.558
 20
605.064
  0
VERTEX
  8
Layer1
 10
724.534
 20
605.125
  0
VERTEX
  8
Layer1
 10
724.508
 20
605.185
  0
VERTEX
  8
Layer1
 10
724.48
 20
605.244
  0
VERTEX
  8
Layer1
 10
724.45
 20
605.302
  0
VERTEX
  8
Layer1
 10
724.418
 20
605.359
  0
VERTEX
  8
Layer1
 10
724.384
 20
605.415
  0
VERTEX
  8
Layer1
 10
724.349
 20
605.47
  0
VERTEX
  8
Layer1
 10
724.332
 20
605.495
  0
SEQEND
  0
LINE
  8
Layer1
  6
DASHED1
 62
7
 10
694.686
 20
604.359
 11
694.686
 21
588.359
  0
LINE
  8
Layer1
  6
DASHED1
 62
7
 10
722.391
 20
586.359
 11
696.707
 21
586.359
  0
LINE
  8
Layer1
  6
DASHED1
 62
7
 10
722.189
 20
606.359
 11
696.686
 21
606.359
  0
LINE
  8
Layer1
  6
DASHED1
 62
7
 10
724.686
 20
604.147
 11
724.686
 21
588.44
  0
POLYLINE
  8
Layer1
  6
DASHED1
 62
7
 66
1
 10
0
 20
0
 30
0
  0
VERTEX
  8
Layer1
 10
723.402
 20
586.492
  0
VERTEX
  8
Layer1
 10
723.451
 20
586.511
  0
VERTEX
  8
Layer1
 10
723.512
 20
586.537
  0
VERTEX
  8
Layer1
 10
723.571
 20
586.565
  0
VERTEX
  8
Layer1
 10
723.629
 20
586.595
  0
VERTEX
  8
Layer1
 10
723.686
 20
586.627
  0
VERTEX
  8
Layer1
 10
723.742
 20
586.661
  0
VERTEX
  8
Layer1
 10
723.797
 20
586.696
  0
VERTEX
  8
Layer1
 10
723.851
 20
586.733
  0
VERTEX
  8
Layer1
 10
723.904
 20
586.772
  0
VERTEX
  8
Layer1
 10
723.955
 20
586.813
  0
VERTEX
  8
Layer1
 10
724.005
 20
586.856
  0
VERTEX
  8
Layer1
 10
724.053
 20
586.899
  0
VERTEX
  8
Layer1
 10
724.1
 20
586.945
  0
VERTEX
  8
Layer1
 10
724.146
 20
586.992
  0
VERTEX
  8
Layer1
 10
724.19
 20
587.04
  0
VERTEX
  8
Layer1
 10
724.232
 20
587.09
  0
VERTEX
  8
Layer1
 10
724.273
 20
587.142
  0
VERTEX
  8
Layer1
 10
724.312
 20
587.194
  0
VERTEX
  8
Layer1
 10
724.349
 20
587.248
  0
VERTEX
  8
Layer1
 10
724.384
 20
587.303
  0
VERTEX
  8
Layer1
 10
724.418
 20
587.359
  0
VERTEX
  8
Layer1
 10
724.45
 20
587.416
  0
VERTEX
  8
Layer1
 10
724.48
 20
587.475
  0
VERTEX
  8
Layer1
 10
724.49
 20
587.496
  0
SEQEND
  0
LINE
  8
Layer1
  6
CONTINUOUS
 62
7
 10
694.686
 20
588.359
 11
694.687
 21
588.305
  0
POLYLINE
  8
Layer1
  6
CONTINUOUS
 62
7
 66
1
 10
0
 20
0
 30
0
  0
VERTEX
  8
Layer1
 10
696.686
 20
606.359
  0
VERTEX
  8
Layer1
 10
696.621
 20
606.358
  0
VERTEX
  8
Layer1
 10
696.572
 20
606.356
  0
SEQEND
  0
LINE
  8
Layer1
  6
CONTINUOUS
 62
7
 10
696.686
 20
606.359
 11
697.786
 21
606.359
  0
LINE
  8
Layer1
  6
CONTINUOUS
 62
7
 10
696.707
 20
586.359
 11
697.786
 21
586.359
  0
LINE
  8
Layer1
  6
CONTINUOUS
 62
7
 10
694.686
 20
588.359
 11
694.686
 21
589.316
  0
LINE
  8
Layer1
  6
DASHED1
 62
7
 10
724.686
 20
589.586
 11
724.686
 21
588.44
  0
POLYLINE
  8
Layer1
  6
DASHED1
 62
7
 66
1
 10
0
 20
0
 30
0
  0
VERTEX
  8
Layer1
 10
723.47
 20
606.199
  0
VERTEX
  8
Layer1
 10
723.451
 20
606.207
  0
VERTEX
  8
Layer1
 10
723.391
 20
606.231
  0
VERTEX
  8
Layer1
 10
723.329
 20
606.253
  0
VERTEX
  8
Layer1
 10
723.267
 20
606.273
  0
VERTEX
  8
Layer1
 10
723.204
 20
606.291
  0
VERTEX
  8
Layer1
 10
723.14
 20
606.307
  0
VERTEX
  8
Layer1
 10
723.076
 20
606.321
  0
VERTEX
  8
Layer1
 10
723.012
 20
606.332
  0
VERTEX
  8
Layer1
 10
722.947
 20
606.342
  0
VERTEX
  8
Layer1
 10
722.882
 20
606.35
  0
VERTEX
  8
Layer1
 10
722.817
 20
606.355
  0
VERTEX
  8
Layer1
 10
722.796
 20
606.356
  0
SEQEND
  0
POLYLINE
  8
Layer1
  6
CONTINUOUS
 62
7
 66
1
 10
0
 20
0
 30
0
  0
VERTEX
  8
Layer1
 10
695.831
 20
606.167
  0
VERTEX
  8
Layer1
 10
695.802
 20
606.153
  0
VERTEX
  8
Layer1
 10
695.743
 20
606.123
  0
VERTEX
  8
Layer1
 10
695.686
 20
606.091
  0
VERTEX
  8
Layer1
 10
695.63
 20
606.058
  0
VERTEX
  8
Layer1
 10
695.575
 20
606.022
  0
VERTEX
  8
Layer1
 10
695.521
 20
605.985
  0
VERTEX
  8
Layer1
 10
695.469
 20
605.946
  0
VERTEX
  8
Layer1
 10
695.417
 20
605.905
  0
VERTEX
  8
Layer1
 10
695.367
 20
605.863
  0
VERTEX
  8
Layer1
 10
695.319
 20
605.819
  0
VERTEX
  8
Layer1
 10
695.272
 20
605.773
  0
VERTEX
  8
Layer1
 10
695.226
 20
605.726
  0
VERTEX
  8
Layer1
 10
695.182
 20
605.678
  0
VERTEX
  8
Layer1
 10
695.14
 20
605.628
  0
VERTEX
  8
Layer1
 10
695.099
 20
605.577
  0
VERTEX
  8
Layer1
 10
695.06
 20
605.524
  0
VERTEX
  8
Layer1
 10
695.023
 20
605.47
  0
VERTEX
  8
Layer1
 10
694.988
 20
605.415
  0
VERTEX
  8
Layer1
 10
694.954
 20
605.359
  0
VERTEX
  8
Layer1
 10
694.922
 20
605.302
  0
VERTEX
  8
Layer1
 10
694.917
 20
605.293
  0
SEQEND
  0
POLYLINE
  8
Layer1
  6
CONTINUOUS
 62
7
 66
1
 10
0
 20
0
 30
0
  0
VERTEX
  8
Layer1
 10
694.69
 20
604.484
  0
VERTEX
  8
Layer1
 10
694.687
 20
604.425
  0
VERTEX
  8
Layer1
 10
694.686
 20
604.359
  0
SEQEND
  0
POLYLINE
  8
Layer1
  6
CONTINUOUS
 62
7
 66
1
 10
0
 20
0
 30
0
  0
VERTEX
  8
Layer1
 10
694.852
 20
587.563
  0
VERTEX
  8
Layer1
 10
694.864
 20
587.534
  0
VERTEX
  8
Layer1
 10
694.892
 20
587.475
  0
VERTEX
  8
Layer1
 10
694.922
 20
587.416
  0
VERTEX
  8
Layer1
 10
694.954
 20
587.359
  0
VERTEX
  8
Layer1
 10
694.988
 20
587.303
  0
VERTEX
  8
Layer1
 10
695.023
 20
587.248
  0
VERTEX
  8
Layer1
 10
695.06
 20
587.194
  0
VERTEX
  8
Layer1
 10
695.099
 20
587.142
  0
VERTEX
  8
Layer1
 10
695.14
 20
587.09
  0
VERTEX
  8
Layer1
 10
695.182
 20
587.04
  0
VERTEX
  8
Layer1
 10
695.226
 20
586.992
  0
VERTEX
  8
Layer1
 10
695.272
 20
586.945
  0
VERTEX
  8
Layer1
 10
695.319
 20
586.899
  0
VERTEX
  8
Layer1
 10
695.367
 20
586.856
  0
VERTEX
  8
Layer1
 10
695.417
 20
586.813
  0
VERTEX
  8
Layer1
 10
695.469
 20
586.772
  0
VERTEX
  8
Layer1
 10
695.521
 20
586.733
  0
VERTEX
  8
Layer1
 10
695.575
 20
586.696
  0
VERTEX
  8
Layer1
 10
695.63
 20
586.661
  0
VERTEX
  8
Layer1
 10
695.686
 20
586.627
  0
VERTEX
  8
Layer1
 10
695.743
 20
586.595
  0
VERTEX
  8
Layer1
 10
695.802
 20
586.565
  0
VERTEX
  8
Layer1
 10
695.861
 20
586.537
  0
VERTEX
  8
Layer1
 10
695.921
 20
586.511
  0
VERTEX
  8
Layer1
 10
695.966
 20
586.494
  0
SEQEND
  0
LINE
  8
Layer1
  6
CONTINUOUS
 62
7
 10
758.28
 20
448.33
 11
758.28
 21
635.359
  0
LINE
  8
Layer1
  6
CONTINUOUS
 62
7
 10
663.28
 20
648.359
 11
663.28
 21
639.359
  0
LINE
  8
Layer1
  6
CONTINUOUS
 62
7
 10
660.28
 20
467.359
 11
660.28
 21
615.359
  0
LINE
  8
Layer1
  6
PHANTOM1
 62
7
 10
636.28
 20
467.359
 11
636.28
 21
615.359
  0
LINE
  8
Layer1
  6
CENTER1
 62
7
 10
664.137
 20
428.859
 11
702.423
 21
428.859
  0
LINE
  8
Layer1
  6
CONTINUOUS
 62
7
 10
823.25
 20
434.359
 11
823.25
 21
442.359
  0
LINE
  8
Layer1
  6
CENTER1
 62
7
 10
709.78
 20
581.032
 11
709.78
 21
609.264
  0
LINE
  8
Layer1
  6
CENTER1
 62
7
 10
683.28
 20
665.794
 11
683.28
 21
636.733
  0
LINE
  8
Layer1
  6
CENTER1
 62
7
 10
743.28
 20
663.184
 11
743.28
 21
633.438
  0
LINE
  8
Layer1
  6
CENTER1
 62
7
 10
683.28
 20
443.26
 11
683.28
 21
416.15
  0
LINE
  8
Layer1
  6
CENTER1
 62
7
 10
743.28
 20
444.285
 11
743.28
 21
415.223
  0
LINE
  8
Layer1
  6
CENTER1
 62
7
 10
803.28
 20
414.006
 11
803.28
 21
443.41
  0
LINE
  8
Layer1
  6
CENTER1
 62
7
 10
803.28
 20
637.381
 11
803.28
 21
665.759
  0
LINE
  8
Layer1
  6
CENTER1
 62
7
 10
810.78
 20
443.841
 11
810.78
 21
477.006
  0
LINE
  8
Layer1
  6
CENTER1
 62
7
 10
810.78
 20
607.201
 11
810.78
 21
641.518
  0
LINE
  8
Layer1
  6
CENTER1
 62
7
 10
770.78
 20
442.815
 11
770.78
 21
474.844
  0
LINE
  8
Layer1
  6
CENTER1
 62
7
 10
770.78
 20
606.609
 11
770.78
 21
642.109
  0
LINE
  8
Layer1
  6
CONTINUOUS
 62
7
 10
487.989
 20
283.177
 11
291.989
 21
283.177
  0
LINE
  8
Layer1
  6
CONTINUOUS
 62
7
 10
438.989
 20
264.177
 11
340.989
 21
264.177
  0
LINE
  8
Layer1
  6
DASHED1
 62
7
 10
271.99
 20
200.177
 11
271.99
 21
177.177
  0
LINE
  8
Layer1
  6
DASHED1
 62
7
 10
282.989
 20
200.177
 11
282.989
 21
177.177
  0
LINE
  8
Layer1
  6
DASHED1
 62
7
 10
268.74
 20
200.177
 11
286.239
 21
200.177
  0
LINE
  8
Layer1
  6
DASHED1
 62
7
 10
286.239
 20
200.177
 11
286.239
 21
202.177
  0
LINE
  8
Layer1
  6
DASHED1
 62
7
 10
268.74
 20
200.177
 11
268.74
 21
202.177
  0
LINE
  8
Layer1
  6
DASHED1
 62
7
 10
496.989
 20
200.177
 11
496.989
 21
177.177
  0
LINE
  8
Layer1
  6
DASHED1
 62
7
 10
507.989
 20
200.177
 11
507.989
 21
177.177
  0
LINE
  8
Layer1
  6
DASHED1
 62
7
 10
493.739
 20
200.177
 11
511.239
 21
200.177
  0
LINE
  8
Layer1
  6
DASHED1
 62
7
 10
511.239
 20
200.177
 11
511.239
 21
202.177
  0
LINE
  8
Layer1
  6
DASHED1
 62
7
 10
493.739
 20
200.177
 11
493.739
 21
202.177
  0
LINE
  8
Layer1
  6
CONTINUOUS
 62
7
 10
483.989
 20
357.177
 11
295.989
 21
357.177
  0
LINE
  8
Layer1
  6
DASHED1
 62
7
 10
364.489
 20
252.177
 11
320.989
 21
252.177
  0
LINE
  8
Layer1
  6
CONTINUOUS
 62
7
 10
295.989
 20
338.177
 11
317.989
 21
338.177
  0
LINE
  8
Layer1
  6
CONTINUOUS
 62
7
 10
483.989
 20
338.177
 11
461.989
 21
338.177
  0
LINE
  8
Layer1
  6
DASHED1
 62
7
 10
415.489
 20
252.177
 11
458.989
 21
252.177
  0
LINE
  8
Layer1
  6
CONTINUOUS
 62
7
 10
756.228
 20
443.359
 11
756.228
 21
639.359
  0
LINE
  8
Layer1
  6
CENTER1
 62
7
 10
758.28
 20
624.359
 11
783.112
 21
624.359
  0
LINE
  8
Layer1
  6
CENTER1
 62
7
 10
758.272
 20
458.359
 11
784.16
 21
458.359
  0
CIRCLE
  8
Layer1
  6
CONTINUOUS
 62
7
 10
770.78
 20
458.359
 40
5.5
  0
CIRCLE
  8
Layer1
  6
CONTINUOUS
 62
7
 10
810.78
 20
458.359
 40
5.5
  0
CIRCLE
  8
Layer1
  6
CONTINUOUS
 62
7
 10
770.78
 20
624.359
 40
5.5
  0
CIRCLE
  8
Layer1
  6
CONTINUOUS
 62
7
 10
810.787
 20
624.359
 40
5.5
  0
CIRCLE
  8
Layer1
  6
CONTINUOUS
 62
7
 10
679.78
 20
629.359
 40
8
  0
POLYLINE
  8
Layer1
  6
CONTINUOUS
 62
7
 66
1
 10
0
 20
0
 30
0
 70
1
  0
VERTEX
  8
Layer1
 10
679.78
 20
633.934
  0
VERTEX
  8
Layer1
 10
675.818
 20
631.647
  0
VERTEX
  8
Layer1
 10
675.818
 20
627.072
  0
VERTEX
  8
Layer1
 10
679.78
 20
624.784
  0
VERTEX
  8
Layer1
 10
683.742
 20
627.072
  0
VERTEX
  8
Layer1
 10
683.742
 20
631.647
  0
SEQEND
  0
CIRCLE
  8
Layer1
  6
CONTINUOUS
 62
7
 10
679.78
 20
629.359
 40
4.575
  0
LINE
  8
Layer1
  6
CENTER1
 62
7
 10
679.78
 20
615.574
 11
679.78
 21
640.193
  0
LINE
  8
Layer1
  6
CENTER1
 62
7
 10
739.78
 20
612.995
 11
739.78
 21
642.36
  0
LINE
  8
Layer1
  6
CENTER1
 62
7
 10
750.105
 20
629.359
 11
723.964
 21
629.359
  0
LINE
  8
Layer1
  6
CENTER1
 62
7
 10
679.78
 20
465.551
 11
679.78
 21
440.359
  0
LINE
  8
Layer1
  6
CENTER1
 62
7
 10
739.78
 20
466.426
 11
739.78
 21
440.359
  0
LINE
  8
Layer1
  6
CENTER1
 62
7
 10
752.218
 20
453.359
 11
725.548
 21
453.359
  0
CIRCLE
  8
Layer1
  6
CONTINUOUS
 62
7
 10
739.78
 20
629.359
 40
8
  0
POLYLINE
  8
Layer1
  6
CONTINUOUS
 62
7
 66
1
 10
0
 20
0
 30
0
 70
1
  0
VERTEX
  8
Layer1
 10
739.78
 20
633.934
  0
VERTEX
  8
Layer1
 10
735.818
 20
631.647
  0
VERTEX
  8
Layer1
 10
735.818
 20
627.072
  0
VERTEX
  8
Layer1
 10
739.78
 20
624.784
  0
VERTEX
  8
Layer1
 10
743.742
 20
627.072
  0
VERTEX
  8
Layer1
 10
743.742
 20
631.647
  0
SEQEND
  0
CIRCLE
  8
Layer1
  6
CONTINUOUS
 62
7
 10
739.78
 20
629.359
 40
4.575
  0
CIRCLE
  8
Layer1
  6
CONTINUOUS
 62
7
 10
679.78
 20
453.359
 40
8
  0
POLYLINE
  8
Layer1
  6
CONTINUOUS
 62
7
 66
1
 10
0
 20
0
 30
0
 70
1
  0
VERTEX
  8
Layer1
 10
679.78
 20
457.934
  0
VERTEX
  8
Layer1
 10
675.818
 20
455.647
  0
VERTEX
  8
Layer1
 10
675.818
 20
451.072
  0
VERTEX
  8
Layer1
 10
679.78
 20
448.784
  0
VERTEX
  8
Layer1
 10
683.742
 20
451.072
  0
VERTEX
  8
Layer1
 10
683.742
 20
455.647
  0
SEQEND
  0
CIRCLE
  8
Layer1
  6
CONTINUOUS
 62
7
 10
679.78
 20
453.359
 40
4.575
  0
CIRCLE
  8
Layer1
  6
CONTINUOUS
 62
7
 10
739.78
 20
453.359
 40
8
  0
POLYLINE
  8
Layer1
  6
CONTINUOUS
 62
7
 66
1
 10
0
 20
0
 30
0
 70
1
  0
VERTEX
  8
Layer1
 10
739.78
 20
457.934
  0
VERTEX
  8
Layer1
 10
735.818
 20
455.647
  0
VERTEX
  8
Layer1
 10
735.818
 20
451.072
  0
VERTEX
  8
Layer1
 10
739.78
 20
448.784
  0
VERTEX
  8
Layer1
 10
743.742
 20
451.072
  0
VERTEX
  8
Layer1
 10
743.742
 20
455.647
  0
SEQEND
  0
CIRCLE
  8
Layer1
  6
CONTINUOUS
 62
7
 10
739.78
 20
453.359
 40
4.575
  0
LINE
  8
Layer1
  6
CENTER1
 62
7
 10
692.806
 20
629.359
 11
665.609
 21
629.359
  0
LINE
  8
Layer1
  6
CENTER1
 62
7
 10
697.471
 20
453.359
 11
662.088
 21
453.359
  0
LINE
  8
Layer1
  6
CENTER1
 62
7
 10
798.955
 20
624.359
 11
830.641
 21
624.359
  0
LINE
  8
Layer1
  6
CENTER1
 62
7
 10
797.891
 20
458.359
 11
823.242
 21
458.359
  0
CIRCLE
  8
Layer1
  6
CONTINUOUS
 62
7
 10
683.28
 20
653.859
 40
5.5
  0
CIRCLE
  8
Layer1
  6
CONTINUOUS
 62
7
 10
743.28
 20
653.859
 40
5.5
  0
CIRCLE
  8
Layer1
  6
CONTINUOUS
 62
7
 10
803.28
 20
653.859
 40
5.5
  0
CIRCLE
  8
Layer1
  6
CONTINUOUS
 62
7
 10
743.28
 20
428.859
 40
5.5
  0
CIRCLE
  8
Layer1
  6
CONTINUOUS
 62
7
 10
803.28
 20
428.859
 40
5.5
  0
LINE
  8
Layer1
  6
CONTINUOUS
 62
7
 10
846.28
 20
548.865
 11
852.055
 21
548.865
  0
LINE
  8
Layer1
  6
CONTINUOUS
 62
7
 10
852.055
 20
548.865
 11
852.78
 21
547.609
  0
LINE
  8
Layer1
  6
CONTINUOUS
 62
7
 10
852.78
 20
547.609
 11
852.78
 21
535.109
  0
LINE
  8
Layer1
  6
CONTINUOUS
 62
7
 10
852.78
 20
535.109
 11
852.055
 21
533.853
  0
LINE
  8
Layer1
  6
CONTINUOUS
 62
7
 10
852.055
 20
533.853
 11
846.28
 21
533.853
  0
LINE
  8
Layer1
  6
CONTINUOUS
 62
7
 10
846.28
 20
545.112
 11
852.055
 21
545.112
  0
LINE
  8
Layer1
  6
CONTINUOUS
 62
7
 10
846.28
 20
537.606
 11
852.055
 21
537.606
  0
LINE
  8
Layer1
  6
CONTINUOUS
 62
7
 10
852.78
 20
545.359
 11
855.08
 21
545.359
  0
LINE
  8
Layer1
  6
CONTINUOUS
 62
7
 10
852.78
 20
537.359
 11
855.08
 21
537.359
  0
LINE
  8
Layer1
  6
CONTINUOUS
 62
7
 10
855.08
 20
545.359
 11
855.08
 21
537.359
  0
LINE
  8
Layer1
  6
CONTINUOUS
 62
7
 10
856.28
 20
544.159
 11
856.28
 21
538.559
  0
LINE
  8
Layer1
  6
CONTINUOUS
 62
7
 10
855.08
 20
545.359
 11
856.28
 21
544.159
  0
LINE
  8
Layer1
  6
CONTINUOUS
 62
7
 10
855.08
 20
537.359
 11
856.28
 21
538.559
  0
LINE
  8
Layer1
  6
CONTINUOUS
 62
7
 10
852.78
 20
544.759
 11
855.68
 21
544.759
  0
LINE
  8
Layer1
  6
CONTINUOUS
 62
7
 10
852.78
 20
537.959
 11
855.68
 21
537.959
  0
ARC
  8
Layer1
  6
CONTINUOUS
 62
7
 10
840.216
 20
541.359
 40
12.419
 50
342.412
 51
17.588
  0
ARC
  8
Layer1
  6
CONTINUOUS
 62
7
 10
849.313
 20
546.988
 40
3.323
 50
325.616
 51
34.384
  0
ARC
  8
Layer1
  6
CONTINUOUS
 62
7
 10
849.313
 20
535.73
 40
3.323
 50
325.616
 51
34.384
  0
LINE
  8
Layer1
  6
CONTINUOUS
 62
7
 10
846.28
 20
548.865
 11
846.28
 21
533.853
  0
LINE
  8
Layer1
  6
CONTINUOUS
 62
7
 10
846.28
 20
620.359
 11
857.58
 21
620.359
  0
LINE
  8
Layer1
  6
CONTINUOUS
 62
7
 10
846.28
 20
638.359
 11
857.58
 21
638.359
  0
LINE
  8
Layer1
  6
CONTINUOUS
 62
7
 10
857.58
 20
620.359
 11
857.58
 21
638.359
  0
LINE
  8
Layer1
  6
CONTINUOUS
 62
7
 10
858.28
 20
621.059
 11
858.28
 21
637.659
  0
LINE
  8
Layer1
  6
CONTINUOUS
 62
7
 10
857.58
 20
620.359
 11
858.28
 21
621.059
  0
LINE
  8
Layer1
  6
CONTINUOUS
 62
7
 10
857.58
 20
638.359
 11
858.28
 21
637.659
  0
LINE
  8
Layer1
  6
CONTINUOUS
 62
7
 10
846.28
 20
638.359
 11
846.28
 21
620.359
  0
LINE
  8
Layer1
  6
CONTINUOUS
 62
7
 10
846.28
 20
638.359
 11
857.58
 21
638.359
  0
LINE
  8
Layer1
  6
CONTINUOUS
 62
7
 10
846.907
 20
637.359
 11
856.952
 21
637.359
  0
LINE
  8
Layer1
  6
CONTINUOUS
 62
7
 10
847.535
 20
636.359
 11
856.324
 21
636.359
  0
LINE
  8
Layer1
  6
CONTINUOUS
 62
7
 10
855.696
 20
635.359
 11
848.163
 21
635.359
  0
LINE
  8
Layer1
  6
CONTINUOUS
 62
7
 10
855.069
 20
634.359
 11
848.791
 21
634.359
  0
LINE
  8
Layer1
  6
CONTINUOUS
 62
7
 10
854.441
 20
633.359
 11
849.419
 21
633.359
  0
LINE
  8
Layer1
  6
CONTINUOUS
 62
7
 10
853.813
 20
632.359
 11
850.046
 21
632.359
  0
LINE
  8
Layer1
  6
CONTINUOUS
 62
7
 10
853.185
 20
631.359
 11
850.674
 21
631.359
  0
LINE
  8
Layer1
  6
CONTINUOUS
 62
7
 10
846.28
 20
444.359
 11
857.58
 21
444.359
  0
LINE
  8
Layer1
  6
CONTINUOUS
 62
7
 10
846.28
 20
462.359
 11
857.58
 21
462.359
  0
LINE
  8
Layer1
  6
CONTINUOUS
 62
7
 10
857.58
 20
444.359
 11
857.58
 21
462.359
  0
LINE
  8
Layer1
  6
CONTINUOUS
 62
7
 10
858.28
 20
445.059
 11
858.28
 21
461.659
  0
LINE
  8
Layer1
  6
CONTINUOUS
 62
7
 10
857.58
 20
444.359
 11
858.28
 21
445.059
  0
LINE
  8
Layer1
  6
CONTINUOUS
 62
7
 10
857.58
 20
462.359
 11
858.28
 21
461.659
  0
LINE
  8
Layer1
  6
CONTINUOUS
 62
7
 10
846.28
 20
462.359
 11
846.28
 21
444.359
  0
LINE
  8
Layer1
  6
CONTINUOUS
 62
7
 10
846.28
 20
462.359
 11
857.58
 21
462.359
  0
LINE
  8
Layer1
  6
CONTINUOUS
 62
7
 10
846.907
 20
461.359
 11
856.952
 21
461.359
  0
LINE
  8
Layer1
  6
CONTINUOUS
 62
7
 10
847.535
 20
460.359
 11
856.324
 21
460.359
  0
LINE
  8
Layer1
  6
CONTINUOUS
 62
7
 10
855.696
 20
459.359
 11
848.163
 21
459.359
  0
LINE
  8
Layer1
  6
CONTINUOUS
 62
7
 10
855.069
 20
458.359
 11
848.791
 21
458.359
  0
LINE
  8
Layer1
  6
CONTINUOUS
 62
7
 10
854.441
 20
457.359
 11
849.419
 21
457.359
  0
LINE
  8
Layer1
  6
CONTINUOUS
 62
7
 10
853.813
 20
456.359
 11
850.046
 21
456.359
  0
LINE
  8
Layer1
  6
CONTINUOUS
 62
7
 10
853.185
 20
455.359
 11
850.674
 21
455.359
  0
LINE
  8
Layer1
  6
CONTINUOUS
 62
7
 10
514.989
 20
201.177
 11
514.989
 21
178.177
  0
LINE
  8
Layer1
  6
CONTINUOUS
 62
7
 10
264.99
 20
201.177
 11
264.99
 21
178.177
  0
LINE
  8
Layer1
  6
CENTER1
 62
7
 10
277.49
 20
221.104
 11
277.49
 21
161.978
  0
LINE
  8
Layer1
  6
CENTER1
 62
7
 10
502.489
 20
171.18
 11
502.489
 21
209.302
  0
LINE
  8
Layer1
  6
CONTINUOUS
 62
7
 10
264.99
 20
178.177
 11
265.99
 21
177.177
  0
LINE
  8
Layer1
  6
CONTINUOUS
 62
7
 10
513.989
 20
177.177
 11
514.989
 21
178.177
  0
LINE
  8
Layer1
  6
CONTINUOUS
 62
7
 10
513.989
 20
202.177
 11
514.989
 21
201.177
  0
LINE
  8
Layer1
  6
CONTINUOUS
 62
7
 10
265.99
 20
202.177
 11
264.99
 21
201.177
  0
LINE
  8
Layer1
  6
CONTINUOUS
 62
7
 10
314.989
 20
263.177
 11
314.989
 21
214.177
  0
LINE
  8
Layer1
  6
CONTINUOUS
 62
7
 10
464.989
 20
263.177
 11
464.989
 21
214.177
  0
LINE
  8
Layer1
  6
CONTINUOUS
 62
7
 10
488.989
 20
263.177
 11
488.989
 21
204.177
  0
LINE
  8
Layer1
  6
CONTINUOUS
 62
7
 10
290.989
 20
263.177
 11
290.989
 21
204.177
  0
ARC
  8
Layer1
  6
CONTINUOUS
 62
7
 10
490.989
 20
204.177
 40
2
 50
180
 51
270
  0
ARC
  8
Layer1
  6
CONTINUOUS
 62
7
 10
288.989
 20
204.177
 40
2
 50
270
 51
0
  0
LINE
  8
Layer1
  6
CONTINUOUS
 62
7
 10
291.989
 20
264.177
 11
290.989
 21
263.177
  0
LINE
  8
Layer1
  6
CONTINUOUS
 62
7
 10
463.989
 20
264.177
 11
464.989
 21
263.177
  0
LINE
  8
Layer1
  6
CONTINUOUS
 62
7
 10
487.989
 20
264.177
 11
488.989
 21
263.177
  0
LINE
  8
Layer1
  6
CONTINUOUS
 62
7
 10
291.989
 20
264.177
 11
313.989
 21
264.177
  0
LINE
  8
Layer1
  6
CONTINUOUS
 62
7
 10
487.989
 20
264.177
 11
465.989
 21
264.177
  0
LINE
  8
Layer1
  6
CONTINUOUS
 62
7
 10
465.989
 20
264.177
 11
313.989
 21
264.177
  0
LINE
  8
Layer1
  6
CONTINUOUS
 62
7
 10
313.989
 20
264.177
 11
314.989
 21
263.177
  0
LINE
  8
Layer1
  6
CONTINUOUS
 62
7
 10
464.989
 20
263.177
 11
465.989
 21
264.177
  0
LINE
  8
Layer1
  6
CONTINUOUS
 62
7
 10
314.989
 20
215.177
 11
315.989
 21
214.177
  0
LINE
  8
Layer1
  6
CONTINUOUS
 62
7
 10
463.989
 20
214.177
 11
464.989
 21
215.177
  0
LINE
  8
Layer1
  6
CONTINUOUS
 62
7
 10
314.989
 20
263.177
 11
315.989
 21
264.177
  0
LINE
  8
Layer1
  6
CONTINUOUS
 62
7
 10
463.989
 20
264.177
 11
464.989
 21
263.177
  0
LINE
  8
Layer1
  6
CONTINUOUS
 62
7
 10
488.989
 20
265.177
 11
488.989
 21
282.177
  0
LINE
  8
Layer1
  6
CONTINUOUS
 62
7
 10
290.989
 20
282.177
 11
290.989
 21
265.177
  0
LINE
  8
Layer1
  6
CONTINUOUS
 62
7
 10
290.989
 20
265.177
 11
291.989
 21
264.177
  0
LINE
  8
Layer1
  6
CONTINUOUS
 62
7
 10
290.989
 20
282.177
 11
291.989
 21
283.177
  0
LINE
  8
Layer1
  6
CONTINUOUS
 62
7
 10
487.989
 20
283.177
 11
488.989
 21
282.177
  0
LINE
  8
Layer1
  6
CONTINUOUS
 62
7
 10
488.989
 20
265.177
 11
487.989
 21
264.177
  0
LINE
  8
Layer1
  6
CENTER1
 62
7
 10
301.989
 20
292.297
 11
301.989
 21
255.192
  0
LINE
  8
Layer1
  6
CENTER1
 62
7
 10
477.989
 20
292.297
 11
477.989
 21
254.89
  0
LINE
  8
Layer1
  6
CONTINUOUS
 62
7
 10
459.989
 20
253.177
 11
459.989
 21
336.177
  0
LINE
  8
Layer1
  6
CONTINUOUS
 62
7
 10
319.989
 20
253.177
 11
319.989
 21
336.177
  0
LINE
  8
Layer1
  6
CONTINUOUS
 62
7
 10
320.989
 20
252.177
 11
319.989
 21
253.177
  0
LINE
  8
Layer1
  6
CONTINUOUS
 62
7
 10
459.989
 20
253.177
 11
458.989
 21
252.177
  0
LINE
  8
Layer1
  6
DASHED1
 62
7
 10
377.489
 20
265.177
 11
377.489
 21
266.677
  0
LINE
  8
Layer1
  6
DASHED1
 62
7
 10
402.489
 20
265.177
 11
402.489
 21
266.677
  0
ARC
  8
Layer1
  6
DASHED1
 62
7
 10
389.989
 20
266.677
 40
12.5
 50
90
 51
180
  0
ARC
  8
Layer1
  6
DASHED1
 62
7
 10
389.989
 20
266.677
 40
12.5
 50
0
 51
90
  0
LINE
  8
Layer1
  6
DASHED1
 62
7
 10
377.489
 20
265.177
 11
364.489
 21
252.177
  0
LINE
  8
Layer1
  6
DASHED1
 62
7
 10
402.489
 20
265.177
 11
415.489
 21
252.177
  0
LINE
  8
Layer1
  6
CONTINUOUS
 62
7
 10
484.989
 20
339.177
 11
484.989
 21
356.177
  0
LINE
  8
Layer1
  6
CONTINUOUS
 62
7
 10
294.989
 20
339.177
 11
294.989
 21
356.177
  0
LINE
  8
Layer1
  6
CONTINUOUS
 62
7
 10
295.989
 20
357.177
 11
294.989
 21
356.177
  0
LINE
  8
Layer1
  6
CONTINUOUS
 62
7
 10
483.989
 20
357.177
 11
484.989
 21
356.177
  0
LINE
  8
Layer1
  6
CONTINUOUS
 62
7
 10
484.989
 20
339.177
 11
483.989
 21
338.177
  0
LINE
  8
Layer1
  6
CONTINUOUS
 62
7
 10
295.989
 20
338.177
 11
294.989
 21
339.177
  0
ARC
  8
Layer1
  6
CONTINUOUS
 62
7
 10
317.989
 20
336.177
 40
2
 50
0
 51
90
  0
ARC
  8
Layer1
  6
CONTINUOUS
 62
7
 10
461.989
 20
336.177
 40
2
 50
90
 51
180
  0
LINE
  8
Layer1
  6
CENTER1
 62
7
 10
472.989
 20
368.014
 11
472.989
 21
330.608
  0
LINE
  8
Layer1
  6
CENTER1
 62
7
 10
306.989
 20
362.886
 11
306.989
 21
331.513
  0
LINE
  8
Layer1
  6
CENTER1
 62
7
 10
334.989
 20
291.09
 11
334.989
 21
258.51
  0
LINE
  8
Layer1
  6
CENTER1
 62
7
 10
444.989
 20
291.693
 11
444.989
 21
258.51
  0
LINE
  8
Layer1
  6
CONTINUOUS
 62
7
 10
441.281
 20
289.582
 11
449.126
 21
289.582
  0
LINE
  8
Layer1
  6
CONTINUOUS
 62
7
 10
440.954
 20
288.979
 11
449.428
 21
288.979
  0
LINE
  8
Layer1
  6
CONTINUOUS
 62
7
 10
440.859
 20
285.599
 11
449.307
 21
285.599
  0
LINE
  8
Layer1
  6
CONTINUOUS
 62
7
 10
450.031
 20
284.875
 11
440.135
 21
284.875
  0
LINE
  8
Layer1
  6
CONTINUOUS
 62
7
 10
450.031
 20
284.875
 11
450.031
 21
283.004
  0
LINE
  8
Layer1
  6
CONTINUOUS
 62
7
 10
440.135
 20
284.875
 11
440.135
 21
283.004
  0
POLYLINE
  8
Layer1
  6
CONTINUOUS
 62
7
 66
1
 10
0
 20
0
 30
0
  0
VERTEX
  8
Layer1
 10
445.076
 20
286.795
  0
VERTEX
  8
Layer1
 10
445.011
 20
286.852
  0
VERTEX
  8
Layer1
 10
444.944
 20
286.908
  0
VERTEX
  8
Layer1
 10
444.876
 20
286.961
  0
VERTEX
  8
Layer1
 10
444.806
 20
287.013
  0
VERTEX
  8
Layer1
 10
444.736
 20
287.063
  0
VERTEX
  8
Layer1
 10
444.663
 20
287.111
  0
VERTEX
  8
Layer1
 10
444.59
 20
287.157
  0
VERTEX
  8
Layer1
 10
444.516
 20
287.202
  0
VERTEX
  8
Layer1
 10
444.44
 20
287.244
  0
VERTEX
  8
Layer1
 10
444.363
 20
287.284
  0
VERTEX
  8
Layer1
 10
444.285
 20
287.323
  0
VERTEX
  8
Layer1
 10
444.207
 20
287.359
  0
VERTEX
  8
Layer1
 10
444.127
 20
287.394
  0
VERTEX
  8
Layer1
 10
444.047
 20
287.426
  0
VERTEX
  8
Layer1
 10
443.965
 20
287.456
  0
VERTEX
  8
Layer1
 10
443.883
 20
287.484
  0
VERTEX
  8
Layer1
 10
443.801
 20
287.51
  0
VERTEX
  8
Layer1
 10
443.717
 20
287.534
  0
VERTEX
  8
Layer1
 10
443.633
 20
287.556
  0
VERTEX
  8
Layer1
 10
443.549
 20
287.575
  0
VERTEX
  8
Layer1
 10
443.464
 20
287.592
  0
VERTEX
  8
Layer1
 10
443.378
 20
287.607
  0
VERTEX
  8
Layer1
 10
443.293
 20
287.62
  0
VERTEX
  8
Layer1
 10
443.206
 20
287.631
  0
VERTEX
  8
Layer1
 10
443.12
 20
287.639
  0
VERTEX
  8
Layer1
 10
443.034
 20
287.645
  0
VERTEX
  8
Layer1
 10
442.947
 20
287.649
  0
VERTEX
  8
Layer1
 10
442.86
 20
287.651
  0
VERTEX
  8
Layer1
 10
442.774
 20
287.65
  0
VERTEX
  8
Layer1
 10
442.687
 20
287.647
  0
VERTEX
  8
Layer1
 10
442.6
 20
287.642
  0
VERTEX
  8
Layer1
 10
442.514
 20
287.635
  0
VERTEX
  8
Layer1
 10
442.428
 20
287.626
  0
VERTEX
  8
Layer1
 10
442.342
 20
287.614
  0
VERTEX
  8
Layer1
 10
442.256
 20
287.6
  0
VERTEX
  8
Layer1
 10
442.171
 20
287.584
  0
VERTEX
  8
Layer1
 10
442.086
 20
287.565
  0
VERTEX
  8
Layer1
 10
442.002
 20
287.545
  0
VERTEX
  8
Layer1
 10
441.918
 20
287.522
  0
VERTEX
  8
Layer1
 10
441.835
 20
287.497
  0
VERTEX
  8
Layer1
 10
441.753
 20
287.47
  0
VERTEX
  8
Layer1
 10
441.671
 20
287.441
  0
VERTEX
  8
Layer1
 10
441.59
 20
287.41
  0
VERTEX
  8
Layer1
 10
441.51
 20
287.376
  0
VERTEX
  8
Layer1
 10
441.431
 20
287.341
  0
VERTEX
  8
Layer1
 10
441.353
 20
287.303
  0
VERTEX
  8
Layer1
 10
441.276
 20
287.264
  0
VERTEX
  8
Layer1
 10
441.2
 20
287.223
  0
SEQEND
  0
POLYLINE
  8
Layer1
  6
CONTINUOUS
 62
7
 66
1
 10
0
 20
0
 30
0
  0
VERTEX
  8
Layer1
 10
449.429
 20
287.168
  0
VERTEX
  8
Layer1
 10
449.341
 20
287.203
  0
VERTEX
  8
Layer1
 10
449.253
 20
287.237
  0
VERTEX
  8
Layer1
 10
449.164
 20
287.269
  0
VERTEX
  8
Layer1
 10
449.075
 20
287.3
  0
VERTEX
  8
Layer1
 10
448.985
 20
287.328
  0
VERTEX
  8
Layer1
 10
448.894
 20
287.355
  0
VERTEX
  8
Layer1
 10
448.803
 20
287.379
  0
VERTEX
  8
Layer1
 10
448.711
 20
287.402
  0
VERTEX
  8
Layer1
 10
448.619
 20
287.424
  0
VERTEX
  8
Layer1
 10
448.527
 20
287.443
  0
VERTEX
  8
Layer1
 10
448.434
 20
287.46
  0
VERTEX
  8
Layer1
 10
448.341
 20
287.476
  0
VERTEX
  8
Layer1
 10
448.248
 20
287.49
  0
VERTEX
  8
Layer1
 10
448.154
 20
287.502
  0
VERTEX
  8
Layer1
 10
448.06
 20
287.512
  0
VERTEX
  8
Layer1
 10
447.966
 20
287.52
  0
VERTEX
  8
Layer1
 10
447.872
 20
287.526
  0
VERTEX
  8
Layer1
 10
447.777
 20
287.53
  0
VERTEX
  8
Layer1
 10
447.683
 20
287.533
  0
VERTEX
  8
Layer1
 10
447.588
 20
287.533
  0
VERTEX
  8
Layer1
 10
447.494
 20
287.532
  0
VERTEX
  8
Layer1
 10
447.4
 20
287.529
  0
VERTEX
  8
Layer1
 10
447.305
 20
287.524
  0
VERTEX
  8
Layer1
 10
447.211
 20
287.517
  0
VERTEX
  8
Layer1
 10
447.117
 20
287.508
  0
VERTEX
  8
Layer1
 10
447.023
 20
287.497
  0
VERTEX
  8
Layer1
 10
446.93
 20
287.485
  0
VERTEX
  8
Layer1
 10
446.836
 20
287.47
  0
VERTEX
  8
Layer1
 10
446.743
 20
287.454
  0
VERTEX
  8
Layer1
 10
446.651
 20
287.436
  0
VERTEX
  8
Layer1
 10
446.558
 20
287.416
  0
VERTEX
  8
Layer1
 10
446.467
 20
287.394
  0
VERTEX
  8
Layer1
 10
446.375
 20
287.37
  0
VERTEX
  8
Layer1
 10
446.284
 20
287.345
  0
VERTEX
  8
Layer1
 10
446.194
 20
287.317
  0
VERTEX
  8
Layer1
 10
446.104
 20
287.288
  0
VERTEX
  8
Layer1
 10
446.015
 20
287.257
  0
VERTEX
  8
Layer1
 10
445.926
 20
287.225
  0
VERTEX
  8
Layer1
 10
445.838
 20
287.19
  0
VERTEX
  8
Layer1
 10
445.751
 20
287.154
  0
VERTEX
  8
Layer1
 10
445.665
 20
287.116
  0
VERTEX
  8
Layer1
 10
445.579
 20
287.076
  0
VERTEX
  8
Layer1
 10
445.494
 20
287.035
  0
VERTEX
  8
Layer1
 10
445.41
 20
286.992
  0
VERTEX
  8
Layer1
 10
445.327
 20
286.947
  0
VERTEX
  8
Layer1
 10
445.245
 20
286.901
  0
VERTEX
  8
Layer1
 10
445.163
 20
286.853
  0
VERTEX
  8
Layer1
 10
445.083
 20
286.803
  0
SEQEND
  0
LINE
  8
Layer1
  6
CONTINUOUS
 62
7
 10
441.546
 20
287.391
 11
441.212
 21
287.201
  0
LINE
  8
Layer1
  6
CONTINUOUS
 62
7
 10
441.281
 20
289.582
 11
440.422
 21
287.998
  0
LINE
  8
Layer1
  6
CONTINUOUS
 62
7
 10
449.126
 20
289.582
 11
450.014
 21
287.767
  0
LINE
  8
Layer1
  6
CONTINUOUS
 62
7
 10
448.944
 20
287.312
 11
449.429
 21
287.168
  0
POLYLINE
  8
Layer1
  6
CONTINUOUS
 62
7
 66
1
 10
0
 20
0
 30
0
  0
VERTEX
  8
Layer1
 10
440.422
 20
287.998
  0
VERTEX
  8
Layer1
 10
440.407
 20
287.971
  0
VERTEX
  8
Layer1
 10
440.393
 20
287.942
  0
VERTEX
  8
Layer1
 10
440.381
 20
287.913
  0
VERTEX
  8
Layer1
 10
440.371
 20
287.883
  0
VERTEX
  8
Layer1
 10
440.362
 20
287.852
  0
VERTEX
  8
Layer1
 10
440.355
 20
287.822
  0
VERTEX
  8
Layer1
 10
440.349
 20
287.79
  0
VERTEX
  8
Layer1
 10
440.346
 20
287.759
  0
VERTEX
  8
Layer1
 10
440.344
 20
287.727
  0
VERTEX
  8
Layer1
 10
440.344
 20
287.696
  0
VERTEX
  8
Layer1
 10
440.345
 20
287.664
  0
VERTEX
  8
Layer1
 10
440.348
 20
287.633
  0
VERTEX
  8
Layer1
 10
440.353
 20
287.602
  0
VERTEX
  8
Layer1
 10
440.36
 20
287.571
  0
VERTEX
  8
Layer1
 10
440.368
 20
287.54
  0
VERTEX
  8
Layer1
 10
440.378
 20
287.51
  0
VERTEX
  8
Layer1
 10
440.389
 20
287.48
  0
VERTEX
  8
Layer1
 10
440.402
 20
287.452
  0
VERTEX
  8
Layer1
 10
440.417
 20
287.424
  0
VERTEX
  8
Layer1
 10
440.433
 20
287.396
  0
VERTEX
  8
Layer1
 10
440.451
 20
287.37
  0
VERTEX
  8
Layer1
 10
440.47
 20
287.345
  0
VERTEX
  8
Layer1
 10
440.49
 20
287.321
  0
VERTEX
  8
Layer1
 10
440.512
 20
287.298
  0
VERTEX
  8
Layer1
 10
440.535
 20
287.276
  0
VERTEX
  8
Layer1
 10
440.559
 20
287.255
  0
VERTEX
  8
Layer1
 10
440.584
 20
287.236
  0
VERTEX
  8
Layer1
 10
440.61
 20
287.218
  0
VERTEX
  8
Layer1
 10
440.637
 20
287.202
  0
VERTEX
  8
Layer1
 10
440.665
 20
287.187
  0
VERTEX
  8
Layer1
 10
440.693
 20
287.173
  0
VERTEX
  8
Layer1
 10
440.723
 20
287.162
  0
VERTEX
  8
Layer1
 10
440.753
 20
287.151
  0
VERTEX
  8
Layer1
 10
440.783
 20
287.143
  0
VERTEX
  8
Layer1
 10
440.814
 20
287.136
  0
VERTEX
  8
Layer1
 10
440.845
 20
287.131
  0
VERTEX
  8
Layer1
 10
440.877
 20
287.127
  0
VERTEX
  8
Layer1
 10
440.908
 20
287.126
  0
VERTEX
  8
Layer1
 10
440.94
 20
287.126
  0
VERTEX
  8
Layer1
 10
440.972
 20
287.127
  0
VERTEX
  8
Layer1
 10
441.003
 20
287.131
  0
VERTEX
  8
Layer1
 10
441.034
 20
287.136
  0
VERTEX
  8
Layer1
 10
441.065
 20
287.143
  0
VERTEX
  8
Layer1
 10
441.096
 20
287.151
  0
VERTEX
  8
Layer1
 10
441.126
 20
287.161
  0
VERTEX
  8
Layer1
 10
441.155
 20
287.173
  0
VERTEX
  8
Layer1
 10
441.184
 20
287.187
  0
VERTEX
  8
Layer1
 10
441.212
 20
287.201
  0
SEQEND
  0
POLYLINE
  8
Layer1
  6
CONTINUOUS
 62
7
 66
1
 10
0
 20
0
 30
0
  0
VERTEX
  8
Layer1
 10
449.429
 20
287.168
  0
VERTEX
  8
Layer1
 10
449.449
 20
287.162
  0
VERTEX
  8
Layer1
 10
449.47
 20
287.158
  0
VERTEX
  8
Layer1
 10
449.491
 20
287.154
  0
VERTEX
  8
Layer1
 10
449.512
 20
287.151
  0
VERTEX
  8
Layer1
 10
449.534
 20
287.149
  0
VERTEX
  8
Layer1
 10
449.555
 20
287.148
  0
VERTEX
  8
Layer1
 10
449.577
 20
287.148
  0
VERTEX
  8
Layer1
 10
449.598
 20
287.15
  0
VERTEX
  8
Layer1
 10
449.619
 20
287.152
  0
VERTEX
  8
Layer1
 10
449.64
 20
287.155
  0
VERTEX
  8
Layer1
 10
449.661
 20
287.159
  0
VERTEX
  8
Layer1
 10
449.682
 20
287.163
  0
VERTEX
  8
Layer1
 10
449.703
 20
287.169
  0
VERTEX
  8
Layer1
 10
449.723
 20
287.176
  0
VERTEX
  8
Layer1
 10
449.743
 20
287.184
  0
VERTEX
  8
Layer1
 10
449.763
 20
287.192
  0
VERTEX
  8
Layer1
 10
449.782
 20
287.202
  0
VERTEX
  8
Layer1
 10
449.801
 20
287.212
  0
VERTEX
  8
Layer1
 10
449.819
 20
287.223
  0
VERTEX
  8
Layer1
 10
449.837
 20
287.235
  0
VERTEX
  8
Layer1
 10
449.854
 20
287.248
  0
VERTEX
  8
Layer1
 10
449.871
 20
287.261
  0
VERTEX
  8
Layer1
 10
449.886
 20
287.276
  0
VERTEX
  8
Layer1
 10
449.902
 20
287.291
  0
VERTEX
  8
Layer1
 10
449.916
 20
287.306
  0
VERTEX
  8
Layer1
 10
449.93
 20
287.323
  0
VERTEX
  8
Layer1
 10
449.943
 20
287.34
  0
VERTEX
  8
Layer1
 10
449.956
 20
287.357
  0
VERTEX
  8
Layer1
 10
449.967
 20
287.375
  0
VERTEX
  8
Layer1
 10
449.978
 20
287.394
  0
VERTEX
  8
Layer1
 10
449.988
 20
287.413
  0
VERTEX
  8
Layer1
 10
449.997
 20
287.432
  0
VERTEX
  8
Layer1
 10
450.005
 20
287.452
  0
VERTEX
  8
Layer1
 10
450.012
 20
287.472
  0
VERTEX
  8
Layer1
 10
450.019
 20
287.492
  0
VERTEX
  8
Layer1
 10
450.024
 20
287.513
  0
VERTEX
  8
Layer1
 10
450.028
 20
287.534
  0
VERTEX
  8
Layer1
 10
450.032
 20
287.555
  0
VERTEX
  8
Layer1
 10
450.034
 20
287.576
  0
VERTEX
  8
Layer1
 10
450.036
 20
287.598
  0
VERTEX
  8
Layer1
 10
450.036
 20
287.619
  0
VERTEX
  8
Layer1
 10
450.036
 20
287.641
  0
VERTEX
  8
Layer1
 10
450.035
 20
287.662
  0
VERTEX
  8
Layer1
 10
450.032
 20
287.683
  0
VERTEX
  8
Layer1
 10
450.029
 20
287.704
  0
VERTEX
  8
Layer1
 10
450.025
 20
287.725
  0
VERTEX
  8
Layer1
 10
450.02
 20
287.746
  0
VERTEX
  8
Layer1
 10
450.014
 20
287.767
  0
SEQEND
  0
LINE
  8
Layer1
  6
CONTINUOUS
 62
7
 10
448.15
 20
287.502
 11
448.15
 21
285.599
  0
LINE
  8
Layer1
  6
CONTINUOUS
 62
7
 10
442.005
 20
287.545
 11
442.005
 21
285.599
  0
LINE
  8
Layer1
  6
CONTINUOUS
 62
7
 10
440.859
 20
285.599
 11
440.135
 21
284.875
  0
LINE
  8
Layer1
  6
CONTINUOUS
 62
7
 10
449.307
 20
285.599
 11
450.031
 21
284.875
  0
LINE
  8
Layer1
  6
CONTINUOUS
 62
7
 10
681.28
 20
666.359
 11
805.25
 21
666.359
  0
LINE
  8
Layer1
  6
CONTINUOUS
 62
7
 10
755.228
 20
640.359
 11
664.28
 21
640.359
  0
LINE
  8
Layer1
  6
PHANTOM1
 62
7
 10
659.28
 20
616.359
 11
637.28
 21
616.359
  0
LINE
  8
Layer1
  6
PHANTOM1
 62
7
 10
637.28
 20
466.359
 11
659.28
 21
466.359
  0
LINE
  8
Layer1
  6
CONTINUOUS
 62
7
 10
759.28
 20
446.359
 11
822.25
 21
446.359
  0
LINE
  8
Layer1
  6
CONTINUOUS
 62
7
 10
681.28
 20
416.359
 11
805.25
 21
416.359
  0
LINE
  8
Layer1
  6
CONTINUOUS
 62
7
 10
846.28
 20
443.359
 11
846.28
 21
639.359
  0
LINE
  8
Layer1
  6
CONTINUOUS
 62
7
 10
805.25
 20
666.359
 11
823.25
 21
648.359
  0
LINE
  8
Layer1
  6
CONTINUOUS
 62
7
 10
823.25
 20
434.359
 11
805.25
 21
416.359
  0
LINE
  8
Layer1
  6
CONTINUOUS
 62
7
 10
681.28
 20
416.359
 11
663.28
 21
434.359
  0
LINE
  8
Layer1
  6
CONTINUOUS
 62
7
 10
663.28
 20
648.359
 11
681.28
 21
666.359
  0
LINE
  8
Layer1
  6
CONTINUOUS
 62
7
 10
663.28
 20
443.359
 11
663.28
 21
616.359
  0
LINE
  8
Layer1
  6
CONTINUOUS
 62
7
 10
823.25
 20
639.359
 11
823.25
 21
648.359
  0
LINE
  8
Layer1
  6
CONTINUOUS
 62
7
 10
823.28
 20
639.359
 11
823.28
 21
443.359
  0
LINE
  8
Layer1
  6
CONTINUOUS
 62
7
 10
663.28
 20
443.359
 11
663.28
 21
434.359
  0
LINE
  8
Layer1
  6
CONTINUOUS
 62
7
 10
822.25
 20
636.359
 11
823.25
 21
635.359
  0
LINE
  8
Layer1
  6
CONTINUOUS
 62
7
 10
664.28
 20
640.359
 11
663.28
 21
639.359
  0
LINE
  8
Layer1
  6
CONTINUOUS
 62
7
 10
664.28
 20
442.359
 11
663.28
 21
443.359
  0
LINE
  8
Layer1
  6
CONTINUOUS
 62
7
 10
822.25
 20
446.359
 11
823.25
 21
447.359
  0
LINE
  8
Layer1
  6
CONTINUOUS
 62
7
 10
824.28
 20
640.359
 11
845.28
 21
640.359
  0
LINE
  8
Layer1
  6
CONTINUOUS
 62
7
 10
824.28
 20
442.359
 11
845.28
 21
442.359
  0
LINE
  8
Layer1
  6
CONTINUOUS
 62
7
 10
845.28
 20
640.359
 11
846.28
 21
639.359
  0
LINE
  8
Layer1
  6
CONTINUOUS
 62
7
 10
846.28
 20
443.359
 11
845.28
 21
442.359
  0
LINE
  8
Layer1
  6
CONTINUOUS
 62
7
 10
824.25
 20
442.359
 11
823.25
 21
443.359
  0
LINE
  8
Layer1
  6
CONTINUOUS
 62
7
 10
823.25
 20
639.359
 11
824.25
 21
640.359
  0
LINE
  8
Layer1
  6
CONTINUOUS
 62
7
 10
663.28
 20
616.359
 11
663.28
 21
639.359
  0
LINE
  8
Layer1
  6
DASHED1
 62
7
 10
663.28
 20
616.359
 11
823.25
 21
616.359
  0
LINE
  8
Layer1
  6
DASHED1
 62
7
 10
663.28
 20
466.359
 11
823.25
 21
466.359
  0
LINE
  8
Layer1
  6
PHANTOM1
 62
7
 10
636.28
 20
615.359
 11
637.28
 21
616.359
  0
LINE
  8
Layer1
  6
PHANTOM1
 62
7
 10
659.28
 20
616.359
 11
660.28
 21
615.359
  0
LINE
  8
Layer1
  6
PHANTOM1
 62
7
 10
660.28
 20
467.359
 11
659.28
 21
466.359
  0
LINE
  8
Layer1
  6
PHANTOM1
 62
7
 10
637.28
 20
466.359
 11
636.28
 21
467.359
  0
LINE
  8
Layer1
  6
CONTINUOUS
 62
7
 10
661.28
 20
466.359
 11
663.28
 21
466.359
  0
LINE
  8
Layer1
  6
CONTINUOUS
 62
7
 10
661.28
 20
616.359
 11
663.28
 21
616.359
  0
LINE
  8
Layer1
  6
CONTINUOUS
 62
7
 10
661.28
 20
616.359
 11
660.28
 21
615.359
  0
LINE
  8
Layer1
  6
CONTINUOUS
 62
7
 10
661.28
 20
466.359
 11
660.28
 21
467.359
  0
LINE
  8
Layer1
  6
CONTINUOUS
 62
7
 10
759.28
 20
636.359
 11
822.25
 21
636.359
  0
LINE
  8
Layer1
  6
CONTINUOUS
 62
7
 10
756.228
 20
639.359
 11
755.228
 21
640.359
  0
LINE
  8
Layer1
  6
CONTINUOUS
 62
7
 10
758.28
 20
635.359
 11
759.28
 21
636.359
  0
LINE
  8
Layer1
  6
CONTINUOUS
 62
7
 10
755.228
 20
442.359
 11
664.28
 21
442.359
  0
LINE
  8
Layer1
  6
CONTINUOUS
 62
7
 10
756.228
 20
443.359
 11
755.228
 21
442.359
  0
LINE
  8
Layer1
  6
CONTINUOUS
 62
7
 10
758.28
 20
447.359
 11
759.28
 21
446.359
  0
LINE
  8
Layer1
  6
CENTER1
 62
7
 10
658.06
 20
653.859
 11
695.049
 21
653.859
  0
LINE
  8
Layer1
  6
CENTER1
 62
7
 10
730.09
 20
653.859
 11
757.345
 21
653.859
  0
LINE
  8
Layer1
  6
CENTER1
 62
7
 10
789.142
 20
653.859
 11
825.481
 21
653.859
  0
LINE
  8
Layer1
  6
CENTER1
 62
7
 10
728.792
 20
428.859
 11
758.643
 21
428.859
  0
LINE
  8
Layer1
  6
CENTER1
 62
7
 10
789.791
 20
428.859
 11
825.481
 21
428.859
  0
LINE
  8
Layer1
  6
CENTER1
 62
7
 10
811.884
 20
629.359
 11
855.037
 21
629.359
  0
LINE
  8
Layer1
  6
CENTER1
 62
7
 10
807.991
 20
453.359
 11
856.66
 21
453.359
  0
LINE
  8
Layer1
  6
CONTINUOUS
 62
7
 10
810.765
 20
586.359
 11
810.765
 21
496.359
  0
LINE
  8
Layer1
  6
CONTINUOUS
 62
7
 10
770.765
 20
586.359
 11
770.765
 21
496.359
  0
LINE
  8
Layer1
  6
CONTINUOUS
 62
7
 10
770.765
 20
586.359
 11
810.765
 21
586.359
  0
LINE
  8
Layer1
  6
CONTINUOUS
 62
7
 10
770.765
 20
496.359
 11
810.765
 21
496.359
  0
LINE
  8
Layer1
  6
CENTER1
 62
7
 10
372.69
 20
337.177
 11
406.434
 21
337.177
  0
LINE
  8
Layer1
  6
CENTER1
 62
7
 10
389.989
 20
350.09
 11
389.989
 21
318.942
  0
CIRCLE
  8
Layer1
  6
CONTINUOUS
 62
7
 10
389.989
 20
337.177
 40
5.5
  0
LINE
  8
Layer1
  6
CENTER1
 62
7
 10
424.989
 20
295.935
 11
424.989
 21
305.544
  0
LINE
  8
Layer1
  6
CENTER1
 62
7
 10
354.989
 20
292.551
 11
354.989
 21
303.92
  0
LINE
  8
Layer1
  6
CENTER1
 62
7
 10
433.164
 20
299.677
 11
418.681
 21
299.677
  0
CIRCLE
  8
Layer1
  6
CONTINUOUS
 62
7
 10
354.989
 20
299.677
 40
2
  0
CIRCLE
  8
Layer1
  6
CONTINUOUS
 62
7
 10
424.989
 20
299.677
 40
2
  0
LINE
  8
Layer1
  6
CENTER1
 62
7
 10
360.346
 20
299.677
 11
349.518
 21
299.677
  0
CIRCLE
  8
Layer1
  6
CONTINUOUS
 62
7
 10
354.989
 20
299.677
 40
1
  0
CIRCLE
  8
Layer1
  6
CONTINUOUS
 62
7
 10
424.989
 20
299.677
 40
1
  0
LINE
  8
Layer1
  6
CONTINUOUS
 62
7
 10
459.989
 20
297.177
 11
319.989
 21
297.177
  0
LINE
  8
Layer1
  6
CENTER1
 62
7
 10
750.197
 20
576.359
 11
777.415
 21
576.359
  0
LINE
  8
Layer1
  6
CENTER1
 62
7
 10
801.572
 20
576.359
 11
829.471
 21
576.359
  0
LINE
  8
Layer1
  6
CENTER1
 62
7
 10
747.475
 20
506.359
 11
777.415
 21
506.359
  0
LINE
  8
Layer1
  6
CENTER1
 62
7
 10
803.614
 20
506.359
 11
830.152
 21
506.359
  0
LINE
  8
Layer1
  6
CENTER1
 62
7
 10
688.692
 20
596.359
 11
729.699
 21
596.359
  0
LINE
  8
Layer1
  6
CENTER1
 62
7
 10
698.281
 20
486.359
 11
721.742
 21
486.359
  0
CIRCLE
  8
Layer1
  6
CONTINUOUS
 62
7
 10
709.686
 20
486.428
 40
3.76681
  0
ARC
  8
Layer1
  6
CONTINUOUS
 62
7
 10
705.213
 20
486.462
 40
1
 50
140.711
 51
225
  0
LINE
  8
Layer1
  6
CONTINUOUS
 62
7
 10
714.196
 20
488.072
 11
716.46
 21
488.072
  0
LINE
  8
Layer1
  6
CONTINUOUS
 62
7
 10
714.196
 20
484.587
 11
716.46
 21
484.587
  0
LINE
  8
Layer1
  6
CONTINUOUS
 62
7
 10
716.46
 20
488.072
 11
716.46
 21
484.587
  0
ARC
  8
Layer1
  6
CONTINUOUS
 62
7
 10
709.686
 20
486.428
 40
4.80058
 50
20.031
 51
140.098
  0
ARC
  8
Layer1
  6
CONTINUOUS
 62
7
 10
709.686
 20
486.428
 40
4.80058
 50
218.056
 51
337.793
  0
ARC
  8
Layer1
  6
CONTINUOUS
 62
7
 10
696.793
 20
479.178
 40
10.1292
 50
24.1178
 51
40.4581
  0
ARC
  8
Layer1
  6
CONTINUOUS
 62
7
 10
696.732
 20
493.668
 40
10.1292
 50
319.542
 51
335.882
  0
ARC
  8
Layer1
  6
CONTINUOUS
 62
7
 10
715.328
 20
488.072
 40
0.542282
 50
0
 51
180
  0
ARC
  8
Layer1
  6
CONTINUOUS
 62
7
 10
715.328
 20
484.587
 40
0.657613
 50
180
 51
2.03555e-013
  0
LINE
  8
Layer1
  6
CONTINUOUS
 62
7
 10
710.926
 20
486.359
 11
708.633
 21
486.359
  0
POLYLINE
  8
Layer1
  6
CONTINUOUS
 62
7
 66
1
 10
0
 20
0
 30
0
  0
VERTEX
  8
Layer1
 10
724.615
 20
494.888
  0
VERTEX
  8
Layer1
 10
724.6
 20
494.94
  0
VERTEX
  8
Layer1
 10
724.58
 20
495.002
  0
VERTEX
  8
Layer1
 10
724.558
 20
495.064
  0
VERTEX
  8
Layer1
 10
724.534
 20
495.125
  0
VERTEX
  8
Layer1
 10
724.508
 20
495.185
  0
VERTEX
  8
Layer1
 10
724.48
 20
495.244
  0
VERTEX
  8
Layer1
 10
724.45
 20
495.302
  0
VERTEX
  8
Layer1
 10
724.418
 20
495.359
  0
VERTEX
  8
Layer1
 10
724.384
 20
495.415
  0
VERTEX
  8
Layer1
 10
724.349
 20
495.47
  0
VERTEX
  8
Layer1
 10
724.332
 20
495.495
  0
SEQEND
  0
LINE
  8
Layer1
  6
DASHED1
 62
7
 10
694.686
 20
494.359
 11
694.686
 21
478.359
  0
LINE
  8
Layer1
  6
DASHED1
 62
7
 10
722.391
 20
476.359
 11
696.707
 21
476.359
  0
LINE
  8
Layer1
  6
DASHED1
 62
7
 10
722.189
 20
496.359
 11
696.686
 21
496.359
  0
LINE
  8
Layer1
  6
DASHED1
 62
7
 10
724.686
 20
494.147
 11
724.686
 21
478.44
  0
POLYLINE
  8
Layer1
  6
CONTINUOUS
 62
7
 66
1
 10
0
 20
0
 30
0
  0
VERTEX
  8
Layer1
 10
723.402
 20
476.492
  0
VERTEX
  8
Layer1
 10
723.451
 20
476.511
  0
VERTEX
  8
Layer1
 10
723.512
 20
476.537
  0
VERTEX
  8
Layer1
 10
723.571
 20
476.565
  0
VERTEX
  8
Layer1
 10
723.629
 20
476.595
  0
VERTEX
  8
Layer1
 10
723.686
 20
476.627
  0
VERTEX
  8
Layer1
 10
723.742
 20
476.661
  0
VERTEX
  8
Layer1
 10
723.797
 20
476.696
  0
VERTEX
  8
Layer1
 10
723.851
 20
476.733
  0
VERTEX
  8
Layer1
 10
723.904
 20
476.772
  0
VERTEX
  8
Layer1
 10
723.955
 20
476.813
  0
VERTEX
  8
Layer1
 10
724.005
 20
476.856
  0
VERTEX
  8
Layer1
 10
724.053
 20
476.899
  0
VERTEX
  8
Layer1
 10
724.1
 20
476.945
  0
VERTEX
  8
Layer1
 10
724.146
 20
476.992
  0
VERTEX
  8
Layer1
 10
724.19
 20
477.04
  0
VERTEX
  8
Layer1
 10
724.232
 20
477.09
  0
VERTEX
  8
Layer1
 10
724.273
 20
477.142
  0
VERTEX
  8
Layer1
 10
724.312
 20
477.194
  0
VERTEX
  8
Layer1
 10
724.349
 20
477.248
  0
VERTEX
  8
Layer1
 10
724.384
 20
477.303
  0
VERTEX
  8
Layer1
 10
724.418
 20
477.359
  0
VERTEX
  8
Layer1
 10
724.45
 20
477.416
  0
VERTEX
  8
Layer1
 10
724.48
 20
477.475
  0
VERTEX
  8
Layer1
 10
724.49
 20
477.496
  0
SEQEND
  0
LINE
  8
Layer1
  6
CONTINUOUS
 62
7
 10
694.686
 20
478.359
 11
694.687
 21
478.305
  0
POLYLINE
  8
Layer1
  6
CONTINUOUS
 62
7
 66
1
 10
0
 20
0
 30
0
  0
VERTEX
  8
Layer1
 10
696.686
 20
496.359
  0
VERTEX
  8
Layer1
 10
696.621
 20
496.358
  0
VERTEX
  8
Layer1
 10
696.572
 20
496.356
  0
SEQEND
  0
LINE
  8
Layer1
  6
CONTINUOUS
 62
7
 10
696.686
 20
496.359
 11
697.786
 21
496.359
  0
LINE
  8
Layer1
  6
CONTINUOUS
 62
7
 10
696.707
 20
476.359
 11
697.786
 21
476.359
  0
LINE
  8
Layer1
  6
CONTINUOUS
 62
7
 10
694.686
 20
478.359
 11
694.686
 21
479.316
  0
LINE
  8
Layer1
  6
CONTINUOUS
 62
7
 10
724.686
 20
479.586
 11
724.686
 21
478.44
  0
POLYLINE
  8
Layer1
  6
CONTINUOUS
 62
7
 66
1
 10
0
 20
0
 30
0
  0
VERTEX
  8
Layer1
 10
723.47
 20
496.199
  0
VERTEX
  8
Layer1
 10
723.451
 20
496.207
  0
VERTEX
  8
Layer1
 10
723.391
 20
496.231
  0
VERTEX
  8
Layer1
 10
723.329
 20
496.253
  0
VERTEX
  8
Layer1
 10
723.267
 20
496.273
  0
VERTEX
  8
Layer1
 10
723.204
 20
496.291
  0
VERTEX
  8
Layer1
 10
723.14
 20
496.307
  0
VERTEX
  8
Layer1
 10
723.076
 20
496.321
  0
VERTEX
  8
Layer1
 10
723.012
 20
496.332
  0
VERTEX
  8
Layer1
 10
722.947
 20
496.342
  0
VERTEX
  8
Layer1
 10
722.882
 20
496.35
  0
VERTEX
  8
Layer1
 10
722.817
 20
496.355
  0
VERTEX
  8
Layer1
 10
722.796
 20
496.356
  0
SEQEND
  0
POLYLINE
  8
Layer1
  6
CONTINUOUS
 62
7
 66
1
 10
0
 20
0
 30
0
  0
VERTEX
  8
Layer1
 10
695.831
 20
496.167
  0
VERTEX
  8
Layer1
 10
695.802
 20
496.153
  0
VERTEX
  8
Layer1
 10
695.743
 20
496.123
  0
VERTEX
  8
Layer1
 10
695.686
 20
496.091
  0
VERTEX
  8
Layer1
 10
695.63
 20
496.058
  0
VERTEX
  8
Layer1
 10
695.575
 20
496.022
  0
VERTEX
  8
Layer1
 10
695.521
 20
495.985
  0
VERTEX
  8
Layer1
 10
695.469
 20
495.946
  0
VERTEX
  8
Layer1
 10
695.417
 20
495.905
  0
VERTEX
  8
Layer1
 10
695.367
 20
495.863
  0
VERTEX
  8
Layer1
 10
695.319
 20
495.819
  0
VERTEX
  8
Layer1
 10
695.272
 20
495.773
  0
VERTEX
  8
Layer1
 10
695.226
 20
495.726
  0
VERTEX
  8
Layer1
 10
695.182
 20
495.678
  0
VERTEX
  8
Layer1
 10
695.14
 20
495.628
  0
VERTEX
  8
Layer1
 10
695.099
 20
495.577
  0
VERTEX
  8
Layer1
 10
695.06
 20
495.524
  0
VERTEX
  8
Layer1
 10
695.023
 20
495.47
  0
VERTEX
  8
Layer1
 10
694.988
 20
495.415
  0
VERTEX
  8
Layer1
 10
694.954
 20
495.359
  0
VERTEX
  8
Layer1
 10
694.922
 20
495.302
  0
VERTEX
  8
Layer1
 10
694.917
 20
495.293
  0
SEQEND
  0
POLYLINE
  8
Layer1
  6
CONTINUOUS
 62
7
 66
1
 10
0
 20
0
 30
0
  0
VERTEX
  8
Layer1
 10
694.69
 20
494.484
  0
VERTEX
  8
Layer1
 10
694.687
 20
494.425
  0
VERTEX
  8
Layer1
 10
694.686
 20
494.359
  0
SEQEND
  0
POLYLINE
  8
Layer1
  6
CONTINUOUS
 62
7
 66
1
 10
0
 20
0
 30
0
  0
VERTEX
  8
Layer1
 10
694.852
 20
477.563
  0
VERTEX
  8
Layer1
 10
694.864
 20
477.534
  0
VERTEX
  8
Layer1
 10
694.892
 20
477.475
  0
VERTEX
  8
Layer1
 10
694.922
 20
477.416
  0
VERTEX
  8
Layer1
 10
694.954
 20
477.359
  0
VERTEX
  8
Layer1
 10
694.988
 20
477.303
  0
VERTEX
  8
Layer1
 10
695.023
 20
477.248
  0
VERTEX
  8
Layer1
 10
695.06
 20
477.194
  0
VERTEX
  8
Layer1
 10
695.099
 20
477.142
  0
VERTEX
  8
Layer1
 10
695.14
 20
477.09
  0
VERTEX
  8
Layer1
 10
695.182
 20
477.04
  0
VERTEX
  8
Layer1
 10
695.226
 20
476.992
  0
VERTEX
  8
Layer1
 10
695.272
 20
476.945
  0
VERTEX
  8
Layer1
 10
695.319
 20
476.899
  0
VERTEX
  8
Layer1
 10
695.367
 20
476.856
  0
VERTEX
  8
Layer1
 10
695.417
 20
476.813
  0
VERTEX
  8
Layer1
 10
695.469
 20
476.772
  0
VERTEX
  8
Layer1
 10
695.521
 20
476.733
  0
VERTEX
  8
Layer1
 10
695.575
 20
476.696
  0
VERTEX
  8
Layer1
 10
695.63
 20
476.661
  0
VERTEX
  8
Layer1
 10
695.686
 20
476.627
  0
VERTEX
  8
Layer1
 10
695.743
 20
476.595
  0
VERTEX
  8
Layer1
 10
695.802
 20
476.565
  0
VERTEX
  8
Layer1
 10
695.861
 20
476.537
  0
VERTEX
  8
Layer1
 10
695.921
 20
476.511
  0
VERTEX
  8
Layer1
 10
695.966
 20
476.494
  0
SEQEND
  0
LINE
  8
Layer1
  6
CENTER1
 62
7
 10
709.78
 20
471.032
 11
709.78
 21
502.829
  0
LINE
  8
Layer1
  6
DASHED1
 62
7
 10
715.28
 20
576.359
 11
717.28
 21
576.359
  0
LINE
  8
Layer1
  6
DASHED1
 62
7
 10
717.28
 20
576.359
 11
717.28
 21
616.359
  0
LINE
  8
Layer1
  6
DASHED1
 62
7
 10
717.28
 20
506.359
 11
717.28
 21
466.359
  0
LINE
  8
Layer1
  6
DASHED1
 62
7
 10
715.28
 20
576.359
 11
715.28
 21
616.359
  0
LINE
  8
Layer1
  6
DASHED1
 62
7
 10
715.28
 20
506.359
 11
715.28
 21
466.359
  0
LINE
  8
Layer1
  6
DASHED1
 62
7
 10
715.28
 20
506.359
 11
717.28
 21
506.359
  0
TEXT
  8
Layer1
 62
7
 10
264.99
 20
304.677
 72
1
 11
264.99
 21
304.677
 40
8
 41
1
 50
90
  1
 105 
  0
LINE
  8
Layer1
  6
CONTINUOUS
 62
7
 10
320.989
 20
252.177
 11
262.99
 21
252.177
  0
LINE
  8
Layer1
  6
CONTINUOUS
 62
7
 10
295.989
 20
357.177
 11
262.99
 21
357.177
  0
POLYLINE
  8
Layer1
  6
CONTINUOUS
 62
7
 66
1
 10
0
 20
0
 30
0
  0
VERTEX
  8
Layer1
 10
264.99
 20
252.177
  0
VERTEX
  8
Layer1
 10
264.99
 20
357.177
  0
SEQEND
  0
POLYLINE
  8
Layer1
  6
CONTINUOUS
 62
7
 66
1
 10
0
 20
0
 30
0
 70
1
  0
VERTEX
  8
Layer1
 10
266.025
 20
256.04
  0
VERTEX
  8
Layer1
 10
264.99
 20
252.177
  0
VERTEX
  8
Layer1
 10
263.954
 20
256.04
  0
SEQEND
  0
POLYLINE
  8
Layer1
  6
CONTINUOUS
 62
7
 66
1
 10
0
 20
0
 30
0
 70
1
  0
VERTEX
  8
Layer1
 10
263.954
 20
353.313
  0
VERTEX
  8
Layer1
 10
264.99
 20
357.177
  0
VERTEX
  8
Layer1
 10
266.025
 20
353.313
  0
SEQEND
  0
TEXT
  8
Layer1
 62
7
 10
277.49
 20
347.677
 72
1
 11
277.49
 21
347.677
 40
8
 41
1
 50
90
  1
 19 
  0
LINE
  8
Layer1
  6
CONTINUOUS
 62
7
 10
306.989
 20
338.177
 11
275.49
 21
338.177
  0
LINE
  8
Layer1
  6
CONTINUOUS
 62
7
 10
306.989
 20
357.177
 11
275.49
 21
357.177
  0
POLYLINE
  8
Layer1
  6
CONTINUOUS
 62
7
 66
1
 10
0
 20
0
 30
0
  0
VERTEX
  8
Layer1
 10
277.49
 20
338.177
  0
VERTEX
  8
Layer1
 10
277.49
 20
357.177
  0
SEQEND
  0
POLYLINE
  8
Layer1
  6
CONTINUOUS
 62
7
 66
1
 10
0
 20
0
 30
0
 70
1
  0
VERTEX
  8
Layer1
 10
278.525
 20
342.04
  0
VERTEX
  8
Layer1
 10
277.49
 20
338.177
  0
VERTEX
  8
Layer1
 10
276.454
 20
342.04
  0
SEQEND
  0
POLYLINE
  8
Layer1
  6
CONTINUOUS
 62
7
 66
1
 10
0
 20
0
 30
0
 70
1
  0
VERTEX
  8
Layer1
 10
276.454
 20
353.313
  0
VERTEX
  8
Layer1
 10
277.49
 20
357.177
  0
VERTEX
  8
Layer1
 10
278.525
 20
353.313
  0
SEQEND
  0
TEXT
  8
Layer1
 62
7
 10
502.489
 20
239.177
 72
1
 11
502.489
 21
239.177
 40
8
 41
1
 50
90
  1
 50 
  0
LINE
  8
Layer1
  6
CONTINUOUS
 62
7
 10
454.404
 20
214.177
 11
504.489
 21
214.177
  0
LINE
  8
Layer1
  6
CONTINUOUS
 62
7
 10
459.989
 20
264.177
 11
504.489
 21
264.177
  0
POLYLINE
  8
Layer1
  6
CONTINUOUS
 62
7
 66
1
 10
0
 20
0
 30
0
  0
VERTEX
  8
Layer1
 10
502.489
 20
214.177
  0
VERTEX
  8
Layer1
 10
502.489
 20
264.177
  0
SEQEND
  0
POLYLINE
  8
Layer1
  6
CONTINUOUS
 62
7
 66
1
 10
0
 20
0
 30
0
 70
1
  0
VERTEX
  8
Layer1
 10
503.525
 20
218.04
  0
VERTEX
  8
Layer1
 10
502.489
 20
214.177
  0
VERTEX
  8
Layer1
 10
501.454
 20
218.04
  0
SEQEND
  0
POLYLINE
  8
Layer1
  6
CONTINUOUS
 62
7
 66
1
 10
0
 20
0
 30
0
 70
1
  0
VERTEX
  8
Layer1
 10
501.454
 20
260.313
  0
VERTEX
  8
Layer1
 10
502.489
 20
264.177
  0
VERTEX
  8
Layer1
 10
503.525
 20
260.313
  0
SEQEND
  0
TEXT
  8
Layer1
 62
7
 10
534.217
 20
208.177
 72
1
 11
534.217
 21
208.177
 40
8
 41
1
 50
90
  1
 62 
  0
LINE
  8
Layer1
  6
CONTINUOUS
 62
7
 10
478.689
 20
239.177
 11
536.217
 21
239.177
  0
LINE
  8
Layer1
  6
CONTINUOUS
 62
7
 10
522.026
 20
177.177
 11
536.217
 21
177.177
  0
POLYLINE
  8
Layer1
  6
CONTINUOUS
 62
7
 66
1
 10
0
 20
0
 30
0
  0
VERTEX
  8
Layer1
 10
534.217
 20
239.177
  0
VERTEX
  8
Layer1
 10
534.217
 20
177.177
  0
SEQEND
  0
POLYLINE
  8
Layer1
  6
CONTINUOUS
 62
7
 66
1
 10
0
 20
0
 30
0
 70
1
  0
VERTEX
  8
Layer1
 10
533.182
 20
235.313
  0
VERTEX
  8
Layer1
 10
534.217
 20
239.177
  0
VERTEX
  8
Layer1
 10
535.253
 20
235.313
  0
SEQEND
  0
POLYLINE
  8
Layer1
  6
CONTINUOUS
 62
7
 66
1
 10
0
 20
0
 30
0
 70
1
  0
VERTEX
  8
Layer1
 10
535.253
 20
181.04
  0
VERTEX
  8
Layer1
 10
534.217
 20
177.177
  0
VERTEX
  8
Layer1
 10
533.182
 20
181.04
  0
SEQEND
  0
TEXT
  8
Layer1
 62
7
 10
548.063
 20
230.177
 72
1
 11
548.063
 21
230.177
 40
8
 41
1
 50
90
  1
106
  0
LINE
  8
Layer1
  6
CONTINUOUS
 62
7
 10
487.989
 20
283.177
 11
550.063
 21
283.177
  0
LINE
  8
Layer1
  6
CONTINUOUS
 62
7
 10
529.529
 20
177.177
 11
550.063
 21
177.177
  0
POLYLINE
  8
Layer1
  6
CONTINUOUS
 62
7
 66
1
 10
0
 20
0
 30
0
  0
VERTEX
  8
Layer1
 10
548.063
 20
283.177
  0
VERTEX
  8
Layer1
 10
548.063
 20
177.177
  0
SEQEND
  0
POLYLINE
  8
Layer1
  6
CONTINUOUS
 62
7
 66
1
 10
0
 20
0
 30
0
 70
1
  0
VERTEX
  8
Layer1
 10
547.028
 20
279.313
  0
VERTEX
  8
Layer1
 10
548.063
 20
283.177
  0
VERTEX
  8
Layer1
 10
549.098
 20
279.313
  0
SEQEND
  0
POLYLINE
  8
Layer1
  6
CONTINUOUS
 62
7
 66
1
 10
0
 20
0
 30
0
 70
1
  0
VERTEX
  8
Layer1
 10
549.098
 20
181.04
  0
VERTEX
  8
Layer1
 10
548.063
 20
177.177
  0
VERTEX
  8
Layer1
 10
547.028
 20
181.04
  0
SEQEND
  0
TEXT
  8
Layer1
 62
7
 10
879.794
 20
541.359
 72
1
 11
879.794
 21
541.359
 40
8
 41
1
 50
90
  1
 176 
  0
LINE
  8
Layer1
  6
CONTINUOUS
 62
7
 10
855.037
 20
629.359
 11
881.794
 21
629.359
  0
LINE
  8
Layer1
  6
CONTINUOUS
 62
7
 10
857.58
 20
453.359
 11
881.794
 21
453.359
  0
POLYLINE
  8
Layer1
  6
CONTINUOUS
 62
7
 66
1
 10
0
 20
0
 30
0
  0
VERTEX
  8
Layer1
 10
879.794
 20
629.359
  0
VERTEX
  8
Layer1
 10
879.794
 20
453.359
  0
SEQEND
  0
POLYLINE
  8
Layer1
  6
CONTINUOUS
 62
7
 66
1
 10
0
 20
0
 30
0
 70
1
  0
VERTEX
  8
Layer1
 10
878.759
 20
625.495
  0
VERTEX
  8
Layer1
 10
879.794
 20
629.359
  0
VERTEX
  8
Layer1
 10
880.83
 20
625.495
  0
SEQEND
  0
POLYLINE
  8
Layer1
  6
CONTINUOUS
 62
7
 66
1
 10
0
 20
0
 30
0
 70
1
  0
VERTEX
  8
Layer1
 10
880.83
 20
457.223
  0
VERTEX
  8
Layer1
 10
879.794
 20
453.359
  0
VERTEX
  8
Layer1
 10
878.759
 20
457.223
  0
SEQEND
  0
TEXT
  8
Layer1
 62
7
 10
790.78
 20
377.71
 72
1
 11
790.78
 21
377.71
 40
8
 41
1
  1
 65 
  0
LINE
  8
Layer1
  6
CONTINUOUS
 62
7
 10
758.28
 20
448.33
 11
758.28
 21
375.71
  0
LINE
  8
Layer1
  6
CONTINUOUS
 62
7
 10
823.28
 20
462.477
 11
823.28
 21
375.71
  0
POLYLINE
  8
Layer1
  6
CONTINUOUS
 62
7
 66
1
 10
0
 20
0
 30
0
  0
VERTEX
  8
Layer1
 10
758.28
 20
377.71
  0
VERTEX
  8
Layer1
 10
823.28
 20
377.71
  0
SEQEND
  0
POLYLINE
  8
Layer1
  6
CONTINUOUS
 62
7
 66
1
 10
0
 20
0
 30
0
 70
1
  0
VERTEX
  8
Layer1
 10
762.143
 20
376.674
  0
VERTEX
  8
Layer1
 10
758.28
 20
377.71
  0
VERTEX
  8
Layer1
 10
762.143
 20
378.745
  0
SEQEND
  0
POLYLINE
  8
Layer1
  6
CONTINUOUS
 62
7
 66
1
 10
0
 20
0
 30
0
 70
1
  0
VERTEX
  8
Layer1
 10
819.416
 20
378.745
  0
VERTEX
  8
Layer1
 10
823.28
 20
377.71
  0
VERTEX
  8
Layer1
 10
819.416
 20
376.674
  0
SEQEND
  0
TEXT
  8
Layer1
 62
7
 10
835.287
 20
390.471
 72
1
 11
835.287
 21
390.471
 40
8
 41
1
  1
 12.5 
  0
LINE
  8
Layer1
  6
CONTINUOUS
 62
7
 10
770.787
 20
442.815
 11
770.787
 21
388.471
  0
POLYLINE
  8
Layer1
  6
CONTINUOUS
 62
7
 66
1
 10
0
 20
0
 30
0
  0
VERTEX
  8
Layer1
 10
780.787
 20
390.471
  0
VERTEX
  8
Layer1
 10
770.787
 20
390.471
  0
SEQEND
  0
POLYLINE
  8
Layer1
  6
CONTINUOUS
 62
7
 66
1
 10
0
 20
0
 30
0
 70
1
  0
VERTEX
  8
Layer1
 10
774.651
 20
389.436
  0
VERTEX
  8
Layer1
 10
770.787
 20
390.471
  0
VERTEX
  8
Layer1
 10
774.651
 20
391.506
  0
SEQEND
  0
POLYLINE
  8
Layer1
  6
CONTINUOUS
 62
7
 66
1
 10
0
 20
0
 30
0
  0
VERTEX
  8
Layer1
 10
823.287
 20
390.471
  0
VERTEX
  8
Layer1
 10
847.542
 20
390.471
  0
SEQEND
  0
POLYLINE
  8
Layer1
  6
CONTINUOUS
 62
7
 66
1
 10
0
 20
0
 30
0
 70
1
  0
VERTEX
  8
Layer1
 10
827.151
 20
391.506
  0
VERTEX
  8
Layer1
 10
823.287
 20
390.471
  0
VERTEX
  8
Layer1
 10
827.151
 20
389.436
  0
SEQEND
  0
LINE
  8
Layer1
  6
CONTINUOUS
 62
7
 10
823.287
 20
390.471
 11
810.78
 21
390.471
  0
TEXT
  8
Layer1
 62
7
 10
790.78
 20
390.471
 72
1
 11
790.78
 21
390.471
 40
8
 41
1
  1
 40 
  0
LINE
  8
Layer1
  6
CONTINUOUS
 62
7
 10
810.78
 20
443.841
 11
810.78
 21
388.471
  0
POLYLINE
  8
Layer1
  6
CONTINUOUS
 62
7
 66
1
 10
0
 20
0
 30
0
  0
VERTEX
  8
Layer1
 10
770.78
 20
390.471
  0
VERTEX
  8
Layer1
 10
810.78
 20
390.471
  0
SEQEND
  0
POLYLINE
  8
Layer1
  6
CONTINUOUS
 62
7
 66
1
 10
0
 20
0
 30
0
 70
1
  0
VERTEX
  8
Layer1
 10
774.643
 20
389.436
  0
VERTEX
  8
Layer1
 10
770.78
 20
390.471
  0
VERTEX
  8
Layer1
 10
774.643
 20
391.506
  0
SEQEND
  0
POLYLINE
  8
Layer1
  6
CONTINUOUS
 62
7
 66
1
 10
0
 20
0
 30
0
 70
1
  0
VERTEX
  8
Layer1
 10
806.916
 20
391.506
  0
VERTEX
  8
Layer1
 10
810.78
 20
390.471
  0
VERTEX
  8
Layer1
 10
806.916
 20
389.436
  0
SEQEND
  0
TEXT
  8
Layer1
 62
7
 10
743.265
 20
692.661
 72
1
 11
743.265
 21
692.661
 40
8
 41
1
  1
 160 
  0
LINE
  8
Layer1
  6
CONTINUOUS
 62
7
 10
663.28
 20
648.359
 11
663.28
 21
694.661
  0
LINE
  8
Layer1
  6
CONTINUOUS
 62
7
 10
823.25
 20
648.359
 11
823.25
 21
694.661
  0
POLYLINE
  8
Layer1
  6
CONTINUOUS
 62
7
 66
1
 10
0
 20
0
 30
0
  0
VERTEX
  8
Layer1
 10
663.28
 20
692.661
  0
VERTEX
  8
Layer1
 10
823.25
 20
692.661
  0
SEQEND
  0
POLYLINE
  8
Layer1
  6
CONTINUOUS
 62
7
 66
1
 10
0
 20
0
 30
0
 70
1
  0
VERTEX
  8
Layer1
 10
667.143
 20
691.626
  0
VERTEX
  8
Layer1
 10
663.28
 20
692.661
  0
VERTEX
  8
Layer1
 10
667.143
 20
693.697
  0
SEQEND
  0
POLYLINE
  8
Layer1
  6
CONTINUOUS
 62
7
 66
1
 10
0
 20
0
 30
0
 70
1
  0
VERTEX
  8
Layer1
 10
819.386
 20
693.697
  0
VERTEX
  8
Layer1
 10
823.25
 20
692.661
  0
VERTEX
  8
Layer1
 10
819.386
 20
691.626
  0
SEQEND
  0
TEXT
  8
Layer1
 62
7
 10
673.28
 20
676.327
 72
1
 11
673.28
 21
676.327
 40
8
 41
1
  1
 20 
  0
LINE
  8
Layer1
  6
CONTINUOUS
 62
7
 10
683.28
 20
665.794
 11
683.28
 21
678.327
  0
POLYLINE
  8
Layer1
  6
CONTINUOUS
 62
7
 66
1
 10
0
 20
0
 30
0
  0
VERTEX
  8
Layer1
 10
683.28
 20
676.327
  0
VERTEX
  8
Layer1
 10
663.28
 20
676.327
  0
SEQEND
  0
POLYLINE
  8
Layer1
  6
CONTINUOUS
 62
7
 66
1
 10
0
 20
0
 30
0
 70
1
  0
VERTEX
  8
Layer1
 10
679.416
 20
677.362
  0
VERTEX
  8
Layer1
 10
683.28
 20
676.327
  0
VERTEX
  8
Layer1
 10
679.416
 20
675.291
  0
SEQEND
  0
POLYLINE
  8
Layer1
  6
CONTINUOUS
 62
7
 66
1
 10
0
 20
0
 30
0
 70
1
  0
VERTEX
  8
Layer1
 10
667.143
 20
675.291
  0
VERTEX
  8
Layer1
 10
663.28
 20
676.327
  0
VERTEX
  8
Layer1
 10
667.143
 20
677.362
  0
SEQEND
  0
TEXT
  8
Layer1
 62
7
 10
713.28
 20
676.327
 72
1
 11
713.28
 21
676.327
 40
8
 41
1
  1
 60 
  0
LINE
  8
Layer1
  6
CONTINUOUS
 62
7
 10
743.28
 20
663.184
 11
743.28
 21
678.327
  0
POLYLINE
  8
Layer1
  6
CONTINUOUS
 62
7
 66
1
 10
0
 20
0
 30
0
  0
VERTEX
  8
Layer1
 10
683.28
 20
676.327
  0
VERTEX
  8
Layer1
 10
743.28
 20
676.327
  0
SEQEND
  0
POLYLINE
  8
Layer1
  6
CONTINUOUS
 62
7
 66
1
 10
0
 20
0
 30
0
 70
1
  0
VERTEX
  8
Layer1
 10
687.143
 20
675.291
  0
VERTEX
  8
Layer1
 10
683.28
 20
676.327
  0
VERTEX
  8
Layer1
 10
687.143
 20
677.362
  0
SEQEND
  0
POLYLINE
  8
Layer1
  6
CONTINUOUS
 62
7
 66
1
 10
0
 20
0
 30
0
 70
1
  0
VERTEX
  8
Layer1
 10
739.416
 20
677.362
  0
VERTEX
  8
Layer1
 10
743.28
 20
676.327
  0
VERTEX
  8
Layer1
 10
739.416
 20
675.291
  0
SEQEND
  0
TEXT
  8
Layer1
 62
7
 10
773.28
 20
676.327
 72
1
 11
773.28
 21
676.327
 40
8
 41
1
  1
 60 
  0
LINE
  8
Layer1
  6
CONTINUOUS
 62
7
 10
803.28
 20
665.759
 11
803.28
 21
678.327
  0
POLYLINE
  8
Layer1
  6
CONTINUOUS
 62
7
 66
1
 10
0
 20
0
 30
0
  0
VERTEX
  8
Layer1
 10
803.28
 20
676.327
  0
VERTEX
  8
Layer1
 10
743.28
 20
676.327
  0
SEQEND
  0
POLYLINE
  8
Layer1
  6
CONTINUOUS
 62
7
 66
1
 10
0
 20
0
 30
0
 70
1
  0
VERTEX
  8
Layer1
 10
799.416
 20
677.362
  0
VERTEX
  8
Layer1
 10
803.28
 20
676.327
  0
VERTEX
  8
Layer1
 10
799.416
 20
675.291
  0
SEQEND
  0
POLYLINE
  8
Layer1
  6
CONTINUOUS
 62
7
 66
1
 10
0
 20
0
 30
0
 70
1
  0
VERTEX
  8
Layer1
 10
747.143
 20
675.291
  0
VERTEX
  8
Layer1
 10
743.28
 20
676.327
  0
VERTEX
  8
Layer1
 10
747.143
 20
677.362
  0
SEQEND
  0
TEXT
  8
Layer1
 62
7
 10
897.214
 20
541.643
 72
1
 11
897.214
 21
541.643
 40
8
 41
1
 50
90
  1
 198 
  0
LINE
  8
Layer1
  6
CONTINUOUS
 62
7
 10
848.976
 20
640.359
 11
899.783
 21
640.359
  0
LINE
  8
Layer1
  6
CONTINUOUS
 62
7
 10
844.185
 20
442.359
 11
899.783
 21
442.359
  0
POLYLINE
  8
Layer1
  6
CONTINUOUS
 62
7
 66
1
 10
0
 20
0
 30
0
  0
VERTEX
  8
Layer1
 10
897.783
 20
640.359
  0
VERTEX
  8
Layer1
 10
897.783
 20
442.359
  0
SEQEND
  0
POLYLINE
  8
Layer1
  6
CONTINUOUS
 62
7
 66
1
 10
0
 20
0
 30
0
 70
1
  0
VERTEX
  8
Layer1
 10
896.748
 20
636.495
  0
VERTEX
  8
Layer1
 10
897.783
 20
640.359
  0
VERTEX
  8
Layer1
 10
898.818
 20
636.495
  0
SEQEND
  0
POLYLINE
  8
Layer1
  6
CONTINUOUS
 62
7
 66
1
 10
0
 20
0
 30
0
 70
1
  0
VERTEX
  8
Layer1
 10
898.818
 20
446.223
  0
VERTEX
  8
Layer1
 10
897.783
 20
442.359
  0
VERTEX
  8
Layer1
 10
896.748
 20
446.223
  0
SEQEND
  0
TEXT
  8
Layer1
 62
7
 10
909.401
 20
541.359
 72
1
 11
909.401
 21
541.359
 40
8
 41
1
 50
90
  1
 225 
  0
LINE
  8
Layer1
  6
CONTINUOUS
 62
7
 10
825.511
 20
653.859
 11
911.401
 21
653.859
  0
LINE
  8
Layer1
  6
CONTINUOUS
 62
7
 10
825.511
 20
428.859
 11
911.401
 21
428.859
  0
POLYLINE
  8
Layer1
  6
CONTINUOUS
 62
7
 66
1
 10
0
 20
0
 30
0
  0
VERTEX
  8
Layer1
 10
909.401
 20
653.859
  0
VERTEX
  8
Layer1
 10
909.401
 20
428.859
  0
SEQEND
  0
POLYLINE
  8
Layer1
  6
CONTINUOUS
 62
7
 66
1
 10
0
 20
0
 30
0
 70
1
  0
VERTEX
  8
Layer1
 10
908.366
 20
649.995
  0
VERTEX
  8
Layer1
 10
909.401
 20
653.859
  0
VERTEX
  8
Layer1
 10
910.436
 20
649.995
  0
SEQEND
  0
POLYLINE
  8
Layer1
  6
CONTINUOUS
 62
7
 66
1
 10
0
 20
0
 30
0
 70
1
  0
VERTEX
  8
Layer1
 10
910.436
 20
432.723
  0
VERTEX
  8
Layer1
 10
909.401
 20
428.859
  0
VERTEX
  8
Layer1
 10
908.366
 20
432.723
  0
SEQEND
  0
TEXT
  8
Layer1
 62
7
 10
930.33
 20
541.359
 72
1
 11
930.33
 21
541.359
 40
8
 41
1
 50
90
  1
 250 
  0
LINE
  8
Layer1
  6
CONTINUOUS
 62
7
 10
805.28
 20
666.359
 11
932.33
 21
666.359
  0
LINE
  8
Layer1
  6
CONTINUOUS
 62
7
 10
805.28
 20
416.359
 11
932.33
 21
416.359
  0
POLYLINE
  8
Layer1
  6
CONTINUOUS
 62
7
 66
1
 10
0
 20
0
 30
0
  0
VERTEX
  8
Layer1
 10
930.33
 20
666.359
  0
VERTEX
  8
Layer1
 10
930.33
 20
416.359
  0
SEQEND
  0
POLYLINE
  8
Layer1
  6
CONTINUOUS
 62
7
 66
1
 10
0
 20
0
 30
0
 70
1
  0
VERTEX
  8
Layer1
 10
929.294
 20
662.495
  0
VERTEX
  8
Layer1
 10
930.33
 20
666.359
  0
VERTEX
  8
Layer1
 10
931.365
 20
662.495
  0
SEQEND
  0
POLYLINE
  8
Layer1
  6
CONTINUOUS
 62
7
 66
1
 10
0
 20
0
 30
0
 70
1
  0
VERTEX
  8
Layer1
 10
931.365
 20
420.223
  0
VERTEX
  8
Layer1
 10
930.33
 20
416.359
  0
VERTEX
  8
Layer1
 10
929.294
 20
420.223
  0
SEQEND
  0
TEXT
  8
Layer1
 62
7
 10
834.78
 20
692.661
 72
1
 11
834.78
 21
692.661
 40
8
 41
1
  1
 23 
  0
LINE
  8
Layer1
  6
CONTINUOUS
 62
7
 10
846.28
 20
639.359
 11
846.28
 21
694.661
  0
POLYLINE
  8
Layer1
  6
CONTINUOUS
 62
7
 66
1
 10
0
 20
0
 30
0
  0
VERTEX
  8
Layer1
 10
823.28
 20
692.661
  0
VERTEX
  8
Layer1
 10
846.28
 20
692.661
  0
SEQEND
  0
POLYLINE
  8
Layer1
  6
CONTINUOUS
 62
7
 66
1
 10
0
 20
0
 30
0
 70
1
  0
VERTEX
  8
Layer1
 10
827.143
 20
691.626
  0
VERTEX
  8
Layer1
 10
823.28
 20
692.661
  0
VERTEX
  8
Layer1
 10
827.143
 20
693.697
  0
SEQEND
  0
POLYLINE
  8
Layer1
  6
CONTINUOUS
 62
7
 66
1
 10
0
 20
0
 30
0
 70
1
  0
VERTEX
  8
Layer1
 10
842.416
 20
693.697
  0
VERTEX
  8
Layer1
 10
846.28
 20
692.661
  0
VERTEX
  8
Layer1
 10
842.416
 20
691.626
  0
SEQEND
  0
TEXT
  8
Layer1
 62
7
 10
541.797
 20
201.03
 72
1
 11
541.797
 21
201.03
 40
6
 41
1
 50
90
  1
(中心間距離）
  0
POLYLINE
  8
Layer1
  6
CONTINUOUS
 62
7
 66
1
 10
0
 20
0
 30
0
  0
VERTEX
  8
Layer1
 10
393.879
 20
341.066
  0
VERTEX
  8
Layer1
 10
422.216
 20
374.54
  0
VERTEX
  8
Layer1
 10
422.216
 20
374.54
  0
SEQEND
  0
POLYLINE
  8
Layer1
  6
CONTINUOUS
 62
7
 66
1
 10
0
 20
0
 30
0
 70
1
  0
VERTEX
  8
Layer1
 10
398.808
 20
344.486
  0
VERTEX
  8
Layer1
 10
393.879
 20
341.066
  0
VERTEX
  8
Layer1
 10
396.438
 20
346.493
  0
SEQEND
  0
LINE
  8
Layer1
  6
CONTINUOUS
 62
7
 10
422.216
 20
374.54
 11
470.216
 21
374.54
  0
TEXT
  8
Layer1
 62
7
 10
470.216
 20
374.54
 72
2
 11
470.216
 21
374.54
 40
6
 41
1
  1
φ11オイル注入口
  0
POLYLINE
  8
Layer1
  6
CONTINUOUS
 62
7
 66
1
 10
0
 20
0
 30
0
  0
VERTEX
  8
Layer1
 10
679.391
 20
657.748
  0
VERTEX
  8
Layer1
 10
648.926
 20
685.461
  0
VERTEX
  8
Layer1
 10
648.926
 20
685.461
  0
SEQEND
  0
POLYLINE
  8
Layer1
  6
CONTINUOUS
 62
7
 66
1
 10
0
 20
0
 30
0
 70
1
  0
VERTEX
  8
Layer1
 10
677.229
 20
661.114
  0
VERTEX
  8
Layer1
 10
679.391
 20
657.748
  0
VERTEX
  8
Layer1
 10
675.836
 20
659.582
  0
SEQEND
  0
LINE
  8
Layer1
  6
CONTINUOUS
 62
7
 10
648.926
 20
685.461
 11
630.926
 21
685.461
  0
TEXT
  8
Layer1
 62
7
 10
630.926
 20
687.461
 40
6
 41
1
  1
6-φ11
  0
TEXT
  8
Layer1
 62
7
 10
615.625
 20
671.825
 40
6
 41
1
  1
ベース取付穴
  0
TEXT
  8
Layer1
 62
7
 10
866.737
 20
670.641
 40
6
 41
1
  1
アッパー取付穴
  0
POLYLINE
  8
Layer1
  6
CONTINUOUS
 62
7
 66
1
 10
0
 20
0
 30
0
  0
VERTEX
  8
Layer1
 10
814.706
 20
628.248
  0
VERTEX
  8
Layer1
 10
869.518
 20
680.715
  0
VERTEX
  8
Layer1
 10
869.518
 20
680.715
  0
SEQEND
  0
POLYLINE
  8
Layer1
  6
CONTINUOUS
 62
7
 66
1
 10
0
 20
0
 30
0
 70
1
  0
VERTEX
  8
Layer1
 10
818.213
 20
630.172
  0
VERTEX
  8
Layer1
 10
814.706
 20
628.248
  0
VERTEX
  8
Layer1
 10
816.781
 20
631.668
  0
SEQEND
  0
LINE
  8
Layer1
  6
CONTINUOUS
 62
7
 10
869.518
 20
680.715
 11
887.518
 21
680.715
  0
TEXT
  8
Layer1
 62
7
 10
887.518
 20
682.715
 72
2
 11
887.518
 21
682.715
 40
6
 41
1
  1
4-φ11
  0
LINE
  8
Layer1
  6
CENTER1
 62
7
 10
709.843
 20
456.188
 11
709.843
 21
450.436
  0
LINE
  8
Layer1
  6
CENTER1
 62
7
 10
707.572
 20
453.271
 11
712.763
 21
453.271
  0
CIRCLE
  8
Layer1
  6
CONTINUOUS
 62
7
 10
709.843
 20
453.271
 40
1.25
  0
LINE
  8
Layer1
  6
CENTER1
 62
7
 10
709.219
 20
632.297
 11
709.219
 21
626.545
  0
LINE
  8
Layer1
  6
CENTER1
 62
7
 10
706.948
 20
629.38
 11
712.139
 21
629.38
  0
CIRCLE
  8
Layer1
  6
CONTINUOUS
 62
7
 10
709.219
 20
629.38
 40
1.25
  0
TEXT
  8
Layer1
 62
7
 10
525.82
 20
189.677
 72
1
 11
525.82
 21
189.677
 40
8
 41
1
 50
90
  1
 25 
  0
LINE
  8
Layer1
  6
CONTINUOUS
 62
7
 10
514.588
 20
202.177
 11
527.82
 21
202.177
  0
LINE
  8
Layer1
  6
CONTINUOUS
 62
7
 10
511.338
 20
177.177
 11
527.82
 21
177.177
  0
POLYLINE
  8
Layer1
  6
CONTINUOUS
 62
7
 66
1
 10
0
 20
0
 30
0
  0
VERTEX
  8
Layer1
 10
525.82
 20
202.177
  0
VERTEX
  8
Layer1
 10
525.82
 20
177.177
  0
SEQEND
  0
POLYLINE
  8
Layer1
  6
CONTINUOUS
 62
7
 66
1
 10
0
 20
0
 30
0
 70
1
  0
VERTEX
  8
Layer1
 10
524.785
 20
198.313
  0
VERTEX
  8
Layer1
 10
525.82
 20
202.177
  0
VERTEX
  8
Layer1
 10
526.855
 20
198.313
  0
SEQEND
  0
POLYLINE
  8
Layer1
  6
CONTINUOUS
 62
7
 66
1
 10
0
 20
0
 30
0
 70
1
  0
VERTEX
  8
Layer1
 10
526.855
 20
181.04
  0
VERTEX
  8
Layer1
 10
525.82
 20
177.177
  0
VERTEX
  8
Layer1
 10
524.785
 20
181.04
  0
SEQEND
  0
CIRCLE
  8
Layer1
  6
CONTINUOUS
 62
7
 10
683.28
 20
428.859
 40
5.5
  0
CIRCLE
  8
Layer1
  6
DASHED1
 62
7
 10
770.78
 20
624.359
 40
8.25
  0
CIRCLE
  8
Layer1
  6
DASHED1
 62
7
 10
810.787
 20
624.359
 40
8.25
  0
CIRCLE
  8
Layer1
  6
DASHED1
 62
7
 10
770.78
 20
458.359
 40
8.25
  0
CIRCLE
  8
Layer1
  6
DASHED1
 62
7
 10
810.78
 20
458.359
 40
8.25
  0
CIRCLE
  8
Layer1
  6
CONTINUOUS
 62
7
 10
683.28
 20
428.859
 40
8.75
  0
CIRCLE
  8
Layer1
  6
CONTINUOUS
 62
7
 10
743.28
 20
428.859
 40
8.75
  0
CIRCLE
  8
Layer1
  6
CONTINUOUS
 62
7
 10
803.28
 20
428.859
 40
8.75
  0
CIRCLE
  8
Layer1
  6
CONTINUOUS
 62
7
 10
803.28
 20
653.859
 40
8.75
  0
CIRCLE
  8
Layer1
  6
CONTINUOUS
 62
7
 10
743.28
 20
653.859
 40
8.75
  0
CIRCLE
  8
Layer1
  6
CONTINUOUS
 62
7
 10
683.28
 20
653.859
 40
8.75
  0
LINE
  8
Layer1
  6
CONTINUOUS
 62
7
 10
707.273
 20
283.177
 11
707.273
 21
274.977
  0
LINE
  8
Layer1
  6
CONTINUOUS
 62
7
 10
706.732
 20
283.19
 11
706.732
 21
274.977
  0
LINE
  8
Layer1
  6
CENTER2
 62
7
 10
629.226
 20
239.177
 11
853.522
 21
239.177
  0
LINE
  8
Layer1
  6
PHANTOM1
 62
7
 10
799.369
 20
184.697
 11
799.369
 21
190.187
  0
LINE
  8
Layer1
  6
CONTINUOUS
 62
7
 10
705.411
 20
292.347
 11
714.314
 21
292.347
  0
LINE
  8
Layer1
  6
CONTINUOUS
 62
7
 10
705.411
 20
290.032
 11
713.245
 21
290.032
  0
LINE
  8
Layer1
  6
CONTINUOUS
 62
7
 10
714.314
 20
292.347
 11
715.738
 21
290.685
  0
LINE
  8
Layer1
  6
CONTINUOUS
 62
7
 10
715.738
 20
290.032
 11
715.738
 21
290.685
  0
POLYLINE
  8
Layer1
  6
CONTINUOUS
 62
7
 66
1
 10
0
 20
0
 30
0
  0
VERTEX
  8
Layer1
 10
713.245
 20
290.032
  0
VERTEX
  8
Layer1
 10
713.247
 20
289.95
  0
VERTEX
  8
Layer1
 10
713.254
 20
289.868
  0
VERTEX
  8
Layer1
 10
713.267
 20
289.787
  0
VERTEX
  8
Layer1
 10
713.285
 20
289.707
  0
VERTEX
  8
Layer1
 10
713.308
 20
289.628
  0
VERTEX
  8
Layer1
 10
713.336
 20
289.551
  0
VERTEX
  8
Layer1
 10
713.37
 20
289.476
  0
VERTEX
  8
Layer1
 10
713.408
 20
289.403
  0
VERTEX
  8
Layer1
 10
713.451
 20
289.333
  0
VERTEX
  8
Layer1
 10
713.498
 20
289.266
  0
VERTEX
  8
Layer1
 10
713.55
 20
289.203
  0
VERTEX
  8
Layer1
 10
713.606
 20
289.142
  0
VERTEX
  8
Layer1
 10
713.665
 20
289.086
  0
VERTEX
  8
Layer1
 10
713.729
 20
289.034
  0
VERTEX
  8
Layer1
 10
713.795
 20
288.985
  0
VERTEX
  8
Layer1
 10
713.865
 20
288.942
  0
VERTEX
  8
Layer1
 10
713.937
 20
288.903
  0
VERTEX
  8
Layer1
 10
714.012
 20
288.869
  0
VERTEX
  8
Layer1
 10
714.088
 20
288.84
  0
VERTEX
  8
Layer1
 10
714.167
 20
288.816
  0
VERTEX
  8
Layer1
 10
714.247
 20
288.797
  0
VERTEX
  8
Layer1
 10
714.328
 20
288.784
  0
VERTEX
  8
Layer1
 10
714.41
 20
288.775
  0
VERTEX
  8
Layer1
 10
714.492
 20
288.773
  0
VERTEX
  8
Layer1
 10
714.574
 20
288.775
  0
VERTEX
  8
Layer1
 10
714.655
 20
288.784
  0
VERTEX
  8
Layer1
 10
714.736
 20
288.797
  0
VERTEX
  8
Layer1
 10
714.816
 20
288.816
  0
VERTEX
  8
Layer1
 10
714.895
 20
288.84
  0
VERTEX
  8
Layer1
 10
714.972
 20
288.869
  0
VERTEX
  8
Layer1
 10
715.046
 20
288.903
  0
VERTEX
  8
Layer1
 10
715.118
 20
288.942
  0
VERTEX
  8
Layer1
 10
715.188
 20
288.985
  0
VERTEX
  8
Layer1
 10
715.255
 20
289.034
  0
VERTEX
  8
Layer1
 10
715.318
 20
289.086
  0
VERTEX
  8
Layer1
 10
715.377
 20
289.142
  0
VERTEX
  8
Layer1
 10
715.433
 20
289.203
  0
VERTEX
  8
Layer1
 10
715.485
 20
289.266
  0
VERTEX
  8
Layer1
 10
715.532
 20
289.333
  0
VERTEX
  8
Layer1
 10
715.575
 20
289.403
  0
VERTEX
  8
Layer1
 10
715.613
 20
289.476
  0
VERTEX
  8
Layer1
 10
715.647
 20
289.551
  0
VERTEX
  8
Layer1
 10
715.675
 20
289.628
  0
VERTEX
  8
Layer1
 10
715.698
 20
289.707
  0
VERTEX
  8
Layer1
 10
715.716
 20
289.787
  0
VERTEX
  8
Layer1
 10
715.729
 20
289.868
  0
VERTEX
  8
Layer1
 10
715.736
 20
289.95
  0
VERTEX
  8
Layer1
 10
715.738
 20
290.032
  0
SEQEND
  0
LINE
  8
Layer1
  6
CONTINUOUS
 62
7
 10
705.411
 20
292.347
 11
702.997
 21
289.818
  0
LINE
  8
Layer1
  6
CONTINUOUS
 62
7
 10
705.411
 20
290.032
 11
703.986
 21
288.786
  0
POLYLINE
  8
Layer1
  6
CONTINUOUS
 62
7
 66
1
 10
0
 20
0
 30
0
  0
VERTEX
  8
Layer1
 10
702.997
 20
289.818
  0
VERTEX
  8
Layer1
 10
702.967
 20
289.784
  0
VERTEX
  8
Layer1
 10
702.939
 20
289.749
  0
VERTEX
  8
Layer1
 10
702.913
 20
289.711
  0
VERTEX
  8
Layer1
 10
702.89
 20
289.672
  0
VERTEX
  8
Layer1
 10
702.869
 20
289.632
  0
VERTEX
  8
Layer1
 10
702.851
 20
289.59
  0
VERTEX
  8
Layer1
 10
702.835
 20
289.547
  0
VERTEX
  8
Layer1
 10
702.822
 20
289.504
  0
VERTEX
  8
Layer1
 10
702.812
 20
289.459
  0
VERTEX
  8
Layer1
 10
702.805
 20
289.414
  0
VERTEX
  8
Layer1
 10
702.801
 20
289.369
  0
VERTEX
  8
Layer1
 10
702.799
 20
289.324
  0
VERTEX
  8
Layer1
 10
702.801
 20
289.278
  0
VERTEX
  8
Layer1
 10
702.805
 20
289.233
  0
VERTEX
  8
Layer1
 10
702.812
 20
289.188
  0
VERTEX
  8
Layer1
 10
702.823
 20
289.144
  0
VERTEX
  8
Layer1
 10
702.835
 20
289.1
  0
VERTEX
  8
Layer1
 10
702.851
 20
289.057
  0
VERTEX
  8
Layer1
 10
702.869
 20
289.016
  0
VERTEX
  8
Layer1
 10
702.89
 20
288.975
  0
VERTEX
  8
Layer1
 10
702.914
 20
288.936
  0
VERTEX
  8
Layer1
 10
702.94
 20
288.899
  0
VERTEX
  8
Layer1
 10
702.968
 20
288.863
  0
VERTEX
  8
Layer1
 10
702.998
 20
288.829
  0
VERTEX
  8
Layer1
 10
703.031
 20
288.797
  0
VERTEX
  8
Layer1
 10
703.065
 20
288.768
  0
VERTEX
  8
Layer1
 10
703.101
 20
288.74
  0
VERTEX
  8
Layer1
 10
703.139
 20
288.715
  0
VERTEX
  8
Layer1
 10
703.179
 20
288.692
  0
VERTEX
  8
Layer1
 10
703.22
 20
288.672
  0
VERTEX
  8
Layer1
 10
703.262
 20
288.655
  0
VERTEX
  8
Layer1
 10
703.305
 20
288.64
  0
VERTEX
  8
Layer1
 10
703.348
 20
288.628
  0
VERTEX
  8
Layer1
 10
703.393
 20
288.619
  0
VERTEX
  8
Layer1
 10
703.438
 20
288.613
  0
VERTEX
  8
Layer1
 10
703.483
 20
288.609
  0
VERTEX
  8
Layer1
 10
703.529
 20
288.609
  0
VERTEX
  8
Layer1
 10
703.574
 20
288.611
  0
VERTEX
  8
Layer1
 10
703.62
 20
288.616
  0
VERTEX
  8
Layer1
 10
703.664
 20
288.624
  0
VERTEX
  8
Layer1
 10
703.709
 20
288.635
  0
VERTEX
  8
Layer1
 10
703.752
 20
288.649
  0
VERTEX
  8
Layer1
 10
703.794
 20
288.665
  0
VERTEX
  8
Layer1
 10
703.836
 20
288.684
  0
VERTEX
  8
Layer1
 10
703.876
 20
288.706
  0
VERTEX
  8
Layer1
 10
703.914
 20
288.73
  0
VERTEX
  8
Layer1
 10
703.951
 20
288.757
  0
VERTEX
  8
Layer1
 10
703.986
 20
288.786
  0
SEQEND
  0
LINE
  8
Layer1
  6
CONTINUOUS
 62
7
 10
706.732
 20
290.032
 11
706.732
 21
286.909
  0
LINE
  8
Layer1
  6
CONTINUOUS
 62
7
 10
712.642
 20
290.032
 11
712.642
 21
286.909
  0
LINE
  8
Layer1
  6
CONTINUOUS
 62
7
 10
707.538
 20
275.756
 11
711.926
 21
275.756
  0
LINE
  8
Layer1
  6
CONTINUOUS
 62
7
 10
706.732
 20
276.305
 11
712.732
 21
276.305
  0
LINE
  8
Layer1
  6
CONTINUOUS
 62
7
 10
707.538
 20
275.756
 11
706.732
 21
276.305
  0
LINE
  8
Layer1
  6
CONTINUOUS
 62
7
 10
711.926
 20
275.756
 11
712.732
 21
276.305
  0
LINE
  8
Layer1
  6
CONTINUOUS
 62
7
 10
714.843
 20
283.177
 11
714.843
 21
286.264
  0
LINE
  8
Layer1
  6
CONTINUOUS
 62
7
 10
714.843
 20
286.264
 11
713.724
 21
286.909
  0
LINE
  8
Layer1
  6
CONTINUOUS
 62
7
 10
713.724
 20
286.909
 11
705.822
 21
286.909
  0
LINE
  8
Layer1
  6
CONTINUOUS
 62
7
 10
705.822
 20
286.909
 11
704.704
 21
286.264
  0
LINE
  8
Layer1
  6
CONTINUOUS
 62
7
 10
704.704
 20
286.264
 11
704.704
 21
283.177
  0
LINE
  8
Layer1
  6
CONTINUOUS
 62
7
 10
712.307
 20
283.177
 11
712.307
 21
286.264
  0
LINE
  8
Layer1
  6
CONTINUOUS
 62
7
 10
707.239
 20
283.177
 11
707.239
 21
286.264
  0
POLYLINE
  8
Layer1
  6
CONTINUOUS
 62
7
 66
1
 10
0
 20
0
 30
0
  0
VERTEX
  8
Layer1
 10
712.308
 20
286.263
  0
VERTEX
  8
Layer1
 10
712.205
 20
286.295
  0
VERTEX
  8
Layer1
 10
712.103
 20
286.326
  0
VERTEX
  8
Layer1
 10
711.999
 20
286.355
  0
VERTEX
  8
Layer1
 10
711.896
 20
286.382
  0
VERTEX
  8
Layer1
 10
711.792
 20
286.409
  0
VERTEX
  8
Layer1
 10
711.687
 20
286.434
  0
VERTEX
  8
Layer1
 10
711.583
 20
286.458
  0
VERTEX
  8
Layer1
 10
711.478
 20
286.48
  0
VERTEX
  8
Layer1
 10
711.373
 20
286.502
  0
VERTEX
  8
Layer1
 10
711.267
 20
286.521
  0
VERTEX
  8
Layer1
 10
711.162
 20
286.54
  0
VERTEX
  8
Layer1
 10
711.056
 20
286.557
  0
VERTEX
  8
Layer1
 10
710.949
 20
286.573
  0
VERTEX
  8
Layer1
 10
710.843
 20
286.587
  0
VERTEX
  8
Layer1
 10
710.737
 20
286.6
  0
VERTEX
  8
Layer1
 10
710.63
 20
286.612
  0
VERTEX
  8
Layer1
 10
710.523
 20
286.622
  0
VERTEX
  8
Layer1
 10
710.416
 20
286.631
  0
VERTEX
  8
Layer1
 10
710.309
 20
286.638
  0
VERTEX
  8
Layer1
 10
710.202
 20
286.644
  0
VERTEX
  8
Layer1
 10
710.095
 20
286.649
  0
VERTEX
  8
Layer1
 10
709.988
 20
286.653
  0
VERTEX
  8
Layer1
 10
709.88
 20
286.655
  0
VERTEX
  8
Layer1
 10
709.773
 20
286.655
  0
VERTEX
  8
Layer1
 10
709.666
 20
286.655
  0
VERTEX
  8
Layer1
 10
709.559
 20
286.653
  0
VERTEX
  8
Layer1
 10
709.451
 20
286.649
  0
VERTEX
  8
Layer1
 10
709.344
 20
286.644
  0
VERTEX
  8
Layer1
 10
709.237
 20
286.638
  0
VERTEX
  8
Layer1
 10
709.13
 20
286.631
  0
VERTEX
  8
Layer1
 10
709.023
 20
286.622
  0
VERTEX
  8
Layer1
 10
708.916
 20
286.612
  0
VERTEX
  8
Layer1
 10
708.81
 20
286.6
  0
VERTEX
  8
Layer1
 10
708.703
 20
286.587
  0
VERTEX
  8
Layer1
 10
708.597
 20
286.573
  0
VERTEX
  8
Layer1
 10
708.491
 20
286.557
  0
VERTEX
  8
Layer1
 10
708.385
 20
286.54
  0
VERTEX
  8
Layer1
 10
708.279
 20
286.521
  0
VERTEX
  8
Layer1
 10
708.174
 20
286.502
  0
VERTEX
  8
Layer1
 10
708.068
 20
286.48
  0
VERTEX
  8
Layer1
 10
707.963
 20
286.458
  0
VERTEX
  8
Layer1
 10
707.859
 20
286.434
  0
VERTEX
  8
Layer1
 10
707.755
 20
286.409
  0
VERTEX
  8
Layer1
 10
707.651
 20
286.382
  0
VERTEX
  8
Layer1
 10
707.547
 20
286.355
  0
VERTEX
  8
Layer1
 10
707.444
 20
286.326
  0
VERTEX
  8
Layer1
 10
707.341
 20
286.295
  0
VERTEX
  8
Layer1
 10
707.238
 20
286.263
  0
SEQEND
  0
POLYLINE
  8
Layer1
  6
CONTINUOUS
 62
7
 66
1
 10
0
 20
0
 30
0
  0
VERTEX
  8
Layer1
 10
714.843
 20
286.263
  0
VERTEX
  8
Layer1
 10
714.796
 20
286.294
  0
VERTEX
  8
Layer1
 10
714.748
 20
286.324
  0
VERTEX
  8
Layer1
 10
714.7
 20
286.353
  0
VERTEX
  8
Layer1
 10
714.651
 20
286.381
  0
VERTEX
  8
Layer1
 10
714.602
 20
286.407
  0
VERTEX
  8
Layer1
 10
714.551
 20
286.432
  0
VERTEX
  8
Layer1
 10
714.501
 20
286.456
  0
VERTEX
  8
Layer1
 10
714.449
 20
286.478
  0
VERTEX
  8
Layer1
 10
714.397
 20
286.499
  0
VERTEX
  8
Layer1
 10
714.345
 20
286.519
  0
VERTEX
  8
Layer1
 10
714.292
 20
286.538
  0
VERTEX
  8
Layer1
 10
714.238
 20
286.555
  0
VERTEX
  8
Layer1
 10
714.185
 20
286.571
  0
VERTEX
  8
Layer1
 10
714.13
 20
286.586
  0
VERTEX
  8
Layer1
 10
714.076
 20
286.599
  0
VERTEX
  8
Layer1
 10
714.021
 20
286.611
  0
VERTEX
  8
Layer1
 10
713.966
 20
286.621
  0
VERTEX
  8
Layer1
 10
713.911
 20
286.63
  0
VERTEX
  8
Layer1
 10
713.855
 20
286.638
  0
VERTEX
  8
Layer1
 10
713.799
 20
286.644
  0
VERTEX
  8
Layer1
 10
713.743
 20
286.649
  0
VERTEX
  8
Layer1
 10
713.687
 20
286.653
  0
VERTEX
  8
Layer1
 10
713.631
 20
286.655
  0
VERTEX
  8
Layer1
 10
713.575
 20
286.655
  0
VERTEX
  8
Layer1
 10
713.519
 20
286.655
  0
VERTEX
  8
Layer1
 10
713.463
 20
286.653
  0
VERTEX
  8
Layer1
 10
713.407
 20
286.649
  0
VERTEX
  8
Layer1
 10
713.351
 20
286.644
  0
VERTEX
  8
Layer1
 10
713.295
 20
286.638
  0
VERTEX
  8
Layer1
 10
713.24
 20
286.63
  0
VERTEX
  8
Layer1
 10
713.184
 20
286.621
  0
VERTEX
  8
Layer1
 10
713.129
 20
286.611
  0
VERTEX
  8
Layer1
 10
713.074
 20
286.599
  0
VERTEX
  8
Layer1
 10
713.02
 20
286.586
  0
VERTEX
  8
Layer1
 10
712.965
 20
286.571
  0
VERTEX
  8
Layer1
 10
712.912
 20
286.555
  0
VERTEX
  8
Layer1
 10
712.858
 20
286.538
  0
VERTEX
  8
Layer1
 10
712.805
 20
286.519
  0
VERTEX
  8
Layer1
 10
712.753
 20
286.499
  0
VERTEX
  8
Layer1
 10
712.701
 20
286.478
  0
VERTEX
  8
Layer1
 10
712.649
 20
286.456
  0
VERTEX
  8
Layer1
 10
712.599
 20
286.432
  0
VERTEX
  8
Layer1
 10
712.548
 20
286.407
  0
VERTEX
  8
Layer1
 10
712.499
 20
286.381
  0
VERTEX
  8
Layer1
 10
712.45
 20
286.353
  0
VERTEX
  8
Layer1
 10
712.402
 20
286.324
  0
VERTEX
  8
Layer1
 10
712.354
 20
286.294
  0
VERTEX
  8
Layer1
 10
712.307
 20
286.263
  0
SEQEND
  0
POLYLINE
  8
Layer1
  6
CONTINUOUS
 62
7
 66
1
 10
0
 20
0
 30
0
  0
VERTEX
  8
Layer1
 10
707.239
 20
286.263
  0
VERTEX
  8
Layer1
 10
707.192
 20
286.294
  0
VERTEX
  8
Layer1
 10
707.145
 20
286.324
  0
VERTEX
  8
Layer1
 10
707.096
 20
286.353
  0
VERTEX
  8
Layer1
 10
707.047
 20
286.381
  0
VERTEX
  8
Layer1
 10
706.998
 20
286.407
  0
VERTEX
  8
Layer1
 10
706.948
 20
286.432
  0
VERTEX
  8
Layer1
 10
706.897
 20
286.456
  0
VERTEX
  8
Layer1
 10
706.845
 20
286.478
  0
VERTEX
  8
Layer1
 10
706.793
 20
286.499
  0
VERTEX
  8
Layer1
 10
706.741
 20
286.519
  0
VERTEX
  8
Layer1
 10
706.688
 20
286.538
  0
VERTEX
  8
Layer1
 10
706.635
 20
286.555
  0
VERTEX
  8
Layer1
 10
706.581
 20
286.571
  0
VERTEX
  8
Layer1
 10
706.527
 20
286.586
  0
VERTEX
  8
Layer1
 10
706.472
 20
286.599
  0
VERTEX
  8
Layer1
 10
706.417
 20
286.611
  0
VERTEX
  8
Layer1
 10
706.362
 20
286.621
  0
VERTEX
  8
Layer1
 10
706.307
 20
286.63
  0
VERTEX
  8
Layer1
 10
706.251
 20
286.638
  0
VERTEX
  8
Layer1
 10
706.195
 20
286.644
  0
VERTEX
  8
Layer1
 10
706.139
 20
286.649
  0
VERTEX
  8
Layer1
 10
706.083
 20
286.653
  0
VERTEX
  8
Layer1
 10
706.027
 20
286.655
  0
VERTEX
  8
Layer1
 10
705.971
 20
286.655
  0
VERTEX
  8
Layer1
 10
705.915
 20
286.655
  0
VERTEX
  8
Layer1
 10
705.859
 20
286.653
  0
VERTEX
  8
Layer1
 10
705.803
 20
286.649
  0
VERTEX
  8
Layer1
 10
705.747
 20
286.644
  0
VERTEX
  8
Layer1
 10
705.691
 20
286.638
  0
VERTEX
  8
Layer1
 10
705.636
 20
286.63
  0
VERTEX
  8
Layer1
 10
705.58
 20
286.621
  0
VERTEX
  8
Layer1
 10
705.525
 20
286.611
  0
VERTEX
  8
Layer1
 10
705.47
 20
286.599
  0
VERTEX
  8
Layer1
 10
705.416
 20
286.586
  0
VERTEX
  8
Layer1
 10
705.362
 20
286.571
  0
VERTEX
  8
Layer1
 10
705.308
 20
286.555
  0
VERTEX
  8
Layer1
 10
705.254
 20
286.538
  0
VERTEX
  8
Layer1
 10
705.201
 20
286.519
  0
VERTEX
  8
Layer1
 10
705.149
 20
286.499
  0
VERTEX
  8
Layer1
 10
705.097
 20
286.478
  0
VERTEX
  8
Layer1
 10
705.046
 20
286.456
  0
VERTEX
  8
Layer1
 10
704.995
 20
286.432
  0
VERTEX
  8
Layer1
 10
704.945
 20
286.407
  0
VERTEX
  8
Layer1
 10
704.895
 20
286.381
  0
VERTEX
  8
Layer1
 10
704.846
 20
286.353
  0
VERTEX
  8
Layer1
 10
704.798
 20
286.324
  0
VERTEX
  8
Layer1
 10
704.75
 20
286.294
  0
VERTEX
  8
Layer1
 10
704.704
 20
286.263
  0
SEQEND
  0
POLYLINE
  8
Layer1
  6
CONTINUOUS
 62
7
 66
1
 10
0
 20
0
 30
0
 70
1
  0
VERTEX
  8
Layer1
 10
715.038
 20
290.019
  0
VERTEX
  8
Layer1
 10
715.033
 20
290.09
  0
VERTEX
  8
Layer1
 10
715.019
 20
290.161
  0
VERTEX
  8
Layer1
 10
714.996
 20
290.228
  0
VERTEX
  8
Layer1
 10
714.964
 20
290.292
  0
VERTEX
  8
Layer1
 10
714.925
 20
290.352
  0
VERTEX
  8
Layer1
 10
714.878
 20
290.405
  0
VERTEX
  8
Layer1
 10
714.824
 20
290.452
  0
VERTEX
  8
Layer1
 10
714.765
 20
290.492
  0
VERTEX
  8
Layer1
 10
714.701
 20
290.524
  0
VERTEX
  8
Layer1
 10
714.633
 20
290.547
  0
VERTEX
  8
Layer1
 10
714.563
 20
290.561
  0
VERTEX
  8
Layer1
 10
714.492
 20
290.565
  0
VERTEX
  8
Layer1
 10
714.42
 20
290.561
  0
VERTEX
  8
Layer1
 10
714.35
 20
290.547
  0
VERTEX
  8
Layer1
 10
714.283
 20
290.524
  0
VERTEX
  8
Layer1
 10
714.219
 20
290.492
  0
VERTEX
  8
Layer1
 10
714.159
 20
290.452
  0
VERTEX
  8
Layer1
 10
714.105
 20
290.405
  0
VERTEX
  8
Layer1
 10
714.058
 20
290.352
  0
VERTEX
  8
Layer1
 10
714.019
 20
290.292
  0
VERTEX
  8
Layer1
 10
713.987
 20
290.228
  0
VERTEX
  8
Layer1
 10
713.964
 20
290.161
  0
VERTEX
  8
Layer1
 10
713.95
 20
290.09
  0
VERTEX
  8
Layer1
 10
713.946
 20
290.019
  0
VERTEX
  8
Layer1
 10
713.95
 20
289.948
  0
VERTEX
  8
Layer1
 10
713.964
 20
289.878
  0
VERTEX
  8
Layer1
 10
713.987
 20
289.81
  0
VERTEX
  8
Layer1
 10
714.019
 20
289.746
  0
VERTEX
  8
Layer1
 10
714.058
 20
289.687
  0
VERTEX
  8
Layer1
 10
714.105
 20
289.633
  0
VERTEX
  8
Layer1
 10
714.159
 20
289.586
  0
VERTEX
  8
Layer1
 10
714.219
 20
289.546
  0
VERTEX
  8
Layer1
 10
714.283
 20
289.515
  0
VERTEX
  8
Layer1
 10
714.35
 20
289.492
  0
VERTEX
  8
Layer1
 10
714.42
 20
289.478
  0
VERTEX
  8
Layer1
 10
714.492
 20
289.473
  0
VERTEX
  8
Layer1
 10
714.563
 20
289.478
  0
VERTEX
  8
Layer1
 10
714.633
 20
289.492
  0
VERTEX
  8
Layer1
 10
714.701
 20
289.515
  0
VERTEX
  8
Layer1
 10
714.765
 20
289.546
  0
VERTEX
  8
Layer1
 10
714.824
 20
289.586
  0
VERTEX
  8
Layer1
 10
714.878
 20
289.633
  0
VERTEX
  8
Layer1
 10
714.925
 20
289.687
  0
VERTEX
  8
Layer1
 10
714.964
 20
289.746
  0
VERTEX
  8
Layer1
 10
714.996
 20
289.81
  0
VERTEX
  8
Layer1
 10
715.019
 20
289.878
  0
VERTEX
  8
Layer1
 10
715.033
 20
289.948
  0
SEQEND
  0
LINE
  8
Layer1
  6
CONTINUOUS
 62
7
 10
706.732
 20
272.177
 11
706.732
 21
280.177
  0
LINE
  8
Layer1
  6
CONTINUOUS
 62
7
 10
712.732
 20
272.177
 11
712.732
 21
283.185
  0
LINE
  8
Layer1
  6
CONTINUOUS
 62
7
 10
704.704
 20
283.177
 11
714.843
 21
283.177
  0
LINE
  8
Layer1
  6
CONTINUOUS
 62
7
 10
787.585
 20
184.697
 11
790.413
 21
184.697
  0
LINE
  8
Layer1
  6
CONTINUOUS
 62
7
 10
785.7
 20
201.174
 11
788.528
 21
201.174
  0
LINE
  8
Layer1
  6
CONTINUOUS
 62
7
 10
787.585
 20
190.208
 11
790.413
 21
190.208
  0
LINE
  8
Layer1
  6
CONTINUOUS
 62
7
 10
788.528
 20
206.657
 11
788.528
 21
201.174
  0
LINE
  8
Layer1
  6
CONTINUOUS
 62
7
 10
785.7
 20
206.657
 11
785.7
 21
201.174
  0
LINE
  8
Layer1
  6
CONTINUOUS
 62
7
 10
787.585
 20
190.208
 11
787.585
 21
184.697
  0
LINE
  8
Layer1
  6
CONTINUOUS
 62
7
 10
790.413
 20
190.208
 11
790.413
 21
184.697
  0
LINE
  8
Layer1
  6
CONTINUOUS
 62
7
 10
785.7
 20
201.174
 11
787.585
 21
190.208
  0
LINE
  8
Layer1
  6
CONTINUOUS
 62
7
 10
788.528
 20
201.174
 11
790.413
 21
190.208
  0
LINE
  8
Layer1
  6
CONTINUOUS
 62
7
 10
786.642
 20
195.691
 11
787.585
 21
184.697
  0
LINE
  8
Layer1
  6
CONTINUOUS
 62
7
 10
788.763
 20
206.657
 11
789.47
 21
195.691
  0
LINE
  8
Layer1
  6
CONTINUOUS
 62
7
 10
776.272
 20
184.697
 11
779.1
 21
184.697
  0
LINE
  8
Layer1
  6
CONTINUOUS
 62
7
 10
777.215
 20
206.657
 11
774.387
 21
206.657
  0
LINE
  8
Layer1
  6
CONTINUOUS
 62
7
 10
774.387
 20
201.174
 11
777.215
 21
201.174
  0
LINE
  8
Layer1
  6
CONTINUOUS
 62
7
 10
776.272
 20
190.208
 11
779.1
 21
190.208
  0
LINE
  8
Layer1
  6
CONTINUOUS
 62
7
 10
777.215
 20
206.657
 11
777.215
 21
201.174
  0
LINE
  8
Layer1
  6
CONTINUOUS
 62
7
 10
774.387
 20
206.657
 11
774.387
 21
201.174
  0
LINE
  8
Layer1
  6
CONTINUOUS
 62
7
 10
776.272
 20
190.208
 11
776.272
 21
184.697
  0
LINE
  8
Layer1
  6
CONTINUOUS
 62
7
 10
779.1
 20
190.208
 11
779.1
 21
184.697
  0
LINE
  8
Layer1
  6
CONTINUOUS
 62
7
 10
774.387
 20
201.174
 11
776.272
 21
190.208
  0
LINE
  8
Layer1
  6
CONTINUOUS
 62
7
 10
777.215
 20
201.174
 11
779.1
 21
190.208
  0
LINE
  8
Layer1
  6
CONTINUOUS
 62
7
 10
775.33
 20
195.691
 11
776.272
 21
184.697
  0
LINE
  8
Layer1
  6
CONTINUOUS
 62
7
 10
777.451
 20
206.657
 11
778.158
 21
195.691
  0
LINE
  8
Layer1
  6
CONTINUOUS
 62
7
 10
788.528
 20
206.657
 11
785.7
 21
206.657
  0
LINE
  8
Layer1
  6
CONTINUOUS
 62
7
 10
782.871
 20
206.657
 11
780.043
 21
206.657
  0
LINE
  8
Layer1
  6
CONTINUOUS
 62
7
 10
781.929
 20
184.697
 11
784.757
 21
184.697
  0
LINE
  8
Layer1
  6
CONTINUOUS
 62
7
 10
787.585
 20
184.697
 11
790.413
 21
184.697
  0
LINE
  8
Layer1
  6
CONTINUOUS
 62
7
 10
788.528
 20
206.657
 11
785.7
 21
206.657
  0
LINE
  8
Layer1
  6
CONTINUOUS
 62
7
 10
785.7
 20
201.174
 11
788.528
 21
201.174
  0
LINE
  8
Layer1
  6
CONTINUOUS
 62
7
 10
787.585
 20
190.208
 11
790.413
 21
190.208
  0
LINE
  8
Layer1
  6
CONTINUOUS
 62
7
 10
788.528
 20
206.657
 11
788.528
 21
201.174
  0
LINE
  8
Layer1
  6
CONTINUOUS
 62
7
 10
785.7
 20
206.657
 11
785.7
 21
201.174
  0
LINE
  8
Layer1
  6
CONTINUOUS
 62
7
 10
787.585
 20
190.208
 11
787.585
 21
184.697
  0
LINE
  8
Layer1
  6
CONTINUOUS
 62
7
 10
790.413
 20
190.208
 11
790.413
 21
184.697
  0
LINE
  8
Layer1
  6
CONTINUOUS
 62
7
 10
785.7
 20
201.174
 11
787.585
 21
190.208
  0
LINE
  8
Layer1
  6
CONTINUOUS
 62
7
 10
788.528
 20
201.174
 11
790.413
 21
190.208
  0
LINE
  8
Layer1
  6
CONTINUOUS
 62
7
 10
786.642
 20
195.691
 11
787.585
 21
184.697
  0
LINE
  8
Layer1
  6
CONTINUOUS
 62
7
 10
788.763
 20
206.657
 11
789.47
 21
195.691
  0
LINE
  8
Layer1
  6
CONTINUOUS
 62
7
 10
782.871
 20
206.657
 11
780.043
 21
206.657
  0
LINE
  8
Layer1
  6
CONTINUOUS
 62
7
 10
780.043
 20
201.174
 11
782.871
 21
201.174
  0
LINE
  8
Layer1
  6
CONTINUOUS
 62
7
 10
781.929
 20
190.208
 11
784.757
 21
190.208
  0
LINE
  8
Layer1
  6
CONTINUOUS
 62
7
 10
782.871
 20
206.657
 11
782.871
 21
201.174
  0
LINE
  8
Layer1
  6
CONTINUOUS
 62
7
 10
780.043
 20
206.657
 11
780.043
 21
201.174
  0
LINE
  8
Layer1
  6
CONTINUOUS
 62
7
 10
781.929
 20
190.208
 11
781.929
 21
186.646
  0
LINE
  8
Layer1
  6
CONTINUOUS
 62
7
 10
784.757
 20
190.208
 11
784.757
 21
185.382
  0
LINE
  8
Layer1
  6
CONTINUOUS
 62
7
 10
780.043
 20
201.174
 11
781.929
 21
190.208
  0
LINE
  8
Layer1
  6
CONTINUOUS
 62
7
 10
782.871
 20
201.174
 11
784.757
 21
190.208
  0
LINE
  8
Layer1
  6
CONTINUOUS
 62
7
 10
780.986
 20
195.691
 11
781.753
 21
186.741
  0
LINE
  8
Layer1
  6
CONTINUOUS
 62
7
 10
783.107
 20
206.657
 11
783.814
 21
195.691
  0
LINE
  8
Layer1
  6
CONTINUOUS
 62
7
 10
781.929
 20
184.697
 11
781.718
 21
187.149
  0
LINE
  8
Layer1
  6
CONTINUOUS
 62
7
 10
781.929
 20
186.646
 11
781.929
 21
184.697
  0
LINE
  8
Layer1
  6
CONTINUOUS
 62
7
 10
784.757
 20
185.382
 11
784.757
 21
184.697
  0
LINE
  8
Layer1
  6
CONTINUOUS
 62
7
 10
723.273
 20
272.177
 11
696.273
 21
272.177
  0
LINE
  8
Layer1
  6
CONTINUOUS
 62
7
 10
724.773
 20
265.177
 11
724.773
 21
270.677
  0
LINE
  8
Layer1
  6
CONTINUOUS
 62
7
 10
694.773
 20
265.177
 11
694.773
 21
270.677
  0
LINE
  8
Layer1
  6
CENTER2
 62
7
 10
709.773
 20
293.112
 11
709.773
 21
262.88
  0
ARC
  8
Layer1
  6
CONTINUOUS
 62
7
 10
723.273
 20
270.677
 40
1.5
 50
2.03555e-013
 51
90
  0
ARC
  8
Layer1
  6
CONTINUOUS
 62
7
 10
696.273
 20
270.677
 40
1.5
 50
90
 51
180
  0
LINE
  8
Layer1
  6
CONTINUOUS
 62
7
 10
693.773
 20
264.177
 11
692.09
 21
264.177
  0
ARC
  8
Layer1
  6
CONTINUOUS
 62
7
 10
725.773
 20
265.177
 40
1
 50
180
 51
270
  0
ARC
  8
Layer1
  6
CONTINUOUS
 62
7
 10
693.773
 20
265.177
 40
1
 50
270
 51
2.03555e-013
  0
LINE
  8
Layer1
  6
CONTINUOUS
 62
7
 10
712.273
 20
279.177
 11
712.273
 21
272.177
  0
LINE
  8
Layer1
  6
CONTINUOUS
 62
7
 10
707.273
 20
279.177
 11
707.273
 21
272.177
  0
LINE
  8
Layer1
  6
CONTINUOUS
 62
7
 10
712.773
 20
281.177
 11
706.773
 21
281.177
  0
LINE
  8
Layer1
  6
CONTINUOUS
 62
7
 10
709.773
 20
281.177
 11
709.773
 21
280.564
  0
LINE
  8
Layer1
  6
CONTINUOUS
 62
7
 10
759.273
 20
357.177
 11
822.302
 21
357.177
  0
LINE
  8
Layer1
  6
CONTINUOUS
 62
7
 10
822.288
 20
338.177
 11
759.273
 21
338.177
  0
LINE
  8
Layer1
  6
CONTINUOUS
 62
7
 10
755.273
 20
283.177
 11
664.273
 21
283.177
  0
LINE
  8
Layer1
  6
PHANTOM1
 62
7
 10
659.273
 20
264.177
 11
637.273
 21
264.177
  0
LINE
  8
Layer1
  6
CONTINUOUS
 62
7
 10
822.273
 20
177.177
 11
664.273
 21
177.177
  0
LINE
  8
Layer1
  6
CONTINUOUS
 62
7
 10
663.273
 20
265.177
 11
663.273
 21
282.177
  0
LINE
  8
Layer1
  6
CONTINUOUS
 62
7
 10
660.273
 20
215.177
 11
660.273
 21
263.177
  0
LINE
  8
Layer1
  6
PHANTOM1
 62
7
 10
636.273
 20
215.177
 11
636.273
 21
263.177
  0
LINE
  8
Layer1
  6
PHANTOM1
 62
7
 10
659.273
 20
214.177
 11
637.273
 21
214.177
  0
LINE
  8
Layer1
  6
DASHED1
 62
7
 10
820.273
 20
214.177
 11
663.273
 21
214.177
  0
LINE
  8
Layer1
  6
PHANTOM1
 62
7
 10
637.273
 20
264.177
 11
636.273
 21
263.177
  0
LINE
  8
Layer1
  6
PHANTOM1
 62
7
 10
636.273
 20
215.177
 11
637.273
 21
214.177
  0
LINE
  8
Layer1
  6
DASHED1
 62
7
 10
693.773
 20
264.177
 11
663.273
 21
264.177
  0
LINE
  8
Layer1
  6
PHANTOM1
 62
7
 10
659.273
 20
214.177
 11
660.273
 21
215.177
  0
LINE
  8
Layer1
  6
PHANTOM1
 62
7
 10
659.273
 20
264.177
 11
660.273
 21
263.177
  0
LINE
  8
Layer1
  6
CONTINUOUS
 62
7
 10
660.273
 20
263.177
 11
661.273
 21
264.177
  0
LINE
  8
Layer1
  6
CONTINUOUS
 62
7
 10
664.273
 20
264.177
 11
663.273
 21
263.177
  0
LINE
  8
Layer1
  6
CONTINUOUS
 62
7
 10
664.273
 20
283.177
 11
663.273
 21
282.177
  0
LINE
  8
Layer1
  6
CONTINUOUS
 62
7
 10
663.273
 20
263.177
 11
663.273
 21
196.177
  0
LINE
  8
Layer1
  6
CONTINUOUS
 62
7
 10
663.273
 20
265.177
 11
664.273
 21
264.177
  0
LINE
  8
Layer1
  6
CONTINUOUS
 62
7
 10
660.273
 20
215.177
 11
661.273
 21
214.177
  0
LINE
  8
Layer1
  6
CONTINUOUS
 62
7
 10
663.273
 20
201.177
 11
663.273
 21
178.177
  0
LINE
  8
Layer1
  6
CONTINUOUS
 62
7
 10
663.273
 20
178.177
 11
664.273
 21
177.177
  0
LINE
  8
Layer1
  6
CONTINUOUS
 62
7
 10
758.28
 20
298.177
 11
758.28
 21
356.177
  0
LINE
  8
Layer1
  6
CONTINUOUS
 62
7
 10
822.302
 20
357.177
 11
823.301
 21
356.177
  0
LINE
  8
Layer1
  6
CONTINUOUS
 62
7
 10
759.273
 20
357.177
 11
758.273
 21
356.177
  0
LINE
  8
Layer1
  6
CONTINUOUS
 62
7
 10
802.566
 20
252.884
 11
758.98
 21
296.47
  0
LINE
  8
Layer1
  6
CONTINUOUS
 62
7
 10
756.273
 20
265.177
 11
756.273
 21
282.177
  0
LINE
  8
Layer1
  6
CONTINUOUS
 62
7
 10
756.273
 20
282.177
 11
755.273
 21
283.177
  0
LINE
  8
Layer1
  6
CONTINUOUS
 62
7
 10
756.273
 20
265.177
 11
755.273
 21
264.177
  0
LINE
  8
Layer1
  6
CONTINUOUS
 62
7
 10
804.273
 20
252.177
 11
820.216
 21
252.177
  0
LINE
  8
Layer1
  6
CONTINUOUS
 62
7
 10
758.28
 20
298.177
 11
758.98
 21
296.47
  0
LINE
  8
Layer1
  6
CONTINUOUS
 62
7
 10
802.566
 20
252.884
 11
804.273
 21
252.177
  0
ARC
  8
Layer1
  6
CONTINUOUS
 62
7
 10
820.216
 20
255.177
 40
3
 50
270
 51
359.952
  0
LINE
  8
Layer1
  6
CONTINUOUS
 62
7
 10
791.98
 20
263.47
 11
820.566
 21
234.884
  0
LINE
  8
Layer1
  6
CONTINUOUS
 62
7
 10
821.273
 20
233.177
 11
821.273
 21
215.177
  0
LINE
  8
Layer1
  6
CONTINUOUS
 62
7
 10
820.273
 20
214.177
 11
821.273
 21
215.177
  0
LINE
  8
Layer1
  6
CONTINUOUS
 62
7
 10
821.273
 20
233.177
 11
820.566
 21
234.884
  0
LINE
  8
Layer1
  6
CONTINUOUS
 62
7
 10
790.273
 20
264.177
 11
791.98
 21
263.47
  0
LINE
  8
Layer1
  6
CONTINUOUS
 62
7
 10
823.273
 20
178.177
 11
822.273
 21
177.177
  0
LINE
  8
Layer1
  6
CONTINUOUS
 62
7
 10
845.295
 20
187.177
 11
824.273
 21
187.177
  0
LINE
  8
Layer1
  6
CONTINUOUS
 62
7
 10
823.273
 20
188.177
 11
824.273
 21
187.177
  0
LINE
  8
Layer1
  6
CONTINUOUS
 62
7
 10
845.295
 20
275.177
 11
824.273
 21
275.177
  0
LINE
  8
Layer1
  6
CONTINUOUS
 62
7
 10
823.273
 20
274.177
 11
824.273
 21
275.177
  0
LINE
  8
Layer1
  6
CENTER1
 62
7
 10
805.172
 20
219.177
 11
856.95
 21
219.177
  0
LINE
  8
Layer1
  6
CONTINUOUS
 62
7
 10
758.273
 20
339.177
 11
759.273
 21
338.177
  0
LINE
  8
Layer1
  6
CONTINUOUS
 62
7
 10
822.288
 20
338.177
 11
823.289
 21
339.177
  0
LINE
  8
Layer1
  6
CENTER1
 62
7
 10
810.78
 20
336.11
 11
810.78
 21
361.643
  0
LINE
  8
Layer1
  6
CENTER1
 62
7
 10
770.78
 20
336.509
 11
770.78
 21
362.042
  0
LINE
  8
Layer1
  6
CENTER1
 62
7
 10
821.473
 20
207.177
 11
850.995
 21
207.177
  0
LINE
  8
Layer1
  6
CENTER1
 62
7
 10
817.705
 20
250.177
 11
850.975
 21
250.177
  0
LINE
  8
Layer1
  6
CENTER1
 62
7
 10
739.773
 20
261.106
 11
739.773
 21
283.248
  0
LINE
  8
Layer1
  6
CENTER1
 62
7
 10
679.773
 20
283.248
 11
679.773
 21
260.508
  0
LINE
  8
Layer1
  6
DASHED1
 62
7
 10
686.273
 20
282.177
 11
686.273
 21
273.677
  0
LINE
  8
Layer1
  6
CENTER1
 62
7
 10
812.773
 20
228.99
 11
812.773
 21
194.281
  0
LINE
  8
Layer1
  6
CONTINUOUS
 62
7
 10
803.773
 20
209.677
 11
821.273
 21
209.677
  0
LINE
  8
Layer1
  6
CONTINUOUS
 62
7
 10
799.273
 20
184.177
 11
799.273
 21
214.177
  0
LINE
  8
Layer1
  6
CONTINUOUS
 62
7
 10
803.773
 20
184.177
 11
803.773
 21
209.677
  0
LINE
  8
Layer1
  6
CONTINUOUS
 62
7
 10
799.273
 20
184.177
 11
803.773
 21
184.177
  0
LINE
  8
Layer1
  6
CONTINUOUS
 62
7
 10
821.273
 20
209.677
 11
821.273
 21
214.177
  0
LINE
  8
Layer1
  6
CONTINUOUS
 62
7
 10
799.273
 20
214.177
 11
821.273
 21
214.177
  0
LINE
  8
Layer1
  6
CONTINUOUS
 62
7
 10
797.273
 20
200.677
 11
797.273
 21
190.677
  0
LINE
  8
Layer1
  6
CENTER1
 62
7
 10
791.19
 20
195.677
 11
807.548
 21
195.677
  0
LINE
  8
Layer1
  6
CONTINUOUS
 62
7
 10
797.273
 20
200.677
 11
799.273
 21
200.677
  0
LINE
  8
Layer1
  6
CONTINUOUS
 62
7
 10
797.273
 20
190.677
 11
799.273
 21
190.677
  0
LINE
  8
Layer1
  6
CONTINUOUS
 62
7
 10
806.023
 20
209.677
 11
806.023
 21
202.177
  0
LINE
  8
Layer1
  6
CONTINUOUS
 62
7
 10
819.023
 20
209.677
 11
819.023
 21
202.177
  0
LINE
  8
Layer1
  6
CONTINUOUS
 62
7
 10
806.023
 20
202.177
 11
819.023
 21
202.177
  0
LINE
  8
Layer1
  6
CONTINUOUS
 62
7
 10
806.523
 20
201.677
 11
818.523
 21
201.677
  0
LINE
  8
Layer1
  6
CONTINUOUS
 62
7
 10
806.023
 20
202.177
 11
806.523
 21
201.677
  0
LINE
  8
Layer1
  6
CONTINUOUS
 62
7
 10
819.023
 20
202.177
 11
818.523
 21
201.677
  0
LINE
  8
Layer1
  6
CONTINUOUS
 62
7
 10
819.023
 20
209.677
 11
806.023
 21
209.677
  0
LINE
  8
Layer1
  6
CONTINUOUS
 62
7
 10
818.023
 20
209.1
 11
818.023
 21
202.754
  0
LINE
  8
Layer1
  6
CONTINUOUS
 62
7
 10
817.023
 20
208.523
 11
817.023
 21
203.33
  0
LINE
  8
Layer1
  6
CONTINUOUS
 62
7
 10
816.023
 20
207.946
 11
816.023
 21
203.907
  0
LINE
  8
Layer1
  6
CONTINUOUS
 62
7
 10
815.023
 20
207.369
 11
815.023
 21
204.484
  0
LINE
  8
Layer1
  6
CONTINUOUS
 62
7
 10
799.369
 20
206.657
 11
799.369
 21
184.697
  0
LINE
  8
Layer1
  6
CONTINUOUS
 62
7
 10
799.369
 20
206.657
 11
797.012
 21
206.657
  0
LINE
  8
Layer1
  6
CONTINUOUS
 62
7
 10
793.241
 20
184.697
 11
796.07
 21
184.697
  0
LINE
  8
Layer1
  6
CONTINUOUS
 62
7
 10
794.184
 20
206.657
 11
791.356
 21
206.657
  0
LINE
  8
Layer1
  6
CONTINUOUS
 62
7
 10
791.356
 20
201.174
 11
794.184
 21
201.174
  0
LINE
  8
Layer1
  6
CONTINUOUS
 62
7
 10
793.241
 20
190.208
 11
796.07
 21
190.208
  0
LINE
  8
Layer1
  6
CONTINUOUS
 62
7
 10
794.184
 20
206.657
 11
794.184
 21
201.174
  0
LINE
  8
Layer1
  6
CONTINUOUS
 62
7
 10
791.356
 20
206.657
 11
791.356
 21
201.174
  0
LINE
  8
Layer1
  6
CONTINUOUS
 62
7
 10
793.241
 20
190.208
 11
793.241
 21
184.697
  0
LINE
  8
Layer1
  6
CONTINUOUS
 62
7
 10
796.07
 20
190.208
 11
796.07
 21
184.697
  0
LINE
  8
Layer1
  6
CONTINUOUS
 62
7
 10
791.356
 20
201.174
 11
793.241
 21
190.208
  0
LINE
  8
Layer1
  6
CONTINUOUS
 62
7
 10
794.184
 20
201.174
 11
796.07
 21
190.208
  0
LINE
  8
Layer1
  6
CONTINUOUS
 62
7
 10
792.299
 20
195.691
 11
793.241
 21
184.697
  0
LINE
  8
Layer1
  6
CONTINUOUS
 62
7
 10
794.42
 20
206.657
 11
795.127
 21
195.691
  0
LINE
  8
Layer1
  6
CONTINUOUS
 62
7
 10
798.898
 20
184.697
 11
799.369
 21
184.697
  0
LINE
  8
Layer1
  6
CONTINUOUS
 62
7
 10
797.012
 20
201.174
 11
799.369
 21
201.167
  0
LINE
  8
Layer1
  6
CONTINUOUS
 62
7
 10
798.898
 20
190.208
 11
799.369
 21
190.187
  0
LINE
  8
Layer1
  6
CONTINUOUS
 62
7
 10
797.012
 20
206.657
 11
797.012
 21
201.174
  0
LINE
  8
Layer1
  6
CONTINUOUS
 62
7
 10
798.898
 20
190.208
 11
798.898
 21
184.697
  0
LINE
  8
Layer1
  6
CONTINUOUS
 62
7
 10
797.012
 20
201.174
 11
798.898
 21
190.208
  0
LINE
  8
Layer1
  6
CONTINUOUS
 62
7
 10
797.955
 20
195.691
 11
798.898
 21
184.697
  0
LINE
  8
Layer1
  6
CONTINUOUS
 62
7
 10
770.616
 20
184.697
 11
773.444
 21
184.697
  0
LINE
  8
Layer1
  6
CONTINUOUS
 62
7
 10
768.73
 20
201.174
 11
771.559
 21
201.174
  0
LINE
  8
Layer1
  6
CONTINUOUS
 62
7
 10
770.616
 20
190.208
 11
773.444
 21
190.208
  0
LINE
  8
Layer1
  6
CONTINUOUS
 62
7
 10
771.559
 20
206.657
 11
771.559
 21
201.174
  0
LINE
  8
Layer1
  6
CONTINUOUS
 62
7
 10
768.73
 20
206.657
 11
768.73
 21
201.174
  0
LINE
  8
Layer1
  6
CONTINUOUS
 62
7
 10
770.616
 20
190.208
 11
770.616
 21
184.697
  0
LINE
  8
Layer1
  6
CONTINUOUS
 62
7
 10
773.444
 20
190.208
 11
773.444
 21
184.697
  0
LINE
  8
Layer1
  6
CONTINUOUS
 62
7
 10
768.73
 20
201.174
 11
770.616
 21
190.208
  0
LINE
  8
Layer1
  6
CONTINUOUS
 62
7
 10
771.559
 20
201.174
 11
773.444
 21
190.208
  0
LINE
  8
Layer1
  6
CONTINUOUS
 62
7
 10
769.673
 20
195.691
 11
770.616
 21
184.697
  0
LINE
  8
Layer1
  6
CONTINUOUS
 62
7
 10
771.794
 20
206.657
 11
772.501
 21
195.691
  0
LINE
  8
Layer1
  6
DASHED1
 62
7
 10
759.303
 20
184.697
 11
762.131
 21
184.697
  0
LINE
  8
Layer1
  6
CONTINUOUS
 62
7
 10
771.559
 20
206.657
 11
768.73
 21
206.657
  0
LINE
  8
Layer1
  6
CONTINUOUS
 62
7
 10
765.902
 20
206.657
 11
763.074
 21
206.657
  0
LINE
  8
Layer1
  6
CONTINUOUS
 62
7
 10
764.96
 20
184.697
 11
767.788
 21
184.697
  0
LINE
  8
Layer1
  6
CONTINUOUS
 62
7
 10
770.616
 20
184.697
 11
773.444
 21
184.697
  0
LINE
  8
Layer1
  6
CONTINUOUS
 62
7
 10
771.559
 20
206.657
 11
768.73
 21
206.657
  0
LINE
  8
Layer1
  6
CONTINUOUS
 62
7
 10
768.73
 20
201.174
 11
771.559
 21
201.174
  0
LINE
  8
Layer1
  6
CONTINUOUS
 62
7
 10
770.616
 20
190.208
 11
773.444
 21
190.208
  0
LINE
  8
Layer1
  6
CONTINUOUS
 62
7
 10
771.559
 20
206.657
 11
771.559
 21
201.174
  0
LINE
  8
Layer1
  6
CONTINUOUS
 62
7
 10
768.73
 20
206.657
 11
768.73
 21
201.174
  0
LINE
  8
Layer1
  6
CONTINUOUS
 62
7
 10
770.616
 20
190.208
 11
770.616
 21
184.697
  0
LINE
  8
Layer1
  6
CONTINUOUS
 62
7
 10
773.444
 20
190.208
 11
773.444
 21
184.697
  0
LINE
  8
Layer1
  6
CONTINUOUS
 62
7
 10
768.73
 20
201.174
 11
770.616
 21
190.208
  0
LINE
  8
Layer1
  6
CONTINUOUS
 62
7
 10
771.559
 20
201.174
 11
773.444
 21
190.208
  0
LINE
  8
Layer1
  6
CONTINUOUS
 62
7
 10
769.673
 20
195.691
 11
770.616
 21
184.697
  0
LINE
  8
Layer1
  6
CONTINUOUS
 62
7
 10
771.794
 20
206.657
 11
772.501
 21
195.691
  0
LINE
  8
Layer1
  6
CONTINUOUS
 62
7
 10
765.902
 20
206.657
 11
763.074
 21
206.657
  0
LINE
  8
Layer1
  6
CONTINUOUS
 62
7
 10
763.074
 20
201.174
 11
765.902
 21
201.174
  0
LINE
  8
Layer1
  6
CONTINUOUS
 62
7
 10
764.96
 20
190.208
 11
767.788
 21
190.208
  0
LINE
  8
Layer1
  6
CONTINUOUS
 62
7
 10
765.902
 20
206.657
 11
765.902
 21
201.174
  0
LINE
  8
Layer1
  6
CONTINUOUS
 62
7
 10
763.074
 20
206.657
 11
763.074
 21
201.174
  0
LINE
  8
Layer1
  6
CONTINUOUS
 62
7
 10
764.96
 20
190.208
 11
764.96
 21
186.646
  0
LINE
  8
Layer1
  6
CONTINUOUS
 62
7
 10
767.788
 20
190.208
 11
767.788
 21
185.382
  0
LINE
  8
Layer1
  6
CONTINUOUS
 62
7
 10
763.074
 20
201.174
 11
764.96
 21
190.208
  0
LINE
  8
Layer1
  6
CONTINUOUS
 62
7
 10
765.902
 20
201.174
 11
767.788
 21
190.208
  0
LINE
  8
Layer1
  6
CONTINUOUS
 62
7
 10
764.017
 20
195.691
 11
764.784
 21
186.741
  0
LINE
  8
Layer1
  6
CONTINUOUS
 62
7
 10
766.138
 20
206.657
 11
766.845
 21
195.691
  0
LINE
  8
Layer1
  6
CONTINUOUS
 62
7
 10
764.96
 20
184.697
 11
764.749
 21
187.149
  0
LINE
  8
Layer1
  6
CONTINUOUS
 62
7
 10
764.96
 20
186.646
 11
764.96
 21
184.697
  0
LINE
  8
Layer1
  6
CONTINUOUS
 62
7
 10
767.788
 20
185.382
 11
767.788
 21
184.697
  0
LINE
  8
Layer1
  6
CONTINUOUS
 62
7
 10
776.272
 20
184.697
 11
779.1
 21
184.697
  0
LINE
  8
Layer1
  6
CONTINUOUS
 62
7
 10
777.215
 20
206.657
 11
774.387
 21
206.657
  0
LINE
  8
Layer1
  6
CONTINUOUS
 62
7
 10
774.387
 20
201.174
 11
777.215
 21
201.174
  0
LINE
  8
Layer1
  6
CONTINUOUS
 62
7
 10
776.272
 20
190.208
 11
779.1
 21
190.208
  0
LINE
  8
Layer1
  6
CONTINUOUS
 62
7
 10
777.215
 20
206.657
 11
777.215
 21
201.174
  0
LINE
  8
Layer1
  6
CONTINUOUS
 62
7
 10
774.387
 20
206.657
 11
774.387
 21
201.174
  0
LINE
  8
Layer1
  6
CONTINUOUS
 62
7
 10
776.272
 20
190.208
 11
776.272
 21
184.697
  0
LINE
  8
Layer1
  6
CONTINUOUS
 62
7
 10
779.1
 20
190.208
 11
779.1
 21
184.697
  0
LINE
  8
Layer1
  6
CONTINUOUS
 62
7
 10
774.387
 20
201.174
 11
776.272
 21
190.208
  0
LINE
  8
Layer1
  6
CONTINUOUS
 62
7
 10
777.215
 20
201.174
 11
779.1
 21
190.208
  0
LINE
  8
Layer1
  6
CONTINUOUS
 62
7
 10
775.33
 20
195.691
 11
776.272
 21
184.697
  0
LINE
  8
Layer1
  6
CONTINUOUS
 62
7
 10
777.451
 20
206.657
 11
778.158
 21
195.691
  0
LINE
  8
Layer1
  6
DASHED1
 62
7
 10
747.99
 20
184.697
 11
750.819
 21
184.697
  0
LINE
  8
Layer1
  6
DASHED1
 62
7
 10
746.105
 20
201.174
 11
748.933
 21
201.174
  0
LINE
  8
Layer1
  6
DASHED1
 62
7
 10
747.99
 20
190.208
 11
750.819
 21
190.208
  0
LINE
  8
Layer1
  6
CONTINUOUS
 62
7
 10
748.933
 20
206.657
 11
748.933
 21
202.521
  0
LINE
  8
Layer1
  6
DASHED1
 62
7
 10
746.105
 20
206.657
 11
746.105
 21
205.246
  0
LINE
  8
Layer1
  6
DASHED1
 62
7
 10
747.99
 20
190.208
 11
747.99
 21
184.697
  0
LINE
  8
Layer1
  6
CONTINUOUS
 62
7
 10
750.819
 20
190.208
 11
750.819
 21
184.697
  0
LINE
  8
Layer1
  6
DASHED1
 62
7
 10
746.105
 20
201.174
 11
747.99
 21
190.208
  0
LINE
  8
Layer1
  6
DASHED1
 62
7
 10
748.933
 20
201.174
 11
750.819
 21
190.208
  0
LINE
  8
Layer1
  6
DASHED1
 62
7
 10
747.048
 20
195.691
 11
747.99
 21
184.697
  0
LINE
  8
Layer1
  6
CONTINUOUS
 62
7
 10
749.169
 20
206.657
 11
749.458
 21
202.177
  0
LINE
  8
Layer1
  6
DASHED1
 62
7
 10
736.678
 20
184.697
 11
739.506
 21
184.697
  0
LINE
  8
Layer1
  6
DASHED1
 62
7
 10
737.62
 20
206.657
 11
734.792
 21
206.657
  0
LINE
  8
Layer1
  6
DASHED1
 62
7
 10
734.792
 20
201.174
 11
737.62
 21
201.174
  0
LINE
  8
Layer1
  6
DASHED1
 62
7
 10
736.678
 20
190.208
 11
739.506
 21
190.208
  0
LINE
  8
Layer1
  6
DASHED1
 62
7
 10
737.62
 20
206.657
 11
737.62
 21
201.174
  0
LINE
  8
Layer1
  6
DASHED1
 62
7
 10
734.792
 20
206.657
 11
734.792
 21
201.174
  0
LINE
  8
Layer1
  6
DASHED1
 62
7
 10
736.678
 20
190.208
 11
736.678
 21
184.697
  0
LINE
  8
Layer1
  6
DASHED1
 62
7
 10
739.506
 20
190.208
 11
739.506
 21
184.697
  0
LINE
  8
Layer1
  6
DASHED1
 62
7
 10
734.792
 20
201.174
 11
736.678
 21
190.208
  0
LINE
  8
Layer1
  6
DASHED1
 62
7
 10
737.62
 20
201.174
 11
739.506
 21
190.208
  0
LINE
  8
Layer1
  6
DASHED1
 62
7
 10
735.735
 20
195.691
 11
736.678
 21
184.697
  0
LINE
  8
Layer1
  6
DASHED1
 62
7
 10
737.856
 20
206.657
 11
738.563
 21
195.691
  0
LINE
  8
Layer1
  6
CONTINUOUS
 62
7
 10
748.933
 20
206.657
 11
746.105
 21
206.657
  0
LINE
  8
Layer1
  6
DASHED1
 62
7
 10
743.277
 20
206.657
 11
740.449
 21
206.657
  0
LINE
  8
Layer1
  6
DASHED1
 62
7
 10
742.334
 20
184.697
 11
745.162
 21
184.697
  0
LINE
  8
Layer1
  6
DASHED1
 62
7
 10
743.277
 20
206.657
 11
740.449
 21
206.657
  0
LINE
  8
Layer1
  6
DASHED1
 62
7
 10
740.449
 20
201.174
 11
743.277
 21
201.174
  0
LINE
  8
Layer1
  6
DASHED1
 62
7
 10
742.334
 20
190.208
 11
745.162
 21
190.208
  0
LINE
  8
Layer1
  6
DASHED1
 62
7
 10
743.277
 20
206.657
 11
743.277
 21
201.174
  0
LINE
  8
Layer1
  6
DASHED1
 62
7
 10
740.449
 20
206.657
 11
740.449
 21
201.174
  0
LINE
  8
Layer1
  6
DASHED1
 62
7
 10
742.334
 20
190.208
 11
742.334
 21
186.646
  0
LINE
  8
Layer1
  6
DASHED1
 62
7
 10
745.162
 20
190.208
 11
745.162
 21
185.382
  0
LINE
  8
Layer1
  6
DASHED1
 62
7
 10
740.449
 20
201.174
 11
742.334
 21
190.208
  0
LINE
  8
Layer1
  6
DASHED1
 62
7
 10
743.277
 20
201.174
 11
745.162
 21
190.208
  0
LINE
  8
Layer1
  6
DASHED1
 62
7
 10
741.391
 20
195.691
 11
742.159
 21
186.741
  0
LINE
  8
Layer1
  6
DASHED1
 62
7
 10
743.513
 20
206.657
 11
744.22
 21
195.691
  0
LINE
  8
Layer1
  6
DASHED1
 62
7
 10
742.334
 20
184.697
 11
742.124
 21
187.149
  0
LINE
  8
Layer1
  6
DASHED1
 62
7
 10
742.334
 20
186.646
 11
742.334
 21
184.697
  0
LINE
  8
Layer1
  6
DASHED1
 62
7
 10
745.162
 20
185.382
 11
745.162
 21
184.697
  0
LINE
  8
Layer1
  6
DASHED1
 62
7
 10
753.647
 20
184.697
 11
756.475
 21
184.697
  0
LINE
  8
Layer1
  6
DASHED1
 62
7
 10
731.021
 20
184.697
 11
733.85
 21
184.697
  0
LINE
  8
Layer1
  6
DASHED1
 62
7
 10
729.136
 20
201.174
 11
731.964
 21
201.174
  0
LINE
  8
Layer1
  6
DASHED1
 62
7
 10
731.021
 20
190.208
 11
733.85
 21
190.208
  0
LINE
  8
Layer1
  6
DASHED1
 62
7
 10
731.964
 20
206.657
 11
731.964
 21
201.174
  0
LINE
  8
Layer1
  6
DASHED1
 62
7
 10
729.136
 20
206.657
 11
729.136
 21
201.174
  0
LINE
  8
Layer1
  6
DASHED1
 62
7
 10
731.021
 20
190.208
 11
731.021
 21
184.697
  0
LINE
  8
Layer1
  6
DASHED1
 62
7
 10
733.85
 20
190.208
 11
733.85
 21
184.697
  0
LINE
  8
Layer1
  6
DASHED1
 62
7
 10
729.136
 20
201.174
 11
731.021
 21
190.208
  0
LINE
  8
Layer1
  6
DASHED1
 62
7
 10
731.964
 20
201.174
 11
733.85
 21
190.208
  0
LINE
  8
Layer1
  6
DASHED1
 62
7
 10
730.079
 20
195.691
 11
731.021
 21
184.697
  0
LINE
  8
Layer1
  6
DASHED1
 62
7
 10
732.2
 20
206.657
 11
732.907
 21
195.691
  0
LINE
  8
Layer1
  6
DASHED1
 62
7
 10
719.709
 20
184.697
 11
722.537
 21
184.697
  0
LINE
  8
Layer1
  6
DASHED1
 62
7
 10
720.651
 20
206.657
 11
717.823
 21
206.657
  0
LINE
  8
Layer1
  6
DASHED1
 62
7
 10
717.823
 20
201.174
 11
720.651
 21
201.174
  0
LINE
  8
Layer1
  6
DASHED1
 62
7
 10
719.709
 20
190.208
 11
722.537
 21
190.208
  0
LINE
  8
Layer1
  6
DASHED1
 62
7
 10
720.651
 20
206.657
 11
720.651
 21
201.174
  0
LINE
  8
Layer1
  6
DASHED1
 62
7
 10
717.823
 20
206.657
 11
717.823
 21
201.174
  0
LINE
  8
Layer1
  6
DASHED1
 62
7
 10
719.709
 20
190.208
 11
719.709
 21
184.697
  0
LINE
  8
Layer1
  6
DASHED1
 62
7
 10
722.537
 20
190.208
 11
722.537
 21
184.697
  0
LINE
  8
Layer1
  6
DASHED1
 62
7
 10
717.823
 20
201.174
 11
719.709
 21
190.208
  0
LINE
  8
Layer1
  6
DASHED1
 62
7
 10
720.651
 20
201.174
 11
722.537
 21
190.208
  0
LINE
  8
Layer1
  6
DASHED1
 62
7
 10
718.766
 20
195.691
 11
719.709
 21
184.697
  0
LINE
  8
Layer1
  6
DASHED1
 62
7
 10
720.887
 20
206.657
 11
721.594
 21
195.691
  0
LINE
  8
Layer1
  6
DASHED1
 62
7
 10
731.964
 20
206.657
 11
729.136
 21
206.657
  0
LINE
  8
Layer1
  6
DASHED1
 62
7
 10
726.308
 20
206.657
 11
723.48
 21
206.657
  0
LINE
  8
Layer1
  6
DASHED1
 62
7
 10
725.365
 20
184.697
 11
728.193
 21
184.697
  0
LINE
  8
Layer1
  6
DASHED1
 62
7
 10
731.021
 20
184.697
 11
733.85
 21
184.697
  0
LINE
  8
Layer1
  6
DASHED1
 62
7
 10
731.964
 20
206.657
 11
729.136
 21
206.657
  0
LINE
  8
Layer1
  6
DASHED1
 62
7
 10
729.136
 20
201.174
 11
731.964
 21
201.174
  0
LINE
  8
Layer1
  6
DASHED1
 62
7
 10
731.021
 20
190.208
 11
733.85
 21
190.208
  0
LINE
  8
Layer1
  6
DASHED1
 62
7
 10
731.964
 20
206.657
 11
731.964
 21
201.174
  0
LINE
  8
Layer1
  6
DASHED1
 62
7
 10
729.136
 20
206.657
 11
729.136
 21
201.174
  0
LINE
  8
Layer1
  6
DASHED1
 62
7
 10
731.021
 20
190.208
 11
731.021
 21
184.697
  0
LINE
  8
Layer1
  6
DASHED1
 62
7
 10
733.85
 20
190.208
 11
733.85
 21
184.697
  0
LINE
  8
Layer1
  6
DASHED1
 62
7
 10
729.136
 20
201.174
 11
731.021
 21
190.208
  0
LINE
  8
Layer1
  6
DASHED1
 62
7
 10
731.964
 20
201.174
 11
733.85
 21
190.208
  0
LINE
  8
Layer1
  6
DASHED1
 62
7
 10
730.079
 20
195.691
 11
731.021
 21
184.697
  0
LINE
  8
Layer1
  6
DASHED1
 62
7
 10
732.2
 20
206.657
 11
732.907
 21
195.691
  0
LINE
  8
Layer1
  6
DASHED1
 62
7
 10
726.308
 20
206.657
 11
723.48
 21
206.657
  0
LINE
  8
Layer1
  6
DASHED1
 62
7
 10
723.48
 20
201.174
 11
726.308
 21
201.174
  0
LINE
  8
Layer1
  6
DASHED1
 62
7
 10
725.365
 20
190.208
 11
728.193
 21
190.208
  0
LINE
  8
Layer1
  6
DASHED1
 62
7
 10
726.308
 20
206.657
 11
726.308
 21
201.174
  0
LINE
  8
Layer1
  6
DASHED1
 62
7
 10
723.48
 20
206.657
 11
723.48
 21
201.174
  0
LINE
  8
Layer1
  6
DASHED1
 62
7
 10
725.365
 20
190.208
 11
725.365
 21
186.646
  0
LINE
  8
Layer1
  6
DASHED1
 62
7
 10
728.193
 20
190.208
 11
728.193
 21
185.382
  0
LINE
  8
Layer1
  6
DASHED1
 62
7
 10
723.48
 20
201.174
 11
725.365
 21
190.208
  0
LINE
  8
Layer1
  6
DASHED1
 62
7
 10
726.308
 20
201.174
 11
728.193
 21
190.208
  0
LINE
  8
Layer1
  6
DASHED1
 62
7
 10
724.422
 20
195.691
 11
725.19
 21
186.741
  0
LINE
  8
Layer1
  6
DASHED1
 62
7
 10
726.543
 20
206.657
 11
727.25
 21
195.691
  0
LINE
  8
Layer1
  6
DASHED1
 62
7
 10
725.365
 20
184.697
 11
725.155
 21
187.149
  0
LINE
  8
Layer1
  6
DASHED1
 62
7
 10
725.365
 20
186.646
 11
725.365
 21
184.697
  0
LINE
  8
Layer1
  6
DASHED1
 62
7
 10
728.193
 20
185.382
 11
728.193
 21
184.697
  0
LINE
  8
Layer1
  6
DASHED1
 62
7
 10
736.678
 20
184.697
 11
739.506
 21
184.697
  0
LINE
  8
Layer1
  6
DASHED1
 62
7
 10
737.62
 20
206.657
 11
734.792
 21
206.657
  0
LINE
  8
Layer1
  6
DASHED1
 62
7
 10
734.792
 20
201.174
 11
737.62
 21
201.174
  0
LINE
  8
Layer1
  6
DASHED1
 62
7
 10
736.678
 20
190.208
 11
739.506
 21
190.208
  0
LINE
  8
Layer1
  6
DASHED1
 62
7
 10
737.62
 20
206.657
 11
737.62
 21
201.174
  0
LINE
  8
Layer1
  6
DASHED1
 62
7
 10
734.792
 20
206.657
 11
734.792
 21
201.174
  0
LINE
  8
Layer1
  6
DASHED1
 62
7
 10
736.678
 20
190.208
 11
736.678
 21
184.697
  0
LINE
  8
Layer1
  6
DASHED1
 62
7
 10
739.506
 20
190.208
 11
739.506
 21
184.697
  0
LINE
  8
Layer1
  6
DASHED1
 62
7
 10
734.792
 20
201.174
 11
736.678
 21
190.208
  0
LINE
  8
Layer1
  6
DASHED1
 62
7
 10
737.62
 20
201.174
 11
739.506
 21
190.208
  0
LINE
  8
Layer1
  6
DASHED1
 62
7
 10
735.735
 20
195.691
 11
736.678
 21
184.697
  0
LINE
  8
Layer1
  6
DASHED1
 62
7
 10
737.856
 20
206.657
 11
738.563
 21
195.691
  0
LINE
  8
Layer1
  6
DASHED1
 62
7
 10
708.396
 20
184.697
 11
711.224
 21
184.697
  0
LINE
  8
Layer1
  6
DASHED1
 62
7
 10
706.51
 20
201.174
 11
709.339
 21
201.174
  0
LINE
  8
Layer1
  6
DASHED1
 62
7
 10
708.396
 20
190.208
 11
711.224
 21
190.208
  0
LINE
  8
Layer1
  6
DASHED1
 62
7
 10
709.339
 20
206.657
 11
709.339
 21
201.174
  0
LINE
  8
Layer1
  6
DASHED1
 62
7
 10
706.51
 20
206.657
 11
706.51
 21
201.174
  0
LINE
  8
Layer1
  6
DASHED1
 62
7
 10
708.396
 20
190.208
 11
708.396
 21
184.697
  0
LINE
  8
Layer1
  6
DASHED1
 62
7
 10
711.224
 20
190.208
 11
711.224
 21
184.697
  0
LINE
  8
Layer1
  6
DASHED1
 62
7
 10
706.51
 20
201.174
 11
708.396
 21
190.208
  0
LINE
  8
Layer1
  6
DASHED1
 62
7
 10
709.339
 20
201.174
 11
711.224
 21
190.208
  0
LINE
  8
Layer1
  6
DASHED1
 62
7
 10
707.453
 20
195.691
 11
708.396
 21
184.697
  0
LINE
  8
Layer1
  6
DASHED1
 62
7
 10
709.574
 20
206.657
 11
710.281
 21
195.691
  0
LINE
  8
Layer1
  6
DASHED1
 62
7
 10
697.083
 20
184.697
 11
699.911
 21
184.697
  0
LINE
  8
Layer1
  6
DASHED1
 62
7
 10
698.026
 20
206.657
 11
695.198
 21
206.657
  0
LINE
  8
Layer1
  6
DASHED1
 62
7
 10
695.198
 20
201.174
 11
698.026
 21
201.174
  0
LINE
  8
Layer1
  6
DASHED1
 62
7
 10
697.083
 20
190.208
 11
699.911
 21
190.208
  0
LINE
  8
Layer1
  6
DASHED1
 62
7
 10
698.026
 20
206.657
 11
698.026
 21
201.174
  0
LINE
  8
Layer1
  6
DASHED1
 62
7
 10
695.198
 20
206.657
 11
695.198
 21
201.174
  0
LINE
  8
Layer1
  6
DASHED1
 62
7
 10
697.083
 20
190.208
 11
697.083
 21
184.697
  0
LINE
  8
Layer1
  6
DASHED1
 62
7
 10
699.911
 20
190.208
 11
699.911
 21
184.697
  0
LINE
  8
Layer1
  6
DASHED1
 62
7
 10
695.198
 20
201.174
 11
697.083
 21
190.208
  0
LINE
  8
Layer1
  6
DASHED1
 62
7
 10
698.026
 20
201.174
 11
699.911
 21
190.208
  0
LINE
  8
Layer1
  6
DASHED1
 62
7
 10
696.14
 20
195.691
 11
697.083
 21
184.697
  0
LINE
  8
Layer1
  6
DASHED1
 62
7
 10
698.262
 20
206.657
 11
698.969
 21
195.691
  0
LINE
  8
Layer1
  6
DASHED1
 62
7
 10
709.339
 20
206.657
 11
706.51
 21
206.657
  0
LINE
  8
Layer1
  6
DASHED1
 62
7
 10
703.682
 20
206.657
 11
700.854
 21
206.657
  0
LINE
  8
Layer1
  6
DASHED1
 62
7
 10
702.74
 20
184.697
 11
705.568
 21
184.697
  0
LINE
  8
Layer1
  6
DASHED1
 62
7
 10
708.396
 20
184.697
 11
711.224
 21
184.697
  0
LINE
  8
Layer1
  6
DASHED1
 62
7
 10
709.339
 20
206.657
 11
706.51
 21
206.657
  0
LINE
  8
Layer1
  6
DASHED1
 62
7
 10
706.51
 20
201.174
 11
709.339
 21
201.174
  0
LINE
  8
Layer1
  6
DASHED1
 62
7
 10
708.396
 20
190.208
 11
711.224
 21
190.208
  0
LINE
  8
Layer1
  6
DASHED1
 62
7
 10
709.339
 20
206.657
 11
709.339
 21
201.174
  0
LINE
  8
Layer1
  6
DASHED1
 62
7
 10
706.51
 20
206.657
 11
706.51
 21
201.174
  0
LINE
  8
Layer1
  6
DASHED1
 62
7
 10
708.396
 20
190.208
 11
708.396
 21
184.697
  0
LINE
  8
Layer1
  6
DASHED1
 62
7
 10
711.224
 20
190.208
 11
711.224
 21
184.697
  0
LINE
  8
Layer1
  6
DASHED1
 62
7
 10
706.51
 20
201.174
 11
708.396
 21
190.208
  0
LINE
  8
Layer1
  6
DASHED1
 62
7
 10
709.339
 20
201.174
 11
711.224
 21
190.208
  0
LINE
  8
Layer1
  6
DASHED1
 62
7
 10
707.453
 20
195.691
 11
708.396
 21
184.697
  0
LINE
  8
Layer1
  6
DASHED1
 62
7
 10
709.574
 20
206.657
 11
710.281
 21
195.691
  0
LINE
  8
Layer1
  6
DASHED1
 62
7
 10
703.682
 20
206.657
 11
700.854
 21
206.657
  0
LINE
  8
Layer1
  6
DASHED1
 62
7
 10
700.854
 20
201.174
 11
703.682
 21
201.174
  0
LINE
  8
Layer1
  6
DASHED1
 62
7
 10
702.74
 20
190.208
 11
705.568
 21
190.208
  0
LINE
  8
Layer1
  6
DASHED1
 62
7
 10
703.682
 20
206.657
 11
703.682
 21
201.174
  0
LINE
  8
Layer1
  6
DASHED1
 62
7
 10
700.854
 20
206.657
 11
700.854
 21
201.174
  0
LINE
  8
Layer1
  6
DASHED1
 62
7
 10
702.74
 20
190.208
 11
702.74
 21
186.646
  0
LINE
  8
Layer1
  6
DASHED1
 62
7
 10
705.568
 20
190.208
 11
705.568
 21
185.382
  0
LINE
  8
Layer1
  6
DASHED1
 62
7
 10
700.854
 20
201.174
 11
702.74
 21
190.208
  0
LINE
  8
Layer1
  6
DASHED1
 62
7
 10
703.682
 20
201.174
 11
705.568
 21
190.208
  0
LINE
  8
Layer1
  6
DASHED1
 62
7
 10
701.797
 20
195.691
 11
702.564
 21
186.741
  0
LINE
  8
Layer1
  6
DASHED1
 62
7
 10
703.918
 20
206.657
 11
704.625
 21
195.691
  0
LINE
  8
Layer1
  6
DASHED1
 62
7
 10
702.74
 20
184.697
 11
702.529
 21
187.149
  0
LINE
  8
Layer1
  6
DASHED1
 62
7
 10
702.74
 20
186.646
 11
702.74
 21
184.697
  0
LINE
  8
Layer1
  6
DASHED1
 62
7
 10
705.568
 20
185.382
 11
705.568
 21
184.697
  0
LINE
  8
Layer1
  6
DASHED1
 62
7
 10
714.052
 20
184.697
 11
716.88
 21
184.697
  0
LINE
  8
Layer1
  6
DASHED1
 62
7
 10
714.995
 20
206.657
 11
712.167
 21
206.657
  0
LINE
  8
Layer1
  6
DASHED1
 62
7
 10
712.167
 20
201.174
 11
714.995
 21
201.174
  0
LINE
  8
Layer1
  6
DASHED1
 62
7
 10
714.052
 20
190.208
 11
716.88
 21
190.208
  0
LINE
  8
Layer1
  6
DASHED1
 62
7
 10
714.995
 20
206.657
 11
714.995
 21
201.174
  0
LINE
  8
Layer1
  6
DASHED1
 62
7
 10
712.167
 20
206.657
 11
712.167
 21
201.174
  0
LINE
  8
Layer1
  6
DASHED1
 62
7
 10
714.052
 20
190.208
 11
714.052
 21
184.697
  0
LINE
  8
Layer1
  6
DASHED1
 62
7
 10
716.88
 20
190.208
 11
716.88
 21
184.697
  0
LINE
  8
Layer1
  6
DASHED1
 62
7
 10
712.167
 20
201.174
 11
714.052
 21
190.208
  0
LINE
  8
Layer1
  6
DASHED1
 62
7
 10
714.995
 20
201.174
 11
716.88
 21
190.208
  0
LINE
  8
Layer1
  6
DASHED1
 62
7
 10
713.11
 20
195.691
 11
714.052
 21
184.697
  0
LINE
  8
Layer1
  6
DASHED1
 62
7
 10
715.231
 20
206.657
 11
715.938
 21
195.691
  0
LINE
  8
Layer1
  6
DASHED1
 62
7
 10
717.823
 20
206.657
 11
717.823
 21
201.174
  0
LINE
  8
Layer1
  6
DASHED1
 62
7
 10
691.427
 20
184.697
 11
694.255
 21
184.697
  0
LINE
  8
Layer1
  6
DASHED1
 62
7
 10
689.541
 20
201.174
 11
692.37
 21
201.174
  0
LINE
  8
Layer1
  6
DASHED1
 62
7
 10
691.427
 20
190.208
 11
694.255
 21
190.208
  0
LINE
  8
Layer1
  6
DASHED1
 62
7
 10
692.37
 20
206.657
 11
692.37
 21
201.174
  0
LINE
  8
Layer1
  6
DASHED1
 62
7
 10
689.541
 20
206.657
 11
689.541
 21
201.174
  0
LINE
  8
Layer1
  6
DASHED1
 62
7
 10
691.427
 20
190.208
 11
691.427
 21
184.697
  0
LINE
  8
Layer1
  6
DASHED1
 62
7
 10
694.255
 20
190.208
 11
694.255
 21
184.697
  0
LINE
  8
Layer1
  6
DASHED1
 62
7
 10
689.541
 20
201.174
 11
691.427
 21
190.208
  0
LINE
  8
Layer1
  6
DASHED1
 62
7
 10
692.37
 20
201.174
 11
694.255
 21
190.208
  0
LINE
  8
Layer1
  6
DASHED1
 62
7
 10
690.484
 20
195.691
 11
691.427
 21
184.697
  0
LINE
  8
Layer1
  6
DASHED1
 62
7
 10
692.605
 20
206.657
 11
693.312
 21
195.691
  0
LINE
  8
Layer1
  6
DASHED1
 62
7
 10
680.114
 20
184.697
 11
682.942
 21
184.697
  0
LINE
  8
Layer1
  6
DASHED1
 62
7
 10
681.057
 20
206.657
 11
678.229
 21
206.657
  0
LINE
  8
Layer1
  6
DASHED1
 62
7
 10
678.229
 20
201.174
 11
681.057
 21
201.174
  0
LINE
  8
Layer1
  6
DASHED1
 62
7
 10
680.114
 20
190.208
 11
682.942
 21
190.208
  0
LINE
  8
Layer1
  6
DASHED1
 62
7
 10
681.057
 20
206.657
 11
681.057
 21
201.174
  0
LINE
  8
Layer1
  6
DASHED1
 62
7
 10
678.229
 20
206.657
 11
678.229
 21
201.174
  0
LINE
  8
Layer1
  6
DASHED1
 62
7
 10
680.114
 20
190.208
 11
680.114
 21
184.697
  0
LINE
  8
Layer1
  6
DASHED1
 62
7
 10
682.942
 20
190.208
 11
682.942
 21
184.697
  0
LINE
  8
Layer1
  6
DASHED1
 62
7
 10
678.229
 20
201.174
 11
680.114
 21
190.208
  0
LINE
  8
Layer1
  6
DASHED1
 62
7
 10
681.057
 20
201.174
 11
682.942
 21
190.208
  0
LINE
  8
Layer1
  6
DASHED1
 62
7
 10
679.171
 20
195.691
 11
680.114
 21
184.697
  0
LINE
  8
Layer1
  6
DASHED1
 62
7
 10
681.293
 20
206.657
 11
682
 21
195.691
  0
LINE
  8
Layer1
  6
DASHED1
 62
7
 10
692.37
 20
206.657
 11
689.541
 21
206.657
  0
LINE
  8
Layer1
  6
DASHED1
 62
7
 10
686.713
 20
206.657
 11
683.885
 21
206.657
  0
LINE
  8
Layer1
  6
DASHED1
 62
7
 10
685.77
 20
184.697
 11
688.599
 21
184.697
  0
LINE
  8
Layer1
  6
DASHED1
 62
7
 10
691.427
 20
184.697
 11
694.255
 21
184.697
  0
LINE
  8
Layer1
  6
DASHED1
 62
7
 10
692.37
 20
206.657
 11
689.541
 21
206.657
  0
LINE
  8
Layer1
  6
DASHED1
 62
7
 10
689.541
 20
201.174
 11
692.37
 21
201.174
  0
LINE
  8
Layer1
  6
DASHED1
 62
7
 10
691.427
 20
190.208
 11
694.255
 21
190.208
  0
LINE
  8
Layer1
  6
DASHED1
 62
7
 10
692.37
 20
206.657
 11
692.37
 21
201.174
  0
LINE
  8
Layer1
  6
DASHED1
 62
7
 10
689.541
 20
206.657
 11
689.541
 21
201.174
  0
LINE
  8
Layer1
  6
DASHED1
 62
7
 10
691.427
 20
190.208
 11
691.427
 21
184.697
  0
LINE
  8
Layer1
  6
DASHED1
 62
7
 10
694.255
 20
190.208
 11
694.255
 21
184.697
  0
LINE
  8
Layer1
  6
DASHED1
 62
7
 10
689.541
 20
201.174
 11
691.427
 21
190.208
  0
LINE
  8
Layer1
  6
DASHED1
 62
7
 10
692.37
 20
201.174
 11
694.255
 21
190.208
  0
LINE
  8
Layer1
  6
DASHED1
 62
7
 10
690.484
 20
195.691
 11
691.427
 21
184.697
  0
LINE
  8
Layer1
  6
DASHED1
 62
7
 10
692.605
 20
206.657
 11
693.312
 21
195.691
  0
LINE
  8
Layer1
  6
DASHED1
 62
7
 10
686.713
 20
206.657
 11
683.885
 21
206.657
  0
LINE
  8
Layer1
  6
DASHED1
 62
7
 10
683.885
 20
201.174
 11
686.713
 21
201.174
  0
LINE
  8
Layer1
  6
DASHED1
 62
7
 10
685.77
 20
190.208
 11
688.599
 21
190.208
  0
LINE
  8
Layer1
  6
DASHED1
 62
7
 10
686.713
 20
206.657
 11
686.713
 21
201.174
  0
LINE
  8
Layer1
  6
DASHED1
 62
7
 10
683.885
 20
206.657
 11
683.885
 21
201.174
  0
LINE
  8
Layer1
  6
DASHED1
 62
7
 10
685.77
 20
190.208
 11
685.77
 21
186.646
  0
LINE
  8
Layer1
  6
DASHED1
 62
7
 10
688.599
 20
190.208
 11
688.599
 21
185.382
  0
LINE
  8
Layer1
  6
DASHED1
 62
7
 10
683.885
 20
201.174
 11
685.77
 21
190.208
  0
LINE
  8
Layer1
  6
DASHED1
 62
7
 10
686.713
 20
201.174
 11
688.599
 21
190.208
  0
LINE
  8
Layer1
  6
DASHED1
 62
7
 10
684.828
 20
195.691
 11
685.595
 21
186.741
  0
LINE
  8
Layer1
  6
DASHED1
 62
7
 10
686.949
 20
206.657
 11
687.656
 21
195.691
  0
LINE
  8
Layer1
  6
DASHED1
 62
7
 10
685.77
 20
184.697
 11
685.56
 21
187.149
  0
LINE
  8
Layer1
  6
DASHED1
 62
7
 10
685.77
 20
186.646
 11
685.77
 21
184.697
  0
LINE
  8
Layer1
  6
DASHED1
 62
7
 10
688.599
 20
185.382
 11
688.599
 21
184.697
  0
LINE
  8
Layer1
  6
DASHED1
 62
7
 10
697.083
 20
184.697
 11
699.911
 21
184.697
  0
LINE
  8
Layer1
  6
DASHED1
 62
7
 10
698.026
 20
206.657
 11
695.198
 21
206.657
  0
LINE
  8
Layer1
  6
DASHED1
 62
7
 10
695.198
 20
201.174
 11
698.026
 21
201.174
  0
LINE
  8
Layer1
  6
DASHED1
 62
7
 10
697.083
 20
190.208
 11
699.911
 21
190.208
  0
LINE
  8
Layer1
  6
DASHED1
 62
7
 10
698.026
 20
206.657
 11
698.026
 21
201.174
  0
LINE
  8
Layer1
  6
DASHED1
 62
7
 10
695.198
 20
206.657
 11
695.198
 21
201.174
  0
LINE
  8
Layer1
  6
DASHED1
 62
7
 10
697.083
 20
190.208
 11
697.083
 21
184.697
  0
LINE
  8
Layer1
  6
DASHED1
 62
7
 10
699.911
 20
190.208
 11
699.911
 21
184.697
  0
LINE
  8
Layer1
  6
DASHED1
 62
7
 10
695.198
 20
201.174
 11
697.083
 21
190.208
  0
LINE
  8
Layer1
  6
DASHED1
 62
7
 10
698.026
 20
201.174
 11
699.911
 21
190.208
  0
LINE
  8
Layer1
  6
DASHED1
 62
7
 10
696.14
 20
195.691
 11
697.083
 21
184.697
  0
LINE
  8
Layer1
  6
DASHED1
 62
7
 10
698.262
 20
206.657
 11
698.969
 21
195.691
  0
LINE
  8
Layer1
  6
DASHED1
 62
7
 10
674.458
 20
184.697
 11
677.286
 21
184.697
  0
LINE
  8
Layer1
  6
DASHED1
 62
7
 10
681.057
 20
206.657
 11
678.229
 21
206.657
  0
LINE
  8
Layer1
  6
DASHED1
 62
7
 10
680.114
 20
184.697
 11
682.942
 21
184.697
  0
LINE
  8
Layer1
  6
DASHED1
 62
7
 10
681.057
 20
206.657
 11
678.229
 21
206.657
  0
LINE
  8
Layer1
  6
DASHED1
 62
7
 10
678.229
 20
201.174
 11
681.057
 21
201.174
  0
LINE
  8
Layer1
  6
DASHED1
 62
7
 10
680.114
 20
190.208
 11
682.942
 21
190.208
  0
LINE
  8
Layer1
  6
DASHED1
 62
7
 10
681.057
 20
206.657
 11
681.057
 21
201.174
  0
LINE
  8
Layer1
  6
DASHED1
 62
7
 10
678.229
 20
206.657
 11
678.229
 21
201.174
  0
LINE
  8
Layer1
  6
DASHED1
 62
7
 10
680.114
 20
190.208
 11
680.114
 21
186.646
  0
LINE
  8
Layer1
  6
DASHED1
 62
7
 10
682.942
 20
190.208
 11
682.942
 21
185.382
  0
LINE
  8
Layer1
  6
DASHED1
 62
7
 10
678.229
 20
201.174
 11
680.114
 21
190.208
  0
LINE
  8
Layer1
  6
DASHED1
 62
7
 10
681.057
 20
201.174
 11
682.942
 21
190.208
  0
LINE
  8
Layer1
  6
DASHED1
 62
7
 10
679.171
 20
195.691
 11
679.939
 21
186.741
  0
LINE
  8
Layer1
  6
DASHED1
 62
7
 10
681.293
 20
206.657
 11
682
 21
195.691
  0
LINE
  8
Layer1
  6
DASHED1
 62
7
 10
680.114
 20
184.697
 11
679.904
 21
187.149
  0
LINE
  8
Layer1
  6
DASHED1
 62
7
 10
680.114
 20
186.646
 11
680.114
 21
184.697
  0
LINE
  8
Layer1
  6
DASHED1
 62
7
 10
682.942
 20
185.382
 11
682.942
 21
184.697
  0
LINE
  8
Layer1
  6
DASHED1
 62
7
 10
675.401
 20
206.657
 11
674.273
 21
206.657
  0
LINE
  8
Layer1
  6
DASHED1
 62
7
 10
674.273
 20
201.174
 11
675.401
 21
201.174
  0
LINE
  8
Layer1
  6
DASHED1
 62
7
 10
674.458
 20
190.208
 11
677.286
 21
190.208
  0
LINE
  8
Layer1
  6
DASHED1
 62
7
 10
675.401
 20
206.657
 11
675.401
 21
201.174
  0
LINE
  8
Layer1
  6
DASHED1
 62
7
 10
674.458
 20
190.208
 11
674.458
 21
184.697
  0
LINE
  8
Layer1
  6
DASHED1
 62
7
 10
677.286
 20
190.208
 11
677.286
 21
184.697
  0
LINE
  8
Layer1
  6
DASHED1
 62
7
 10
675.401
 20
201.174
 11
677.286
 21
190.208
  0
LINE
  8
Layer1
  6
DASHED1
 62
7
 10
675.636
 20
206.657
 11
676.343
 21
195.691
  0
LINE
  8
Layer1
  6
CONTINUOUS
 62
7
 10
749.458
 20
202.177
 11
664.273
 21
202.177
  0
LINE
  8
Layer1
  6
CONTINUOUS
 62
7
 10
663.273
 20
201.177
 11
664.273
 21
202.177
  0
LINE
  8
Layer1
  6
CONTINUOUS
 62
7
 10
822.273
 20
202.177
 11
823.273
 21
201.177
  0
LINE
  8
Layer1
  6
CONTINUOUS
 62
7
 10
846.28
 20
188.177
 11
846.28
 21
274.177
  0
LINE
  8
Layer1
  6
CONTINUOUS
 62
7
 10
823.273
 20
228.177
 11
822.473
 21
228.177
  0
LINE
  8
Layer1
  6
CONTINUOUS
 62
7
 10
823.273
 20
220.177
 11
822.473
 21
220.177
  0
LINE
  8
Layer1
  6
CONTINUOUS
 62
7
 10
822.473
 20
228.177
 11
822.473
 21
220.177
  0
LINE
  8
Layer1
  6
CONTINUOUS
 62
7
 10
821.273
 20
226.977
 11
821.273
 21
221.377
  0
LINE
  8
Layer1
  6
CONTINUOUS
 62
7
 10
822.473
 20
228.177
 11
821.273
 21
226.977
  0
LINE
  8
Layer1
  6
CONTINUOUS
 62
7
 10
822.473
 20
220.177
 11
821.273
 21
221.377
  0
LINE
  8
Layer1
  6
CONTINUOUS
 62
7
 10
823.273
 20
227.577
 11
821.873
 21
227.577
  0
LINE
  8
Layer1
  6
CONTINUOUS
 62
7
 10
823.273
 20
220.777
 11
821.873
 21
220.777
  0
LINE
  8
Layer1
  6
CONTINUOUS
 62
7
 10
845.285
 20
275.177
 11
846.285
 21
274.177
  0
LINE
  8
Layer1
  6
CONTINUOUS
 62
7
 10
846.285
 20
188.177
 11
845.285
 21
187.177
  0
LINE
  8
Layer1
  6
CONTINUOUS
 62
7
 10
846.295
 20
226.683
 11
852.07
 21
226.683
  0
LINE
  8
Layer1
  6
CONTINUOUS
 62
7
 10
852.07
 20
226.683
 11
852.795
 21
225.427
  0
LINE
  8
Layer1
  6
CONTINUOUS
 62
7
 10
852.795
 20
225.427
 11
852.795
 21
212.927
  0
LINE
  8
Layer1
  6
CONTINUOUS
 62
7
 10
852.795
 20
212.927
 11
852.07
 21
211.671
  0
LINE
  8
Layer1
  6
CONTINUOUS
 62
7
 10
852.07
 20
211.671
 11
846.295
 21
211.671
  0
LINE
  8
Layer1
  6
CONTINUOUS
 62
7
 10
846.295
 20
222.93
 11
852.07
 21
222.93
  0
LINE
  8
Layer1
  6
CONTINUOUS
 62
7
 10
846.295
 20
215.424
 11
852.07
 21
215.424
  0
LINE
  8
Layer1
  6
CONTINUOUS
 62
7
 10
852.795
 20
223.177
 11
855.095
 21
223.177
  0
LINE
  8
Layer1
  6
CONTINUOUS
 62
7
 10
852.795
 20
215.177
 11
855.095
 21
215.177
  0
LINE
  8
Layer1
  6
CONTINUOUS
 62
7
 10
855.095
 20
223.177
 11
855.095
 21
215.177
  0
LINE
  8
Layer1
  6
CONTINUOUS
 62
7
 10
856.295
 20
221.977
 11
856.295
 21
216.377
  0
LINE
  8
Layer1
  6
CONTINUOUS
 62
7
 10
855.095
 20
223.177
 11
856.295
 21
221.977
  0
LINE
  8
Layer1
  6
CONTINUOUS
 62
7
 10
855.095
 20
215.177
 11
856.295
 21
216.377
  0
LINE
  8
Layer1
  6
CONTINUOUS
 62
7
 10
852.795
 20
222.577
 11
855.695
 21
222.577
  0
LINE
  8
Layer1
  6
CONTINUOUS
 62
7
 10
852.795
 20
215.777
 11
855.695
 21
215.777
  0
ARC
  8
Layer1
  6
CONTINUOUS
 62
7
 10
840.231
 20
219.177
 40
12.419
 50
342.412
 51
17.588
  0
ARC
  8
Layer1
  6
CONTINUOUS
 62
7
 10
849.328
 20
224.806
 40
3.323
 50
325.616
 51
34.384
  0
ARC
  8
Layer1
  6
CONTINUOUS
 62
7
 10
849.328
 20
213.548
 40
3.323
 50
325.616
 51
34.384
  0
LINE
  8
Layer1
  6
CONTINUOUS
 62
7
 10
846.295
 20
226.683
 11
846.295
 21
211.671
  0
LINE
  8
Layer1
  6
DASHED1
 62
7
 10
808.31
 20
296.177
 11
808.31
 21
357.177
  0
LINE
  8
Layer1
  6
DASHED1
 62
7
 10
773.31
 20
302.177
 11
773.31
 21
357.177
  0
LINE
  8
Layer1
  6
DASHED1
 62
7
 10
783.31
 20
292.177
 11
804.31
 21
292.177
  0
LINE
  8
Layer1
  6
DASHED1
 62
7
 10
808.31
 20
296.177
 11
804.31
 21
292.177
  0
LINE
  8
Layer1
  6
DASHED1
 62
7
 10
773.31
 20
302.177
 11
783.31
 21
292.177
  0
LINE
  8
Layer1
  6
CENTER1
 62
7
 10
754.128
 20
299.677
 11
780.557
 21
299.677
  0
LINE
  8
Layer1
  6
CENTER1
 62
7
 10
805.33
 20
299.677
 11
827.444
 21
299.677
  0
LINE
  8
Layer1
  6
CENTER1
 62
7
 10
741.276
 20
337.177
 11
780.917
 21
337.177
  0
LINE
  8
Layer1
  6
DASHED1
 62
7
 10
715.325
 20
224.891
 11
715.325
 21
214.177
  0
LINE
  8
Layer1
  6
DASHED1
 62
7
 10
717.325
 20
223.652
 11
717.325
 21
214.177
  0
LINE
  8
Layer1
  6
CONTINUOUS
 62
7
 10
663.273
 20
264.177
 11
661.273
 21
264.177
  0
LINE
  8
Layer1
  6
CONTINUOUS
 62
7
 10
663.273
 20
214.177
 11
661.273
 21
214.177
  0
LINE
  8
Layer1
  6
CONTINUOUS
 62
7
 10
715.325
 20
262.677
 11
717.325
 21
262.677
  0
LINE
  8
Layer1
  6
CONTINUOUS
 62
7
 10
715.325
 20
215.677
 11
717.325
 21
215.677
  0
POLYLINE
  8
Layer1
  6
CONTINUOUS
 62
7
 66
1
 10
0
 20
0
 30
0
  0
VERTEX
  8
Layer1
 10
686.273
 20
282.177
  0
VERTEX
  8
Layer1
 10
686.194
 20
280.637
  0
VERTEX
  8
Layer1
 10
686.14
 20
279.109
  0
VERTEX
  8
Layer1
 10
686.135
 20
277.603
  0
VERTEX
  8
Layer1
 10
686.203
 20
276.132
  0
VERTEX
  8
Layer1
 10
686.37
 20
274.707
  0
VERTEX
  8
Layer1
 10
686.659
 20
273.339
  0
VERTEX
  8
Layer1
 10
687.095
 20
272.04
  0
VERTEX
  8
Layer1
 10
687.702
 20
270.821
  0
VERTEX
  8
Layer1
 10
688.489
 20
269.686
  0
VERTEX
  8
Layer1
 10
689.413
 20
268.614
  0
VERTEX
  8
Layer1
 10
690.428
 20
267.58
  0
VERTEX
  8
Layer1
 10
691.483
 20
266.562
  0
VERTEX
  8
Layer1
 10
692.53
 20
265.534
  0
VERTEX
  8
Layer1
 10
693.521
 20
264.473
  0
VERTEX
  8
Layer1
 10
694.411
 20
263.356
  0
VERTEX
  8
Layer1
 10
695.191
 20
262.179
  0
VERTEX
  8
Layer1
 10
695.875
 20
260.949
  0
VERTEX
  8
Layer1
 10
696.475
 20
259.671
  0
VERTEX
  8
Layer1
 10
697.002
 20
258.351
  0
VERTEX
  8
Layer1
 10
697.471
 20
256.996
  0
VERTEX
  8
Layer1
 10
697.892
 20
255.611
  0
VERTEX
  8
Layer1
 10
698.279
 20
254.203
  0
VERTEX
  8
Layer1
 10
698.643
 20
252.777
  0
VERTEX
  8
Layer1
 10
698.998
 20
251.341
  0
VERTEX
  8
Layer1
 10
699.356
 20
249.898
  0
VERTEX
  8
Layer1
 10
699.73
 20
248.457
  0
VERTEX
  8
Layer1
 10
700.129
 20
247.022
  0
VERTEX
  8
Layer1
 10
700.559
 20
245.597
  0
VERTEX
  8
Layer1
 10
701.02
 20
244.185
  0
VERTEX
  8
Layer1
 10
701.514
 20
242.79
  0
VERTEX
  8
Layer1
 10
702.042
 20
241.414
  0
VERTEX
  8
Layer1
 10
702.607
 20
240.061
  0
VERTEX
  8
Layer1
 10
703.21
 20
238.734
  0
VERTEX
  8
Layer1
 10
703.852
 20
237.436
  0
VERTEX
  8
Layer1
 10
704.535
 20
236.171
  0
VERTEX
  8
Layer1
 10
705.261
 20
234.941
  0
VERTEX
  8
Layer1
 10
706.03
 20
233.75
  0
VERTEX
  8
Layer1
 10
706.846
 20
232.6
  0
VERTEX
  8
Layer1
 10
707.709
 20
231.496
  0
VERTEX
  8
Layer1
 10
708.621
 20
230.439
  0
VERTEX
  8
Layer1
 10
709.582
 20
229.434
  0
VERTEX
  8
Layer1
 10
710.593
 20
228.477
  0
VERTEX
  8
Layer1
 10
711.647
 20
227.567
  0
VERTEX
  8
Layer1
 10
712.743
 20
226.698
  0
VERTEX
  8
Layer1
 10
713.877
 20
225.867
  0
VERTEX
  8
Layer1
 10
715.044
 20
225.071
  0
VERTEX
  8
Layer1
 10
716.243
 20
224.305
  0
VERTEX
  8
Layer1
 10
717.468
 20
223.566
  0
VERTEX
  8
Layer1
 10
718.716
 20
222.85
  0
VERTEX
  8
Layer1
 10
719.985
 20
222.154
  0
VERTEX
  8
Layer1
 10
721.27
 20
221.473
  0
VERTEX
  8
Layer1
 10
722.568
 20
220.805
  0
VERTEX
  8
Layer1
 10
723.876
 20
220.144
  0
VERTEX
  8
Layer1
 10
725.189
 20
219.488
  0
VERTEX
  8
Layer1
 10
726.504
 20
218.833
  0
VERTEX
  8
Layer1
 10
727.819
 20
218.175
  0
VERTEX
  8
Layer1
 10
729.128
 20
217.511
  0
VERTEX
  8
Layer1
 10
730.43
 20
216.836
  0
VERTEX
  8
Layer1
 10
731.719
 20
216.147
  0
VERTEX
  8
Layer1
 10
732.994
 20
215.44
  0
VERTEX
  8
Layer1
 10
734.249
 20
214.711
  0
VERTEX
  8
Layer1
 10
735.482
 20
213.957
  0
VERTEX
  8
Layer1
 10
736.691
 20
213.176
  0
VERTEX
  8
Layer1
 10
737.875
 20
212.368
  0
VERTEX
  8
Layer1
 10
739.037
 20
211.533
  0
VERTEX
  8
Layer1
 10
740.176
 20
210.674
  0
VERTEX
  8
Layer1
 10
741.293
 20
209.79
  0
VERTEX
  8
Layer1
 10
742.389
 20
208.882
  0
VERTEX
  8
Layer1
 10
743.465
 20
207.951
  0
VERTEX
  8
Layer1
 10
744.521
 20
206.999
  0
VERTEX
  8
Layer1
 10
745.558
 20
206.025
  0
VERTEX
  8
Layer1
 10
746.577
 20
205.031
  0
VERTEX
  8
Layer1
 10
747.579
 20
204.017
  0
VERTEX
  8
Layer1
 10
748.564
 20
202.985
  0
VERTEX
  8
Layer1
 10
749.533
 20
201.935
  0
VERTEX
  8
Layer1
 10
750.487
 20
200.867
  0
VERTEX
  8
Layer1
 10
751.426
 20
199.783
  0
VERTEX
  8
Layer1
 10
752.352
 20
198.684
  0
VERTEX
  8
Layer1
 10
753.264
 20
197.57
  0
VERTEX
  8
Layer1
 10
754.164
 20
196.442
  0
VERTEX
  8
Layer1
 10
755.053
 20
195.301
  0
VERTEX
  8
Layer1
 10
755.93
 20
194.148
  0
VERTEX
  8
Layer1
 10
756.798
 20
192.983
  0
VERTEX
  8
Layer1
 10
757.656
 20
191.808
  0
VERTEX
  8
Layer1
 10
758.505
 20
190.623
  0
VERTEX
  8
Layer1
 10
759.346
 20
189.43
  0
VERTEX
  8
Layer1
 10
760.18
 20
188.227
  0
VERTEX
  8
Layer1
 10
761.008
 20
187.018
  0
VERTEX
  8
Layer1
 10
761.83
 20
185.802
  0
VERTEX
  8
Layer1
 10
762.646
 20
184.581
  0
VERTEX
  8
Layer1
 10
763.459
 20
183.354
  0
VERTEX
  8
Layer1
 10
764.267
 20
182.123
  0
VERTEX
  8
Layer1
 10
765.073
 20
180.89
  0
VERTEX
  8
Layer1
 10
765.876
 20
179.653
  0
VERTEX
  8
Layer1
 10
766.679
 20
178.415
  0
VERTEX
  8
Layer1
 10
767.48
 20
177.177
  0
SEQEND
  0
LINE
  8
Layer1
  6
CONTINUOUS
 62
7
 10
754.59
 20
206.657
 11
751.761
 21
206.657
  0
LINE
  8
Layer1
  6
CONTINUOUS
 62
7
 10
751.761
 20
201.174
 11
754.59
 21
201.174
  0
LINE
  8
Layer1
  6
DASHED1
 62
7
 10
753.647
 20
190.208
 11
756.475
 21
190.208
  0
LINE
  8
Layer1
  6
CONTINUOUS
 62
7
 10
754.59
 20
206.657
 11
754.59
 21
201.174
  0
LINE
  8
Layer1
  6
CONTINUOUS
 62
7
 10
751.761
 20
206.657
 11
751.761
 21
201.174
  0
LINE
  8
Layer1
  6
DASHED1
 62
7
 10
753.647
 20
190.208
 11
753.647
 21
184.697
  0
LINE
  8
Layer1
  6
DASHED1
 62
7
 10
756.475
 20
190.208
 11
756.475
 21
184.697
  0
LINE
  8
Layer1
  6
CONTINUOUS
 62
7
 10
751.761
 20
201.174
 11
752.148
 21
198.926
  0
LINE
  8
Layer1
  6
CONTINUOUS
 62
7
 10
754.59
 20
201.174
 11
755.435
 21
196.255
  0
LINE
  8
Layer1
  6
DASHED1
 62
7
 10
752.704
 20
195.691
 11
753.647
 21
184.697
  0
LINE
  8
Layer1
  6
CONTINUOUS
 62
7
 10
754.825
 20
206.657
 11
755.532
 21
195.691
  0
LINE
  8
Layer1
  6
DASHED1
 62
7
 10
749.458
 20
202.177
 11
749.876
 21
195.691
  0
LINE
  8
Layer1
  6
DASHED1
 62
7
 10
746.105
 20
205.246
 11
746.105
 21
201.174
  0
LINE
  8
Layer1
  6
DASHED1
 62
7
 10
748.933
 20
202.521
 11
748.933
 21
201.174
  0
LINE
  8
Layer1
  6
DASHED1
 62
7
 10
752.148
 20
198.926
 11
753.647
 21
190.208
  0
LINE
  8
Layer1
  6
DASHED1
 62
7
 10
755.759
 20
194.374
 11
756.475
 21
190.208
  0
LINE
  8
Layer1
  6
CONTINUOUS
 62
7
 10
755.435
 20
196.255
 11
755.759
 21
194.374
  0
LINE
  8
Layer1
  6
CONTINUOUS
 62
7
 10
760.246
 20
206.657
 11
757.418
 21
206.657
  0
LINE
  8
Layer1
  6
CONTINUOUS
 62
7
 10
757.418
 20
201.174
 11
760.246
 21
201.174
  0
LINE
  8
Layer1
  6
CONTINUOUS
 62
7
 10
759.303
 20
190.208
 11
762.131
 21
190.208
  0
LINE
  8
Layer1
  6
CONTINUOUS
 62
7
 10
760.246
 20
206.657
 11
760.246
 21
201.174
  0
LINE
  8
Layer1
  6
CONTINUOUS
 62
7
 10
757.418
 20
206.657
 11
757.418
 21
201.174
  0
LINE
  8
Layer1
  6
CONTINUOUS
 62
7
 10
759.303
 20
190.208
 11
759.303
 21
189.462
  0
LINE
  8
Layer1
  6
CONTINUOUS
 62
7
 10
762.131
 20
190.208
 11
762.131
 21
185.327
  0
LINE
  8
Layer1
  6
CONTINUOUS
 62
7
 10
757.418
 20
201.174
 11
759.303
 21
190.208
  0
LINE
  8
Layer1
  6
CONTINUOUS
 62
7
 10
760.246
 20
201.174
 11
762.131
 21
190.208
  0
LINE
  8
Layer1
  6
CONTINUOUS
 62
7
 10
758.36
 20
195.691
 11
758.836
 21
190.145
  0
LINE
  8
Layer1
  6
CONTINUOUS
 62
7
 10
760.482
 20
206.657
 11
761.189
 21
195.691
  0
LINE
  8
Layer1
  6
DASHED1
 62
7
 10
758.836
 20
190.145
 11
759.303
 21
184.697
  0
LINE
  8
Layer1
  6
DASHED1
 62
7
 10
759.303
 20
189.462
 11
759.303
 21
184.697
  0
LINE
  8
Layer1
  6
DASHED1
 62
7
 10
762.131
 20
185.327
 11
762.131
 21
184.697
  0
LINE
  8
Layer1
  6
CONTINUOUS
 62
7
 10
717.325
 20
223.652
 11
717.325
 21
264.177
  0
LINE
  8
Layer1
  6
CONTINUOUS
 62
7
 10
715.325
 20
224.891
 11
715.325
 21
264.177
  0
LINE
  8
Layer1
  6
CONTINUOUS
 62
7
 10
693.773
 20
264.177
 11
790.273
 21
264.177
  0
LINE
  8
Layer1
  6
CONTINUOUS
 62
7
 10
690.269
 20
283.177
 11
686.14
 21
279.048
  0
LINE
  8
Layer1
  6
DASHED1
 62
7
 10
808.31
 20
300.927
 11
823.285
 21
300.927
  0
LINE
  8
Layer1
  6
CONTINUOUS
 62
7
 10
694.269
 20
283.177
 11
686.447
 21
275.355
  0
LINE
  8
Layer1
  6
CONTINUOUS
 62
7
 10
698.269
 20
283.177
 11
687.107
 21
272.015
  0
LINE
  8
Layer1
  6
CONTINUOUS
 62
7
 10
702.269
 20
283.177
 11
688.623
 21
269.531
  0
LINE
  8
Layer1
  6
CONTINUOUS
 62
7
 10
690.538
 20
267.446
 11
706.269
 21
283.177
  0
LINE
  8
Layer1
  6
CONTINUOUS
 62
7
 10
706.732
 20
279.64
 11
699.142
 21
272.05
  0
LINE
  8
Layer1
  6
CONTINUOUS
 62
7
 10
730.273
 20
283.177
 11
719.292
 21
272.196
  0
LINE
  8
Layer1
  6
CONTINUOUS
 62
7
 10
715.364
 20
272.267
 11
726.273
 21
283.177
  0
LINE
  8
Layer1
  6
CONTINUOUS
 62
7
 10
722.273
 20
283.177
 11
712.832
 21
273.735
  0
LINE
  8
Layer1
  6
CONTINUOUS
 62
7
 10
718.273
 20
283.177
 11
712.732
 21
277.635
  0
LINE
  8
Layer1
  6
CONTINUOUS
 62
7
 10
734.136
 20
271.039
 11
727.199
 21
264.102
  0
LINE
  8
Layer1
  6
CONTINUOUS
 62
7
 10
724.773
 20
265.677
 11
731.5
 21
272.404
  0
LINE
  8
Layer1
  6
CONTINUOUS
 62
7
 10
731.417
 20
276.321
 11
724.773
 21
269.677
  0
LINE
  8
Layer1
  6
CONTINUOUS
 62
7
 10
734.273
 20
283.177
 11
723.273
 21
272.177
  0
LINE
  8
Layer1
  6
CONTINUOUS
 62
7
 10
756.021
 20
276.925
 11
745.273
 21
266.177
  0
LINE
  8
Layer1
  6
CONTINUOUS
 62
7
 10
748.075
 20
272.979
 11
756.021
 21
280.925
  0
LINE
  8
Layer1
  6
CONTINUOUS
 62
7
 10
754.269
 20
283.177
 11
747.413
 21
276.282
  0
LINE
  8
Layer1
  6
CONTINUOUS
 62
7
 10
750.273
 20
283.177
 11
747.757
 21
280.661
  0
LINE
  8
Layer1
  6
CONTINUOUS
 62
7
 10
756.021
 20
268.925
 11
751.375
 21
264.279
  0
LINE
  8
Layer1
  6
CONTINUOUS
 62
7
 10
747.296
 20
264.2
 11
756.021
 21
272.925
  0
LINE
  8
Layer1
  6
CONTINUOUS
 62
7
 10
734.273
 20
267.177
 11
731.531
 21
264.435
  0
LINE
  8
Layer1
  6
CONTINUOUS
 62
7
 10
731.773
 20
272.245
 11
747.773
 21
272.245
  0
LINE
  8
Layer1
  6
CONTINUOUS
 62
7
 10
731.773
 20
272.245
 11
731.773
 21
281.645
  0
LINE
  8
Layer1
  6
CONTINUOUS
 62
7
 10
747.773
 20
272.245
 11
747.773
 21
281.645
  0
LINE
  8
Layer1
  6
CONTINUOUS
 62
7
 10
731.773
 20
281.645
 11
747.773
 21
281.645
  0
LINE
  8
Layer1
  6
CONTINUOUS
 62
7
 10
732.373
 20
282.245
 11
747.173
 21
282.245
  0
LINE
  8
Layer1
  6
CONTINUOUS
 62
7
 10
731.773
 20
281.645
 11
732.373
 21
282.245
  0
LINE
  8
Layer1
  6
CONTINUOUS
 62
7
 10
747.773
 20
281.645
 11
747.173
 21
282.245
  0
LINE
  8
Layer1
  6
CONTINUOUS
 62
7
 10
732.773
 20
272.832
 11
732.773
 21
281.057
  0
LINE
  8
Layer1
  6
CONTINUOUS
 62
7
 10
733.773
 20
273.42
 11
733.773
 21
280.47
  0
LINE
  8
Layer1
  6
CONTINUOUS
 62
7
 10
734.773
 20
274.007
 11
734.773
 21
279.882
  0
LINE
  8
Layer1
  6
CONTINUOUS
 62
7
 10
735.773
 20
274.595
 11
735.773
 21
279.295
  0
LINE
  8
Layer1
  6
CONTINUOUS
 62
7
 10
736.773
 20
275.182
 11
736.773
 21
278.707
  0
LINE
  8
Layer1
  6
CONTINUOUS
 62
7
 10
737.773
 20
275.77
 11
737.773
 21
278.12
  0
LINE
  8
Layer1
  6
CONTINUOUS
 62
7
 10
745.188
 20
264.177
 11
745.188
 21
272.245
  0
LINE
  8
Layer1
  6
CONTINUOUS
 62
7
 10
734.273
 20
264.177
 11
734.273
 21
272.421
  0
LINE
  8
Layer1
  6
PHANTOM1
 62
7
 10
624.273
 20
264.177
 11
602.273
 21
264.177
  0
LINE
  8
Layer1
  6
PHANTOM1
 62
7
 10
601.273
 20
215.177
 11
601.273
 21
263.177
  0
LINE
  8
Layer1
  6
PHANTOM1
 62
7
 10
624.273
 20
214.177
 11
602.273
 21
214.177
  0
LINE
  8
Layer1
  6
PHANTOM1
 62
7
 10
602.273
 20
264.177
 11
601.273
 21
263.177
  0
LINE
  8
Layer1
  6
PHANTOM1
 62
7
 10
601.273
 20
215.177
 11
602.273
 21
214.177
  0
LINE
  8
Layer1
  6
PHANTOM1
 62
7
 10
624.273
 20
214.177
 11
625.273
 21
215.177
  0
LINE
  8
Layer1
  6
PHANTOM1
 62
7
 10
624.273
 20
264.177
 11
625.273
 21
263.177
  0
LINE
  8
Layer1
  6
PHANTOM1
 62
7
 10
625.273
 20
263.177
 11
625.273
 21
215.177
  0
TEXT
  8
Layer1
 62
7
 10
661.773
 20
291.309
 72
1
 11
661.773
 21
291.309
 40
8
 41
1
  1
 3 
  0
LINE
  8
Layer1
  6
CONTINUOUS
 62
7
 10
660.273
 20
263.177
 11
660.273
 21
293.309
  0
LINE
  8
Layer1
  6
CONTINUOUS
 62
7
 10
663.273
 20
281.177
 11
663.273
 21
293.309
  0
POLYLINE
  8
Layer1
  6
CONTINUOUS
 62
7
 66
1
 10
0
 20
0
 30
0
  0
VERTEX
  8
Layer1
 10
650.273
 20
291.309
  0
VERTEX
  8
Layer1
 10
660.273
 20
291.309
  0
SEQEND
  0
POLYLINE
  8
Layer1
  6
CONTINUOUS
 62
7
 66
1
 10
0
 20
0
 30
0
 70
1
  0
VERTEX
  8
Layer1
 10
656.409
 20
292.345
  0
VERTEX
  8
Layer1
 10
660.273
 20
291.309
  0
VERTEX
  8
Layer1
 10
656.409
 20
290.274
  0
SEQEND
  0
POLYLINE
  8
Layer1
  6
CONTINUOUS
 62
7
 66
1
 10
0
 20
0
 30
0
  0
VERTEX
  8
Layer1
 10
673.273
 20
291.309
  0
VERTEX
  8
Layer1
 10
663.273
 20
291.309
  0
SEQEND
  0
POLYLINE
  8
Layer1
  6
CONTINUOUS
 62
7
 66
1
 10
0
 20
0
 30
0
 70
1
  0
VERTEX
  8
Layer1
 10
667.137
 20
290.274
  0
VERTEX
  8
Layer1
 10
663.273
 20
291.309
  0
VERTEX
  8
Layer1
 10
667.137
 20
292.345
  0
SEQEND
  0
LINE
  8
Layer1
  6
CONTINUOUS
 62
7
 10
660.273
 20
291.309
 11
663.273
 21
291.309
  0
TEXT
  8
Layer1
 62
7
 10
648.273
 20
291.309
 72
1
 11
648.273
 21
291.309
 40
8
 41
1
  1
 24 
  0
LINE
  8
Layer1
  6
CONTINUOUS
 62
7
 10
660.273
 20
263.177
 11
660.273
 21
293.309
  0
LINE
  8
Layer1
  6
CONTINUOUS
 62
7
 10
636.273
 20
263.177
 11
636.273
 21
293.309
  0
POLYLINE
  8
Layer1
  6
CONTINUOUS
 62
7
 66
1
 10
0
 20
0
 30
0
  0
VERTEX
  8
Layer1
 10
660.273
 20
291.309
  0
VERTEX
  8
Layer1
 10
636.273
 20
291.309
  0
SEQEND
  0
POLYLINE
  8
Layer1
  6
CONTINUOUS
 62
7
 66
1
 10
0
 20
0
 30
0
 70
1
  0
VERTEX
  8
Layer1
 10
656.409
 20
292.345
  0
VERTEX
  8
Layer1
 10
660.273
 20
291.309
  0
VERTEX
  8
Layer1
 10
656.409
 20
290.274
  0
SEQEND
  0
POLYLINE
  8
Layer1
  6
CONTINUOUS
 62
7
 66
1
 10
0
 20
0
 30
0
 70
1
  0
VERTEX
  8
Layer1
 10
640.137
 20
290.274
  0
VERTEX
  8
Layer1
 10
636.273
 20
291.309
  0
VERTEX
  8
Layer1
 10
640.137
 20
292.345
  0
SEQEND
  0
TEXT
  8
Layer1
 62
7
 10
622.54
 20
173.967
 72
1
 11
622.54
 21
173.967
 40
6
 41
1
  1
35ストローク 
  0
LINE
  8
Layer1
  6
CONTINUOUS
 62
7
 10
601.273
 20
215.177
 11
601.273
 21
187.677
  0
LINE
  8
Layer1
  6
CONTINUOUS
 62
7
 10
636.273
 20
215.177
 11
636.273
 21
187.677
  0
POLYLINE
  8
Layer1
  6
CONTINUOUS
 62
7
 66
1
 10
0
 20
0
 30
0
  0
VERTEX
  8
Layer1
 10
601.273
 20
189.677
  0
VERTEX
  8
Layer1
 10
636.273
 20
189.677
  0
SEQEND
  0
POLYLINE
  8
Layer1
  6
CONTINUOUS
 62
7
 66
1
 10
0
 20
0
 30
0
 70
1
  0
VERTEX
  8
Layer1
 10
605.137
 20
188.641
  0
VERTEX
  8
Layer1
 10
601.273
 20
189.677
  0
VERTEX
  8
Layer1
 10
605.137
 20
190.712
  0
SEQEND
  0
POLYLINE
  8
Layer1
  6
CONTINUOUS
 62
7
 66
1
 10
0
 20
0
 30
0
 70
1
  0
VERTEX
  8
Layer1
 10
632.409
 20
190.712
  0
VERTEX
  8
Layer1
 10
636.273
 20
189.677
  0
VERTEX
  8
Layer1
 10
632.409
 20
188.641
  0
SEQEND
  0
LINE
  8
Layer1
  6
PHANTOM1
 62
7
 10
756.98
 20
263.47
 11
785.566
 21
234.884
  0
LINE
  8
Layer1
  6
PHANTOM1
 62
7
 10
786.273
 20
233.177
 11
786.273
 21
215.177
  0
LINE
  8
Layer1
  6
PHANTOM1
 62
7
 10
786.273
 20
233.177
 11
785.566
 21
234.884
  0
TEXT
  8
Layer1
 62
7
 10
802.444
 20
282.477
 72
1
 11
802.444
 21
282.477
 40
8
 41
1
 50
22.4971
  1
 45°
  0
ARC
  8
Layer1
  6
CONTINUOUS
 62
7
 10
823.278
 20
232.171
 40
54.4497
 50
89.9943
 51
135
  0
LINE
  8
Layer1
  6
PHANTOM1
 62
7
 10
822.288
 20
303.177
 11
759.273
 21
303.177
  0
LINE
  8
Layer1
  6
PHANTOM1
 62
7
 10
759.273
 20
322.177
 11
822.302
 21
322.177
  0
LINE
  8
Layer1
  6
CONTINUOUS
 62
7
 10
846.28
 20
241.177
 11
857.58
 21
241.177
  0
LINE
  8
Layer1
  6
CONTINUOUS
 62
7
 10
846.28
 20
259.177
 11
857.58
 21
259.177
  0
LINE
  8
Layer1
  6
CONTINUOUS
 62
7
 10
857.58
 20
241.177
 11
857.58
 21
259.177
  0
LINE
  8
Layer1
  6
CONTINUOUS
 62
7
 10
858.28
 20
241.877
 11
858.28
 21
258.477
  0
LINE
  8
Layer1
  6
CONTINUOUS
 62
7
 10
857.58
 20
241.177
 11
858.28
 21
241.877
  0
LINE
  8
Layer1
  6
CONTINUOUS
 62
7
 10
857.58
 20
259.177
 11
858.28
 21
258.477
  0
LINE
  8
Layer1
  6
CONTINUOUS
 62
7
 10
846.28
 20
259.177
 11
846.28
 21
241.177
  0
LINE
  8
Layer1
  6
CONTINUOUS
 62
7
 10
846.28
 20
259.177
 11
857.58
 21
259.177
  0
LINE
  8
Layer1
  6
CONTINUOUS
 62
7
 10
846.907
 20
258.177
 11
856.952
 21
258.177
  0
LINE
  8
Layer1
  6
CONTINUOUS
 62
7
 10
847.535
 20
257.177
 11
856.324
 21
257.177
  0
LINE
  8
Layer1
  6
CONTINUOUS
 62
7
 10
855.696
 20
256.177
 11
848.163
 21
256.177
  0
LINE
  8
Layer1
  6
CONTINUOUS
 62
7
 10
855.069
 20
255.177
 11
848.791
 21
255.177
  0
LINE
  8
Layer1
  6
CONTINUOUS
 62
7
 10
854.441
 20
254.177
 11
849.419
 21
254.177
  0
LINE
  8
Layer1
  6
CONTINUOUS
 62
7
 10
853.813
 20
253.177
 11
850.046
 21
253.177
  0
LINE
  8
Layer1
  6
CONTINUOUS
 62
7
 10
853.185
 20
252.177
 11
850.674
 21
252.177
  0
LINE
  8
Layer1
  6
CONTINUOUS
 62
7
 10
846.295
 20
198.177
 11
857.595
 21
198.177
  0
LINE
  8
Layer1
  6
CONTINUOUS
 62
7
 10
857.595
 20
198.177
 11
857.595
 21
216.177
  0
LINE
  8
Layer1
  6
CONTINUOUS
 62
7
 10
858.295
 20
198.877
 11
858.295
 21
215.477
  0
LINE
  8
Layer1
  6
CONTINUOUS
 62
7
 10
857.595
 20
198.177
 11
858.295
 21
198.877
  0
LINE
  8
Layer1
  6
CONTINUOUS
 62
7
 10
857.595
 20
216.177
 11
858.295
 21
215.477
  0
LINE
  8
Layer1
  6
CONTINUOUS
 62
7
 10
846.285
 20
221.177
 11
846.285
 21
203.177
  0
LINE
  8
Layer1
  6
CONTINUOUS
 62
7
 10
856.28
 20
216.177
 11
857.595
 21
216.177
  0
LINE
  8
Layer1
  6
CONTINUOUS
 62
7
 10
853.945
 20
215.177
 11
856.967
 21
215.177
  0
LINE
  8
Layer1
  6
CONTINUOUS
 62
7
 10
853.349
 20
214.177
 11
856.339
 21
214.177
  0
LINE
  8
Layer1
  6
CONTINUOUS
 62
7
 10
855.712
 20
213.177
 11
852.784
 21
213.177
  0
LINE
  8
Layer1
  6
CONTINUOUS
 62
7
 10
855.084
 20
212.177
 11
852.324
 21
212.177
  0
LINE
  8
Layer1
  6
CONTINUOUS
 62
7
 10
854.456
 20
211.177
 11
852.628
 21
211.177
  0
LINE
  8
Layer1
  6
CONTINUOUS
 62
7
 10
853.828
 20
210.177
 11
850.062
 21
210.177
  0
LINE
  8
Layer1
  6
CONTINUOUS
 62
7
 10
853.201
 20
209.177
 11
850.689
 21
209.177
  0
TEXT
  8
Layer1
 62
7
 10
871.122
 20
228.677
 72
1
 11
871.122
 21
228.677
 40
8
 41
1
 50
90
  1
 43 
  0
LINE
  8
Layer1
  6
CONTINUOUS
 62
7
 10
850.965
 20
250.177
 11
873.122
 21
250.177
  0
LINE
  8
Layer1
  6
CONTINUOUS
 62
7
 10
850.985
 20
207.177
 11
873.122
 21
207.177
  0
POLYLINE
  8
Layer1
  6
CONTINUOUS
 62
7
 66
1
 10
0
 20
0
 30
0
  0
VERTEX
  8
Layer1
 10
871.122
 20
250.177
  0
VERTEX
  8
Layer1
 10
871.122
 20
207.177
  0
SEQEND
  0
POLYLINE
  8
Layer1
  6
CONTINUOUS
 62
7
 66
1
 10
0
 20
0
 30
0
 70
1
  0
VERTEX
  8
Layer1
 10
870.087
 20
246.313
  0
VERTEX
  8
Layer1
 10
871.122
 20
250.177
  0
VERTEX
  8
Layer1
 10
872.157
 20
246.313
  0
SEQEND
  0
POLYLINE
  8
Layer1
  6
CONTINUOUS
 62
7
 66
1
 10
0
 20
0
 30
0
 70
1
  0
VERTEX
  8
Layer1
 10
872.157
 20
211.04
  0
VERTEX
  8
Layer1
 10
871.122
 20
207.177
  0
VERTEX
  8
Layer1
 10
870.087
 20
211.04
  0
SEQEND
  0
TEXT
  8
Layer1
 62
7
 10
871.122
 20
197.177
 72
1
 11
871.122
 21
197.177
 40
8
 41
1
 50
90
  1
 20 
  0
LINE
  8
Layer1
  6
CONTINUOUS
 62
7
 10
845.285
 20
187.177
 11
873.122
 21
187.177
  0
POLYLINE
  8
Layer1
  6
CONTINUOUS
 62
7
 66
1
 10
0
 20
0
 30
0
  0
VERTEX
  8
Layer1
 10
871.122
 20
187.177
  0
VERTEX
  8
Layer1
 10
871.122
 20
207.177
  0
SEQEND
  0
POLYLINE
  8
Layer1
  6
CONTINUOUS
 62
7
 66
1
 10
0
 20
0
 30
0
 70
1
  0
VERTEX
  8
Layer1
 10
872.157
 20
191.04
  0
VERTEX
  8
Layer1
 10
871.122
 20
187.177
  0
VERTEX
  8
Layer1
 10
870.087
 20
191.04
  0
SEQEND
  0
POLYLINE
  8
Layer1
  6
CONTINUOUS
 62
7
 66
1
 10
0
 20
0
 30
0
 70
1
  0
VERTEX
  8
Layer1
 10
870.087
 20
203.313
  0
VERTEX
  8
Layer1
 10
871.122
 20
207.177
  0
VERTEX
  8
Layer1
 10
872.157
 20
203.313
  0
SEQEND
  0
TEXT
  8
Layer1
 62
7
 10
871.122
 20
182.177
 72
1
 11
871.122
 21
182.177
 40
8
 41
1
 50
90
  1
 10 
  0
LINE
  8
Layer1
  6
CONTINUOUS
 62
7
 10
822.263
 20
177.177
 11
873.122
 21
177.177
  0
POLYLINE
  8
Layer1
  6
CONTINUOUS
 62
7
 66
1
 10
0
 20
0
 30
0
  0
VERTEX
  8
Layer1
 10
871.122
 20
167.177
  0
VERTEX
  8
Layer1
 10
871.122
 20
177.177
  0
SEQEND
  0
POLYLINE
  8
Layer1
  6
CONTINUOUS
 62
7
 66
1
 10
0
 20
0
 30
0
 70
1
  0
VERTEX
  8
Layer1
 10
870.087
 20
173.313
  0
VERTEX
  8
Layer1
 10
871.122
 20
177.177
  0
VERTEX
  8
Layer1
 10
872.157
 20
173.313
  0
SEQEND
  0
POLYLINE
  8
Layer1
  6
CONTINUOUS
 62
7
 66
1
 10
0
 20
0
 30
0
  0
VERTEX
  8
Layer1
 10
871.122
 20
197.177
  0
VERTEX
  8
Layer1
 10
871.122
 20
187.177
  0
SEQEND
  0
POLYLINE
  8
Layer1
  6
CONTINUOUS
 62
7
 66
1
 10
0
 20
0
 30
0
 70
1
  0
VERTEX
  8
Layer1
 10
872.157
 20
191.04
  0
VERTEX
  8
Layer1
 10
871.122
 20
187.177
  0
VERTEX
  8
Layer1
 10
870.087
 20
191.04
  0
SEQEND
  0
LINE
  8
Layer1
  6
CONTINUOUS
 62
7
 10
871.122
 20
177.177
 11
871.122
 21
187.177
  0
TEXT
  8
Layer1
 62
7
 10
895.114
 20
249.677
 72
1
 11
895.114
 21
249.677
 40
8
 41
1
 50
90
  1
 145 
  0
LINE
  8
Layer1
  6
CONTINUOUS
 62
7
 10
871.122
 20
177.177
 11
897.114
 21
177.177
  0
LINE
  8
Layer1
  6
CONTINUOUS
 62
7
 10
822.292
 20
322.177
 11
897.114
 21
322.177
  0
POLYLINE
  8
Layer1
  6
CONTINUOUS
 62
7
 66
1
 10
0
 20
0
 30
0
  0
VERTEX
  8
Layer1
 10
895.114
 20
177.177
  0
VERTEX
  8
Layer1
 10
895.114
 20
322.177
  0
SEQEND
  0
POLYLINE
  8
Layer1
  6
CONTINUOUS
 62
7
 66
1
 10
0
 20
0
 30
0
 70
1
  0
VERTEX
  8
Layer1
 10
896.149
 20
181.04
  0
VERTEX
  8
Layer1
 10
895.114
 20
177.177
  0
VERTEX
  8
Layer1
 10
894.078
 20
181.04
  0
SEQEND
  0
POLYLINE
  8
Layer1
  6
CONTINUOUS
 62
7
 66
1
 10
0
 20
0
 30
0
 70
1
  0
VERTEX
  8
Layer1
 10
894.078
 20
318.313
  0
VERTEX
  8
Layer1
 10
895.114
 20
322.177
  0
VERTEX
  8
Layer1
 10
896.149
 20
318.313
  0
SEQEND
  0
TEXT
  8
Layer1
 62
7
 10
916.042
 20
267.177
 72
1
 11
916.042
 21
267.177
 40
8
 41
1
 50
90
  1
 180 
  0
LINE
  8
Layer1
  6
CONTINUOUS
 62
7
 10
822.292
 20
357.177
 11
918.042
 21
357.177
  0
LINE
  8
Layer1
  6
CONTINUOUS
 62
7
 10
895.114
 20
177.177
 11
918.042
 21
177.177
  0
POLYLINE
  8
Layer1
  6
CONTINUOUS
 62
7
 66
1
 10
0
 20
0
 30
0
  0
VERTEX
  8
Layer1
 10
916.042
 20
357.177
  0
VERTEX
  8
Layer1
 10
916.042
 20
177.177
  0
SEQEND
  0
POLYLINE
  8
Layer1
  6
CONTINUOUS
 62
7
 66
1
 10
0
 20
0
 30
0
 70
1
  0
VERTEX
  8
Layer1
 10
915.007
 20
353.313
  0
VERTEX
  8
Layer1
 10
916.042
 20
357.177
  0
VERTEX
  8
Layer1
 10
917.078
 20
353.313
  0
SEQEND
  0
POLYLINE
  8
Layer1
  6
CONTINUOUS
 62
7
 66
1
 10
0
 20
0
 30
0
 70
1
  0
VERTEX
  8
Layer1
 10
917.078
 20
181.04
  0
VERTEX
  8
Layer1
 10
916.042
 20
177.177
  0
VERTEX
  8
Layer1
 10
915.007
 20
181.04
  0
SEQEND
  0
TEXT
  8
Layer1
 62
7
 10
887.467
 20
274.747
 72
1
 11
887.467
 21
274.747
 40
3
 41
1
 50
90
  1
(シャットハイト） 
  0
TEXT
  8
Layer1
 62
7
 10
911.381
 20
290.925
 72
1
 11
911.381
 21
290.925
 40
3
 41
1
 50
90
  1
(オープンハイト）
  0
LINE
  8
Layer1
  6
DASHED1
 62
7
 10
758.273
 20
331.677
 11
773.31
 21
331.677
  0
LINE
  8
Layer1
  6
DASHED1
 62
7
 10
758.273
 20
342.677
 11
773.31
 21
342.677
  0
LINE
  8
Layer1
  6
DASHED1
 62
7
 10
758.273
 20
300.927
 11
774.504
 21
300.927
  0
LINE
  8
Layer1
  6
DASHED1
 62
7
 10
777.312
 20
298.427
 11
758.273
 21
298.427
  0
LINE
  8
Layer1
  6
DASHED1
 62
7
 10
823.285
 20
298.427
 11
808.31
 21
298.427
  0
POLYLINE
  8
Layer1
  6
CONTINUOUS
 62
7
 66
1
 10
0
 20
0
 30
0
  0
VERTEX
  8
Layer1
 10
694.095
 20
235.655
  0
VERTEX
  8
Layer1
 10
664.237
 20
153.621
  0
VERTEX
  8
Layer1
 10
664.237
 20
153.621
  0
SEQEND
  0
CIRCLE
  8
Layer1
  6
CONTINUOUS
 62
7
 10
694.095
 20
235.655
 40
1
  0
CIRCLE
  8
Layer1
  6
CONTINUOUS
 62
7
 10
663.089
 20
150.469
 40
3.3541
  0
TEXT
  8
Layer1
 62
7
 10
663.089
 20
150.469
 72
1
 73
2
 11
663.089
 21
150.469
 40
6
 41
1
  1
1
  0
POLYLINE
  8
Layer1
  6
CONTINUOUS
 62
7
 66
1
 10
0
 20
0
 30
0
  0
VERTEX
  8
Layer1
 10
650.61
 20
255.878
  0
VERTEX
  8
Layer1
 10
627.676
 20
336.774
  0
VERTEX
  8
Layer1
 10
627.676
 20
336.774
  0
SEQEND
  0
CIRCLE
  8
Layer1
  6
CONTINUOUS
 62
7
 10
650.61
 20
255.878
 40
1
  0
CIRCLE
  8
Layer1
  6
CONTINUOUS
 62
7
 10
626.519
 20
340.856
 40
4.24264
  0
TEXT
  8
Layer1
 62
7
 10
626.519
 20
340.856
 72
1
 73
2
 11
626.519
 21
340.856
 40
6
 41
1
  1
13
  0
POLYLINE
  8
Layer1
  6
CONTINUOUS
 62
7
 66
1
 10
0
 20
0
 30
0
  0
VERTEX
  8
Layer1
 10
758.841
 20
298.802
  0
VERTEX
  8
Layer1
 10
735.866
 20
361.802
  0
VERTEX
  8
Layer1
 10
735.866
 20
361.802
  0
SEQEND
  0
CIRCLE
  8
Layer1
  6
CONTINUOUS
 62
7
 10
758.841
 20
298.802
 40
1
  0
CIRCLE
  8
Layer1
  6
CONTINUOUS
 62
7
 10
734.413
 20
365.788
 40
4.24264
  0
TEXT
  8
Layer1
 62
7
 10
734.413
 20
365.788
 72
1
 73
2
 11
734.413
 21
365.788
 40
6
 41
1
  1
14
  0
POLYLINE
  8
Layer1
  6
CONTINUOUS
 62
7
 66
1
 10
0
 20
0
 30
0
  0
VERTEX
  8
Layer1
 10
700.271
 20
273.778
  0
VERTEX
  8
Layer1
 10
677.804
 20
336.85
  0
VERTEX
  8
Layer1
 10
677.804
 20
336.85
  0
SEQEND
  0
CIRCLE
  8
Layer1
  6
CONTINUOUS
 62
7
 10
700.271
 20
273.778
 40
1
  0
CIRCLE
  8
Layer1
  6
CONTINUOUS
 62
7
 10
676.679
 20
340.01
 40
3.3541
  0
TEXT
  8
Layer1
 62
7
 10
676.679
 20
340.01
 72
1
 73
2
 11
676.679
 21
340.01
 40
6
 41
1
  1
4
  0
POLYLINE
  8
Layer1
  6
CONTINUOUS
 62
7
 66
1
 10
0
 20
0
 30
0
  0
VERTEX
  8
Layer1
 10
740.341
 20
278.156
  0
VERTEX
  8
Layer1
 10
718.443
 20
336.85
  0
VERTEX
  8
Layer1
 10
718.443
 20
336.85
  0
SEQEND
  0
CIRCLE
  8
Layer1
  6
CONTINUOUS
 62
7
 10
740.341
 20
278.156
 40
1
  0
CIRCLE
  8
Layer1
  6
CONTINUOUS
 62
7
 10
716.96
 20
340.825
 40
4.24264
  0
TEXT
  8
Layer1
 62
7
 10
716.96
 20
340.825
 72
1
 73
2
 11
716.96
 21
340.825
 40
6
 41
1
  1
11
  0
POLYLINE
  8
Layer1
  6
CONTINUOUS
 62
7
 66
1
 10
0
 20
0
 30
0
  0
VERTEX
  8
Layer1
 10
709.773
 20
285.909
  0
VERTEX
  8
Layer1
 10
691.554
 20
337.462
  0
VERTEX
  8
Layer1
 10
691.554
 20
337.462
  0
SEQEND
  0
CIRCLE
  8
Layer1
  6
CONTINUOUS
 62
7
 10
709.773
 20
285.909
 40
1
  0
CIRCLE
  8
Layer1
  6
CONTINUOUS
 62
7
 10
690.436
 20
340.624
 40
3.3541
  0
TEXT
  8
Layer1
 62
7
 10
690.436
 20
340.624
 72
1
 73
2
 11
690.436
 21
340.624
 40
6
 41
1
  1
8
  0
POLYLINE
  8
Layer1
  6
CONTINUOUS
 62
7
 66
1
 10
0
 20
0
 30
0
  0
VERTEX
  8
Layer1
 10
766.027
 20
317.855
  0
VERTEX
  8
Layer1
 10
748.605
 20
366.292
  0
VERTEX
  8
Layer1
 10
748.605
 20
366.292
  0
SEQEND
  0
CIRCLE
  8
Layer1
  6
CONTINUOUS
 62
7
 10
766.027
 20
317.855
 40
1
  0
CIRCLE
  8
Layer1
  6
CONTINUOUS
 62
7
 10
747.47
 20
369.449
 40
3.3541
  0
TEXT
  8
Layer1
 62
7
 10
747.47
 20
369.449
 72
1
 73
2
 11
747.47
 21
369.449
 40
6
 41
1
  1
3
  0
POLYLINE
  8
Layer1
  6
CONTINUOUS
 62
7
 66
1
 10
0
 20
0
 30
0
  0
VERTEX
  8
Layer1
 10
834.903
 20
268.249
  0
VERTEX
  8
Layer1
 10
876.808
 20
385.151
  0
VERTEX
  8
Layer1
 10
876.808
 20
385.151
  0
SEQEND
  0
CIRCLE
  8
Layer1
  6
CONTINUOUS
 62
7
 10
834.903
 20
268.249
 40
1
  0
CIRCLE
  8
Layer1
  6
CONTINUOUS
 62
7
 10
877.94
 20
388.308
 40
3.3541
  0
TEXT
  8
Layer1
 62
7
 10
877.94
 20
388.308
 72
1
 73
2
 11
877.94
 21
388.308
 40
6
 41
1
  1
5
  0
POLYLINE
  8
Layer1
  6
CONTINUOUS
 62
7
 66
1
 10
0
 20
0
 30
0
  0
VERTEX
  8
Layer1
 10
851.945
 20
255.177
  0
VERTEX
  8
Layer1
 10
896.828
 20
379.967
  0
VERTEX
  8
Layer1
 10
896.828
 20
379.967
  0
SEQEND
  0
CIRCLE
  8
Layer1
  6
CONTINUOUS
 62
7
 10
851.945
 20
255.177
 40
1
  0
CIRCLE
  8
Layer1
  6
CONTINUOUS
 62
7
 10
897.963
 20
383.124
 40
3.3541
  0
TEXT
  8
Layer1
 62
7
 10
897.963
 20
383.124
 72
1
 73
2
 11
897.963
 21
383.124
 40
6
 41
1
  1
9
  0
LINE
  8
Layer1
  6
CONTINUOUS
 62
7
 10
763.116
 20
300.927
 11
763.116
 21
298.427
  0
LINE
  8
Layer1
  6
CONTINUOUS
 62
7
 10
818.215
 20
300.927
 11
818.215
 21
298.427
  0
LINE
  8
Layer1
  6
CONTINUOUS
 62
7
 10
823.28
 20
356.177
 11
823.28
 21
178.177
  0
LINE
  8
Layer1
  6
CONTINUOUS
 62
7
 10
747.757
 20
280.661
 11
747.757
 21
283.177
  0
LINE
  8
Layer1
  6
CONTINUOUS
 62
7
 10
731.773
 20
279.182
 11
731.773
 21
283.177
  0
POLYLINE
  8
Layer1
  6
CONTINUOUS
 62
7
 66
1
 10
0
 20
0
 30
0
  0
VERTEX
  8
Layer1
 10
802.438
 20
199.821
  0
VERTEX
  8
Layer1
 10
786.459
 20
153.621
  0
VERTEX
  8
Layer1
 10
786.459
 20
153.621
  0
SEQEND
  0
CIRCLE
  8
Layer1
  6
CONTINUOUS
 62
7
 10
802.438
 20
199.821
 40
1
  0
CIRCLE
  8
Layer1
  6
CONTINUOUS
 62
7
 10
785.363
 20
150.451
 40
3.3541
  0
TEXT
  8
Layer1
 62
7
 10
785.363
 20
150.451
 72
1
 73
2
 11
785.363
 21
150.451
 40
6
 41
1
  1
6
  0
POLYLINE
  8
Layer1
  6
CONTINUOUS
 62
7
 66
1
 10
0
 20
0
 30
0
  0
VERTEX
  8
Layer1
 10
727.601
 20
242.233
  0
VERTEX
  8
Layer1
 10
695.403
 20
153.621
  0
VERTEX
  8
Layer1
 10
695.403
 20
153.621
  0
SEQEND
  0
CIRCLE
  8
Layer1
  6
CONTINUOUS
 62
7
 10
727.601
 20
242.233
 40
1
  0
CIRCLE
  8
Layer1
  6
CONTINUOUS
 62
7
 10
694.258
 20
150.469
 40
3.3541
  0
TEXT
  8
Layer1
 62
7
 10
694.258
 20
150.469
 72
1
 73
2
 11
694.258
 21
150.469
 40
6
 41
1
  1
2
  0
POLYLINE
  8
Layer1
  6
CONTINUOUS
 62
7
 66
1
 10
0
 20
0
 30
0
  0
VERTEX
  8
Layer1
 10
743.945
 20
201.884
  0
VERTEX
  8
Layer1
 10
725.653
 20
153.621
  0
VERTEX
  8
Layer1
 10
725.653
 20
153.621
  0
SEQEND
  0
CIRCLE
  8
Layer1
  6
CONTINUOUS
 62
7
 10
743.945
 20
201.884
 40
1
  0
CIRCLE
  8
Layer1
  6
CONTINUOUS
 62
7
 10
724.465
 20
150.485
 40
3.3541
  0
TEXT
  8
Layer1
 62
7
 10
724.465
 20
150.485
 72
1
 73
2
 11
724.465
 21
150.485
 40
6
 41
1
  1
7
  0
POLYLINE
  8
Layer1
  6
CONTINUOUS
 62
7
 66
1
 10
0
 20
0
 30
0
  0
VERTEX
  8
Layer1
 10
850.054
 20
219.177
  0
VERTEX
  8
Layer1
 10
872.718
 20
148.621
  0
VERTEX
  8
Layer1
 10
872.718
 20
148.621
  0
SEQEND
  0
CIRCLE
  8
Layer1
  6
CONTINUOUS
 62
7
 10
850.054
 20
219.177
 40
1
  0
CIRCLE
  8
Layer1
  6
CONTINUOUS
 62
7
 10
874.015
 20
144.582
 40
4.24264
  0
TEXT
  8
Layer1
 62
7
 10
874.015
 20
144.582
 72
1
 73
2
 11
874.015
 21
144.582
 40
6
 41
1
  1
12
  0
POLYLINE
  8
Layer1
  6
CONTINUOUS
 62
7
 66
1
 10
0
 20
0
 30
0
  0
VERTEX
  8
Layer1
 10
814.44
 20
206.177
  0
VERTEX
  8
Layer1
 10
834.737
 20
153.621
  0
VERTEX
  8
Layer1
 10
834.737
 20
153.621
  0
SEQEND
  0
CIRCLE
  8
Layer1
  6
CONTINUOUS
 62
7
 10
814.44
 20
206.177
 40
1
  0
CIRCLE
  8
Layer1
  6
CONTINUOUS
 62
7
 10
836.265
 20
149.663
 40
4.24264
  0
TEXT
  8
Layer1
 62
7
 10
836.265
 20
149.663
 72
1
 73
2
 11
836.265
 21
149.663
 40
6
 41
1
  1
10
  0
TEXT
  8
Layer1
 62
7
 10
868.493
 20
541.359
 72
1
 11
868.493
 21
541.359
 40
7
 41
1
 50
90
  1
 166 
  0
LINE
  8
Layer1
  6
CONTINUOUS
 62
7
 10
825.242
 20
458.359
 11
871.493
 21
458.359
  0
LINE
  8
Layer1
  6
CONTINUOUS
 62
7
 10
832.641
 20
624.359
 11
871.493
 21
624.359
  0
POLYLINE
  8
Layer1
  6
CONTINUOUS
 62
7
 66
1
 10
0
 20
0
 30
0
  0
VERTEX
  8
Layer1
 10
869.493
 20
458.359
  0
VERTEX
  8
Layer1
 10
869.493
 20
624.359
  0
SEQEND
  0
POLYLINE
  8
Layer1
  6
CONTINUOUS
 62
7
 66
1
 10
0
 20
0
 30
0
  0
VERTEX
  8
Layer1
 10
870.27
 20
461.257
  0
VERTEX
  8
Layer1
 10
869.493
 20
458.359
  0
VERTEX
  8
Layer1
 10
868.717
 20
461.257
  0
SEQEND
  0
POLYLINE
  8
Layer1
  6
CONTINUOUS
 62
7
 66
1
 10
0
 20
0
 30
0
  0
VERTEX
  8
Layer1
 10
868.717
 20
621.461
  0
VERTEX
  8
Layer1
 10
869.493
 20
624.359
  0
VERTEX
  8
Layer1
 10
870.27
 20
621.461
  0
SEQEND
  0
TEXT
  8
Layer1
 62
7
 10
887.891
 20
541.359
 72
1
 11
887.891
 21
541.359
 40
7
 41
1
 50
90
  1
 190 
  0
LINE
  8
Layer1
  6
CONTINUOUS
 62
7
 10
820.393
 20
446.359
 11
890.891
 21
446.359
  0
LINE
  8
Layer1
  6
CONTINUOUS
 62
7
 10
820.678
 20
636.359
 11
890.891
 21
636.359
  0
POLYLINE
  8
Layer1
  6
CONTINUOUS
 62
7
 66
1
 10
0
 20
0
 30
0
  0
VERTEX
  8
Layer1
 10
888.891
 20
446.359
  0
VERTEX
  8
Layer1
 10
888.891
 20
636.359
  0
SEQEND
  0
POLYLINE
  8
Layer1
  6
CONTINUOUS
 62
7
 66
1
 10
0
 20
0
 30
0
  0
VERTEX
  8
Layer1
 10
889.667
 20
449.257
  0
VERTEX
  8
Layer1
 10
888.891
 20
446.359
  0
VERTEX
  8
Layer1
 10
888.114
 20
449.257
  0
SEQEND
  0
POLYLINE
  8
Layer1
  6
CONTINUOUS
 62
7
 66
1
 10
0
 20
0
 30
0
  0
VERTEX
  8
Layer1
 10
888.114
 20
633.461
  0
VERTEX
  8
Layer1
 10
888.891
 20
636.359
  0
VERTEX
  8
Layer1
 10
889.667
 20
633.461
  0
SEQEND
  0
TEXT
  8
Layer1
 62
7
 10
389.989
 20
161.307
 72
1
 11
389.989
 21
161.307
 40
7
 41
1
  1
 150 
  0
LINE
  8
Layer1
  6
CONTINUOUS
 62
7
 10
314.989
 20
225.724
 11
314.989
 21
158.307
  0
LINE
  8
Layer1
  6
CONTINUOUS
 62
7
 10
464.989
 20
219.925
 11
464.989
 21
158.307
  0
POLYLINE
  8
Layer1
  6
CONTINUOUS
 62
7
 66
1
 10
0
 20
0
 30
0
  0
VERTEX
  8
Layer1
 10
314.989
 20
160.307
  0
VERTEX
  8
Layer1
 10
464.989
 20
160.307
  0
SEQEND
  0
POLYLINE
  8
Layer1
  6
CONTINUOUS
 62
7
 66
1
 10
0
 20
0
 30
0
  0
VERTEX
  8
Layer1
 10
317.887
 20
159.531
  0
VERTEX
  8
Layer1
 10
314.989
 20
160.307
  0
VERTEX
  8
Layer1
 10
317.887
 20
161.083
  0
SEQEND
  0
POLYLINE
  8
Layer1
  6
CONTINUOUS
 62
7
 66
1
 10
0
 20
0
 30
0
  0
VERTEX
  8
Layer1
 10
462.092
 20
161.083
  0
VERTEX
  8
Layer1
 10
464.989
 20
160.307
  0
VERTEX
  8
Layer1
 10
462.092
 20
159.531
  0
SEQEND
  0
ENDSEC
  0
EOF
