  0
SECTION
  2
HEADER
  9
$EXTMIN
 10
0
 20
0
  9
$EXTMAX
 10
1189
 20
841
  9
$LTSCALE
 40
1
  9
$LIMMIN
 10
0
 20
0
  9
$LIMMAX
 10
1189
 20
841
  9
$DIMSCALE
 40
1
  0
ENDSEC
  0
SECTION
  2
TABLES
  0
TABLE
  2
LTYPE
 70
9
  0
LTYPE
  2
CONTINUOUS
 70
64
  3
----------
 72
65
 73
0
 40
0
  0
LTYPE
  2
DASHED1
 70
64
  3
--  --  --  --  --  --  --  --  
 72
65
 73
2
 40
2.5
 49
1.25
 49
-1.25
  0
LTYPE
  2
DASHED2
 70
64
  3
----    ----    ----    ----    
 72
65
 73
2
 40
5
 49
2.5
 49
-2.5
  0
LTYPE
  2
DASHED3
 70
64
  3
------  ------  ------  ------  
 72
65
 73
2
 40
5
 49
3.75
 49
-1.25
  0
LTYPE
  2
CENTER1
 70
64
  3
----- - ----- - ----- - ----- - 
 72
65
 73
4
 40
7.5
 49
3.75
 49
-1.25
 49
1.25
 49
-1.25
  0
LTYPE
  2
CENTER2
 70
64
  3
----------  --  ----------  --  
 72
65
 73
4
 40
13.75
 49
6.25
 49
-2.5
 49
2.5
 49
-2.5
  0
LTYPE
  2
PHANTOM1
 70
64
  3
--- - - --- - - --- - - --- - - 
 72
65
 73
6
 40
9.5
 49
3.25
 49
-1.25
 49
1.25
 49
-1.25
 49
1.25
 49
-1.25
  0
LTYPE
  2
PHANTOM2
 70
64
  3
--------  -  -  --------  -  -  
 72
65
 73
6
 40
18
 49
8
 49
-2.5
 49
1.25
 49
-2.5
 49
1.25
 49
-2.5
  0
LTYPE
  2
DOT
 70
64
  3
-   -   -   -   -   -   -   -   
 72
65
 73
2
 40
2.5
 49
0.625
 49
-1.875
  0
LTYPE
  2
HOJO
 70
64
  3
-   -   -   -   -   -   -   -   
 72
65
 73
2
 40
2.5
 49
0.625
 49
-1.875
  0
ENDTAB
  0
TABLE
  2
STYLE
 70
2
  0
STYLE
  2
STANDARD
 70
64
 40
0
 41
1
 42
0
 50
0
 71
0
  3
TXT
  4
BIGFONT
  0
STYLE
  2
TATEGAKI
 70
68
 40
0
 41
1
 42
0
 50
0
 71
0
  3
TXT
  4
EXTFONT
  0
ENDTAB
  0
TABLE
  2
LAYER
 70
1
  0
LAYER
  2
Layer1
 70
64
 62
7
  6
CONTINUOUS
  0
ENDTAB
  0
ENDSEC
  0
SECTION
  2
ENTITIES
  0
LINE
  8
Layer1
  6
CONTINUOUS
 62
7
 10
444.053
 20
227.055
 11
326.053
 21
227.055
  0
LINE
  8
Layer1
  6
CENTER1
 62
7
 10
385.053
 20
386.5
 11
385.053
 21
221.899
  0
LINE
  8
Layer1
  6
CONTINUOUS
 62
7
 10
396.053
 20
227.055
 11
404.421
 21
227.055
  0
LINE
  8
Layer1
  6
CENTER1
 62
7
 10
593.202
 20
515.784
 11
805.523
 21
515.784
  0
CIRCLE
  8
Layer1
  6
CONTINUOUS
 62
7
 10
645.743
 20
590.784
 40
7
  0
CIRCLE
  8
Layer1
  6
CONTINUOUS
 62
7
 10
765.743
 20
590.784
 40
7
  0
CIRCLE
  8
Layer1
  6
CONTINUOUS
 62
7
 10
645.743
 20
440.784
 40
7
  0
CIRCLE
  8
Layer1
  6
CONTINUOUS
 62
7
 10
765.743
 20
440.784
 40
7
  0
CIRCLE
  8
Layer1
  6
CONTINUOUS
 62
7
 10
645.743
 20
590.784
 40
4.5
  0
CIRCLE
  8
Layer1
  6
CONTINUOUS
 62
7
 10
765.743
 20
590.784
 40
4.5
  0
CIRCLE
  8
Layer1
  6
CONTINUOUS
 62
7
 10
645.743
 20
440.784
 40
4.5
  0
CIRCLE
  8
Layer1
  6
CONTINUOUS
 62
7
 10
765.743
 20
440.784
 40
4.5
  0
LINE
  8
Layer1
  6
CONTINUOUS
 62
7
 10
393.928
 20
227.055
 11
411.529
 21
227.055
  0
LINE
  8
Layer1
  6
DASHED1
 62
7
 10
420.571
 20
310.055
 11
420.553
 21
310.039
  0
CIRCLE
  8
Layer1
  6
CONTINUOUS
 62
7
 10
427.553
 20
289.555
 40
4
  0
CIRCLE
  8
Layer1
  6
CONTINUOUS
 62
7
 10
427.553
 20
254.555
 40
4
  0
LINE
  8
Layer1
  6
CENTER1
 62
7
 10
329.058
 20
272.055
 11
438.115
 21
272.055
  0
LINE
  8
Layer1
  6
CENTER1
 62
7
 10
645.743
 20
449.784
 11
645.743
 21
430.858
  0
LINE
  8
Layer1
  6
CENTER1
 62
7
 10
645.743
 20
581.341
 11
645.743
 21
602.811
  0
LINE
  8
Layer1
  6
CENTER1
 62
7
 10
765.743
 20
580.954
 11
765.743
 21
598.319
  0
LINE
  8
Layer1
  6
CENTER1
 62
7
 10
635.981
 20
440.784
 11
775.287
 21
440.784
  0
LINE
  8
Layer1
  6
CENTER1
 62
7
 10
765.743
 20
449.166
 11
765.743
 21
431.675
  0
LINE
  8
Layer1
  6
CONTINUOUS
 62
7
 10
793.241
 20
567.283
 11
800.741
 21
567.283
  0
LINE
  8
Layer1
  6
CONTINUOUS
 62
7
 10
793.241
 20
580.283
 11
800.741
 21
580.283
  0
LINE
  8
Layer1
  6
CONTINUOUS
 62
7
 10
800.741
 20
567.283
 11
800.741
 21
580.283
  0
LINE
  8
Layer1
  6
CONTINUOUS
 62
7
 10
801.241
 20
567.783
 11
801.241
 21
579.783
  0
LINE
  8
Layer1
  6
CONTINUOUS
 62
7
 10
800.741
 20
567.283
 11
801.241
 21
567.783
  0
LINE
  8
Layer1
  6
CONTINUOUS
 62
7
 10
800.741
 20
580.283
 11
801.241
 21
579.783
  0
LINE
  8
Layer1
  6
CONTINUOUS
 62
7
 10
793.241
 20
580.283
 11
793.241
 21
567.283
  0
LINE
  8
Layer1
  6
CONTINUOUS
 62
7
 10
793.818
 20
579.283
 11
800.164
 21
579.283
  0
LINE
  8
Layer1
  6
CONTINUOUS
 62
7
 10
794.395
 20
578.283
 11
799.589
 21
578.283
  0
LINE
  8
Layer1
  6
CONTINUOUS
 62
7
 10
794.972
 20
577.283
 11
799.011
 21
577.283
  0
LINE
  8
Layer1
  6
CONTINUOUS
 62
7
 10
795.549
 20
576.283
 11
798.434
 21
576.283
  0
LINE
  8
Layer1
  6
CONTINUOUS
 62
7
 10
793.241
 20
451.283
 11
800.741
 21
451.283
  0
LINE
  8
Layer1
  6
CONTINUOUS
 62
7
 10
793.241
 20
464.283
 11
800.741
 21
464.283
  0
LINE
  8
Layer1
  6
CONTINUOUS
 62
7
 10
800.741
 20
451.283
 11
800.741
 21
464.283
  0
LINE
  8
Layer1
  6
CONTINUOUS
 62
7
 10
801.241
 20
451.783
 11
801.241
 21
463.783
  0
LINE
  8
Layer1
  6
CONTINUOUS
 62
7
 10
800.741
 20
451.283
 11
801.241
 21
451.783
  0
LINE
  8
Layer1
  6
CONTINUOUS
 62
7
 10
800.741
 20
464.283
 11
801.241
 21
463.783
  0
LINE
  8
Layer1
  6
CONTINUOUS
 62
7
 10
793.241
 20
464.283
 11
793.241
 21
451.283
  0
LINE
  8
Layer1
  6
CONTINUOUS
 62
7
 10
793.818
 20
463.283
 11
800.164
 21
463.283
  0
LINE
  8
Layer1
  6
CONTINUOUS
 62
7
 10
794.395
 20
462.283
 11
799.589
 21
462.283
  0
LINE
  8
Layer1
  6
CONTINUOUS
 62
7
 10
794.972
 20
461.283
 11
799.011
 21
461.283
  0
LINE
  8
Layer1
  6
CONTINUOUS
 62
7
 10
795.549
 20
460.283
 11
798.434
 21
460.283
  0
CIRCLE
  8
Layer1
  6
CONTINUOUS
 62
7
 10
682.243
 20
515.784
 40
3.76681
  0
ARC
  8
Layer1
  6
CONTINUOUS
 62
7
 10
677.769
 20
515.818
 40
1
 50
140.711
 51
225
  0
LINE
  8
Layer1
  6
CONTINUOUS
 62
7
 10
686.753
 20
517.428
 11
689.015
 21
517.428
  0
LINE
  8
Layer1
  6
CONTINUOUS
 62
7
 10
686.753
 20
513.942
 11
689.015
 21
513.942
  0
LINE
  8
Layer1
  6
CONTINUOUS
 62
7
 10
689.015
 20
517.428
 11
689.015
 21
513.942
  0
ARC
  8
Layer1
  6
CONTINUOUS
 62
7
 10
682.243
 20
515.784
 40
4.80058
 50
20.031
 51
140.098
  0
ARC
  8
Layer1
  6
CONTINUOUS
 62
7
 10
682.243
 20
515.784
 40
4.80058
 50
218.056
 51
337.793
  0
ARC
  8
Layer1
  6
CONTINUOUS
 62
7
 10
669.35
 20
508.533
 40
10.1292
 50
24.1178
 51
40.4581
  0
ARC
  8
Layer1
  6
CONTINUOUS
 62
7
 10
669.289
 20
523.024
 40
10.1292
 50
319.542
 51
335.882
  0
ARC
  8
Layer1
  6
CONTINUOUS
 62
7
 10
687.883
 20
517.428
 40
0.542282
 50
0
 51
180
  0
ARC
  8
Layer1
  6
CONTINUOUS
 62
7
 10
687.883
 20
513.942
 40
0.657613
 50
180
 51
2.03555e-013
  0
LINE
  8
Layer1
  6
PHANTOM1
 62
7
 10
381.253
 20
318.648
 11
389.096
 21
318.648
  0
LINE
  8
Layer1
  6
PHANTOM1
 62
7
 10
380.923
 20
318.044
 11
389.399
 21
318.044
  0
LINE
  8
Layer1
  6
PHANTOM1
 62
7
 10
380.83
 20
314.665
 11
389.279
 21
314.665
  0
LINE
  8
Layer1
  6
PHANTOM1
 62
7
 10
390.003
 20
313.941
 11
380.106
 21
313.941
  0
LINE
  8
Layer1
  6
PHANTOM1
 62
7
 10
390.003
 20
313.941
 11
390.003
 21
312.07
  0
LINE
  8
Layer1
  6
PHANTOM1
 62
7
 10
380.106
 20
313.941
 11
380.106
 21
312.07
  0
POLYLINE
  8
Layer1
  6
PHANTOM1
 62
7
 66
1
 10
0
 20
0
 30
0
  0
VERTEX
  8
Layer1
 10
385.048
 20
315.861
  0
VERTEX
  8
Layer1
 10
384.981
 20
315.918
  0
VERTEX
  8
Layer1
 10
384.914
 20
315.973
  0
VERTEX
  8
Layer1
 10
384.846
 20
316.027
  0
VERTEX
  8
Layer1
 10
384.777
 20
316.079
  0
VERTEX
  8
Layer1
 10
384.707
 20
316.129
  0
VERTEX
  8
Layer1
 10
384.635
 20
316.177
  0
VERTEX
  8
Layer1
 10
384.561
 20
316.223
  0
VERTEX
  8
Layer1
 10
384.486
 20
316.267
  0
VERTEX
  8
Layer1
 10
384.409
 20
316.31
  0
VERTEX
  8
Layer1
 10
384.333
 20
316.35
  0
VERTEX
  8
Layer1
 10
384.255
 20
316.388
  0
VERTEX
  8
Layer1
 10
384.178
 20
316.425
  0
VERTEX
  8
Layer1
 10
384.096
 20
316.459
  0
VERTEX
  8
Layer1
 10
384.017
 20
316.492
  0
VERTEX
  8
Layer1
 10
383.937
 20
316.522
  0
VERTEX
  8
Layer1
 10
383.854
 20
316.55
  0
VERTEX
  8
Layer1
 10
383.77
 20
316.576
  0
VERTEX
  8
Layer1
 10
383.688
 20
316.599
  0
VERTEX
  8
Layer1
 10
383.604
 20
316.621
  0
VERTEX
  8
Layer1
 10
383.519
 20
316.641
  0
VERTEX
  8
Layer1
 10
383.433
 20
316.658
  0
VERTEX
  8
Layer1
 10
383.35
 20
316.673
  0
VERTEX
  8
Layer1
 10
383.264
 20
316.686
  0
VERTEX
  8
Layer1
 10
383.178
 20
316.696
  0
VERTEX
  8
Layer1
 10
383.092
 20
316.705
  0
VERTEX
  8
Layer1
 10
383.005
 20
316.711
  0
VERTEX
  8
Layer1
 10
382.918
 20
316.715
  0
VERTEX
  8
Layer1
 10
382.832
 20
316.716
  0
VERTEX
  8
Layer1
 10
382.745
 20
316.716
  0
VERTEX
  8
Layer1
 10
382.658
 20
316.713
  0
VERTEX
  8
Layer1
 10
382.572
 20
316.708
  0
VERTEX
  8
Layer1
 10
382.485
 20
316.701
  0
VERTEX
  8
Layer1
 10
382.399
 20
316.691
  0
VERTEX
  8
Layer1
 10
382.313
 20
316.679
  0
VERTEX
  8
Layer1
 10
382.226
 20
316.665
  0
VERTEX
  8
Layer1
 10
382.142
 20
316.649
  0
VERTEX
  8
Layer1
 10
382.058
 20
316.631
  0
VERTEX
  8
Layer1
 10
381.972
 20
316.61
  0
VERTEX
  8
Layer1
 10
381.89
 20
316.588
  0
VERTEX
  8
Layer1
 10
381.807
 20
316.563
  0
VERTEX
  8
Layer1
 10
381.722
 20
316.536
  0
VERTEX
  8
Layer1
 10
381.642
 20
316.506
  0
VERTEX
  8
Layer1
 10
381.562
 20
316.475
  0
VERTEX
  8
Layer1
 10
381.481
 20
316.442
  0
VERTEX
  8
Layer1
 10
381.402
 20
316.406
  0
VERTEX
  8
Layer1
 10
381.322
 20
316.369
  0
VERTEX
  8
Layer1
 10
381.245
 20
316.33
  0
VERTEX
  8
Layer1
 10
381.169
 20
316.288
  0
SEQEND
  0
POLYLINE
  8
Layer1
  6
PHANTOM1
 62
7
 66
1
 10
0
 20
0
 30
0
  0
VERTEX
  8
Layer1
 10
389.399
 20
316.233
  0
VERTEX
  8
Layer1
 10
389.313
 20
316.269
  0
VERTEX
  8
Layer1
 10
389.222
 20
316.303
  0
VERTEX
  8
Layer1
 10
389.135
 20
316.335
  0
VERTEX
  8
Layer1
 10
389.044
 20
316.365
  0
VERTEX
  8
Layer1
 10
388.956
 20
316.394
  0
VERTEX
  8
Layer1
 10
388.865
 20
316.42
  0
VERTEX
  8
Layer1
 10
388.774
 20
316.445
  0
VERTEX
  8
Layer1
 10
388.683
 20
316.468
  0
VERTEX
  8
Layer1
 10
388.591
 20
316.489
  0
VERTEX
  8
Layer1
 10
388.496
 20
316.509
  0
VERTEX
  8
Layer1
 10
388.404
 20
316.526
  0
VERTEX
  8
Layer1
 10
388.312
 20
316.542
  0
VERTEX
  8
Layer1
 10
388.217
 20
316.555
  0
VERTEX
  8
Layer1
 10
388.125
 20
316.567
  0
VERTEX
  8
Layer1
 10
388.029
 20
316.577
  0
VERTEX
  8
Layer1
 10
387.937
 20
316.585
  0
VERTEX
  8
Layer1
 10
387.842
 20
316.592
  0
VERTEX
  8
Layer1
 10
387.748
 20
316.596
  0
VERTEX
  8
Layer1
 10
387.654
 20
316.598
  0
VERTEX
  8
Layer1
 10
387.558
 20
316.599
  0
VERTEX
  8
Layer1
 10
387.465
 20
316.598
  0
VERTEX
  8
Layer1
 10
387.37
 20
316.595
  0
VERTEX
  8
Layer1
 10
387.275
 20
316.589
  0
VERTEX
  8
Layer1
 10
387.183
 20
316.583
  0
VERTEX
  8
Layer1
 10
387.087
 20
316.574
  0
VERTEX
  8
Layer1
 10
386.995
 20
316.563
  0
VERTEX
  8
Layer1
 10
386.899
 20
316.55
  0
VERTEX
  8
Layer1
 10
386.808
 20
316.536
  0
VERTEX
  8
Layer1
 10
386.715
 20
316.52
  0
VERTEX
  8
Layer1
 10
386.62
 20
316.501
  0
VERTEX
  8
Layer1
 10
386.529
 20
316.481
  0
VERTEX
  8
Layer1
 10
386.438
 20
316.459
  0
VERTEX
  8
Layer1
 10
386.346
 20
316.436
  0
VERTEX
  8
Layer1
 10
386.255
 20
316.41
  0
VERTEX
  8
Layer1
 10
386.164
 20
316.383
  0
VERTEX
  8
Layer1
 10
386.073
 20
316.354
  0
VERTEX
  8
Layer1
 10
385.986
 20
316.323
  0
VERTEX
  8
Layer1
 10
385.898
 20
316.29
  0
VERTEX
  8
Layer1
 10
385.808
 20
316.256
  0
VERTEX
  8
Layer1
 10
385.721
 20
316.219
  0
VERTEX
  8
Layer1
 10
385.635
 20
316.181
  0
VERTEX
  8
Layer1
 10
385.548
 20
316.142
  0
VERTEX
  8
Layer1
 10
385.466
 20
316.1
  0
VERTEX
  8
Layer1
 10
385.38
 20
316.057
  0
VERTEX
  8
Layer1
 10
385.298
 20
316.013
  0
VERTEX
  8
Layer1
 10
385.216
 20
315.966
  0
VERTEX
  8
Layer1
 10
385.135
 20
315.918
  0
VERTEX
  8
Layer1
 10
385.053
 20
315.868
  0
SEQEND
  0
LINE
  8
Layer1
  6
PHANTOM1
 62
7
 10
381.515
 20
316.457
 11
381.183
 21
316.267
  0
LINE
  8
Layer1
  6
PHANTOM1
 62
7
 10
381.253
 20
318.648
 11
380.392
 21
317.064
  0
LINE
  8
Layer1
  6
PHANTOM1
 62
7
 10
389.096
 20
318.648
 11
389.985
 21
316.832
  0
LINE
  8
Layer1
  6
PHANTOM1
 62
7
 10
388.914
 20
316.377
 11
389.399
 21
316.233
  0
POLYLINE
  8
Layer1
  6
PHANTOM1
 62
7
 66
1
 10
0
 20
0
 30
0
  0
VERTEX
  8
Layer1
 10
380.392
 20
317.064
  0
VERTEX
  8
Layer1
 10
380.378
 20
317.036
  0
VERTEX
  8
Layer1
 10
380.365
 20
317.008
  0
VERTEX
  8
Layer1
 10
380.351
 20
316.978
  0
VERTEX
  8
Layer1
 10
380.342
 20
316.948
  0
VERTEX
  8
Layer1
 10
380.332
 20
316.918
  0
VERTEX
  8
Layer1
 10
380.325
 20
316.887
  0
VERTEX
  8
Layer1
 10
380.321
 20
316.856
  0
VERTEX
  8
Layer1
 10
380.317
 20
316.825
  0
VERTEX
  8
Layer1
 10
380.313
 20
316.793
  0
VERTEX
  8
Layer1
 10
380.313
 20
316.761
  0
VERTEX
  8
Layer1
 10
380.315
 20
316.73
  0
VERTEX
  8
Layer1
 10
380.318
 20
316.698
  0
VERTEX
  8
Layer1
 10
380.322
 20
316.667
  0
VERTEX
  8
Layer1
 10
380.331
 20
316.636
  0
VERTEX
  8
Layer1
 10
380.337
 20
316.606
  0
VERTEX
  8
Layer1
 10
380.347
 20
316.576
  0
VERTEX
  8
Layer1
 10
380.361
 20
316.546
  0
VERTEX
  8
Layer1
 10
380.373
 20
316.517
  0
VERTEX
  8
Layer1
 10
380.388
 20
316.489
  0
VERTEX
  8
Layer1
 10
380.404
 20
316.462
  0
VERTEX
  8
Layer1
 10
380.421
 20
316.436
  0
VERTEX
  8
Layer1
 10
380.44
 20
316.41
  0
VERTEX
  8
Layer1
 10
380.461
 20
316.386
  0
VERTEX
  8
Layer1
 10
380.481
 20
316.363
  0
VERTEX
  8
Layer1
 10
380.505
 20
316.341
  0
VERTEX
  8
Layer1
 10
380.529
 20
316.321
  0
VERTEX
  8
Layer1
 10
380.553
 20
316.302
  0
VERTEX
  8
Layer1
 10
380.581
 20
316.284
  0
VERTEX
  8
Layer1
 10
380.606
 20
316.267
  0
VERTEX
  8
Layer1
 10
380.635
 20
316.252
  0
VERTEX
  8
Layer1
 10
380.664
 20
316.239
  0
VERTEX
  8
Layer1
 10
380.693
 20
316.227
  0
VERTEX
  8
Layer1
 10
380.722
 20
316.217
  0
VERTEX
  8
Layer1
 10
380.755
 20
316.209
  0
VERTEX
  8
Layer1
 10
380.784
 20
316.202
  0
VERTEX
  8
Layer1
 10
380.817
 20
316.197
  0
VERTEX
  8
Layer1
 10
380.846
 20
316.193
  0
VERTEX
  8
Layer1
 10
380.88
 20
316.191
  0
VERTEX
  8
Layer1
 10
380.909
 20
316.191
  0
VERTEX
  8
Layer1
 10
380.943
 20
316.193
  0
VERTEX
  8
Layer1
 10
380.972
 20
316.196
  0
VERTEX
  8
Layer1
 10
381.005
 20
316.202
  0
VERTEX
  8
Layer1
 10
381.035
 20
316.208
  0
VERTEX
  8
Layer1
 10
381.067
 20
316.217
  0
VERTEX
  8
Layer1
 10
381.096
 20
316.227
  0
VERTEX
  8
Layer1
 10
381.125
 20
316.239
  0
VERTEX
  8
Layer1
 10
381.154
 20
316.252
  0
VERTEX
  8
Layer1
 10
381.183
 20
316.267
  0
SEQEND
  0
POLYLINE
  8
Layer1
  6
PHANTOM1
 62
7
 66
1
 10
0
 20
0
 30
0
  0
VERTEX
  8
Layer1
 10
389.399
 20
316.233
  0
VERTEX
  8
Layer1
 10
389.419
 20
316.228
  0
VERTEX
  8
Layer1
 10
389.442
 20
316.223
  0
VERTEX
  8
Layer1
 10
389.462
 20
316.219
  0
VERTEX
  8
Layer1
 10
389.484
 20
316.217
  0
VERTEX
  8
Layer1
 10
389.505
 20
316.215
  0
VERTEX
  8
Layer1
 10
389.525
 20
316.214
  0
VERTEX
  8
Layer1
 10
389.548
 20
316.214
  0
VERTEX
  8
Layer1
 10
389.568
 20
316.215
  0
VERTEX
  8
Layer1
 10
389.591
 20
316.217
  0
VERTEX
  8
Layer1
 10
389.611
 20
316.22
  0
VERTEX
  8
Layer1
 10
389.631
 20
316.224
  0
VERTEX
  8
Layer1
 10
389.654
 20
316.229
  0
VERTEX
  8
Layer1
 10
389.673
 20
316.235
  0
VERTEX
  8
Layer1
 10
389.693
 20
316.242
  0
VERTEX
  8
Layer1
 10
389.715
 20
316.249
  0
VERTEX
  8
Layer1
 10
389.734
 20
316.258
  0
VERTEX
  8
Layer1
 10
389.753
 20
316.267
  0
VERTEX
  8
Layer1
 10
389.77
 20
316.278
  0
VERTEX
  8
Layer1
 10
389.789
 20
316.289
  0
VERTEX
  8
Layer1
 10
389.808
 20
316.301
  0
VERTEX
  8
Layer1
 10
389.823
 20
316.314
  0
VERTEX
  8
Layer1
 10
389.842
 20
316.327
  0
VERTEX
  8
Layer1
 10
389.856
 20
316.341
  0
VERTEX
  8
Layer1
 10
389.871
 20
316.356
  0
VERTEX
  8
Layer1
 10
389.888
 20
316.372
  0
VERTEX
  8
Layer1
 10
389.9
 20
316.388
  0
VERTEX
  8
Layer1
 10
389.914
 20
316.405
  0
VERTEX
  8
Layer1
 10
389.927
 20
316.423
  0
VERTEX
  8
Layer1
 10
389.938
 20
316.441
  0
VERTEX
  8
Layer1
 10
389.947
 20
316.459
  0
VERTEX
  8
Layer1
 10
389.957
 20
316.478
  0
VERTEX
  8
Layer1
 10
389.967
 20
316.498
  0
VERTEX
  8
Layer1
 10
389.976
 20
316.517
  0
VERTEX
  8
Layer1
 10
389.984
 20
316.537
  0
VERTEX
  8
Layer1
 10
389.99
 20
316.558
  0
VERTEX
  8
Layer1
 10
389.995
 20
316.579
  0
VERTEX
  8
Layer1
 10
390
 20
316.6
  0
VERTEX
  8
Layer1
 10
390.003
 20
316.621
  0
VERTEX
  8
Layer1
 10
390.005
 20
316.642
  0
VERTEX
  8
Layer1
 10
390.005
 20
316.663
  0
VERTEX
  8
Layer1
 10
390.006
 20
316.685
  0
VERTEX
  8
Layer1
 10
390.005
 20
316.706
  0
VERTEX
  8
Layer1
 10
390.005
 20
316.727
  0
VERTEX
  8
Layer1
 10
390.004
 20
316.749
  0
VERTEX
  8
Layer1
 10
390
 20
316.77
  0
VERTEX
  8
Layer1
 10
389.995
 20
316.791
  0
VERTEX
  8
Layer1
 10
389.991
 20
316.812
  0
VERTEX
  8
Layer1
 10
389.985
 20
316.832
  0
SEQEND
  0
LINE
  8
Layer1
  6
PHANTOM1
 62
7
 10
388.12
 20
316.568
 11
388.12
 21
314.665
  0
LINE
  8
Layer1
  6
PHANTOM1
 62
7
 10
381.976
 20
316.611
 11
381.976
 21
314.665
  0
LINE
  8
Layer1
  6
PHANTOM1
 62
7
 10
380.83
 20
314.665
 11
380.106
 21
313.941
  0
LINE
  8
Layer1
  6
PHANTOM1
 62
7
 10
389.279
 20
314.665
 11
390.003
 21
313.941
  0
CIRCLE
  8
Layer1
  6
CONTINUOUS
 62
7
 10
705.743
 20
440.784
 40
7
  0
CIRCLE
  8
Layer1
  6
CONTINUOUS
 62
7
 10
705.743
 20
440.784
 40
4.5
  0
LINE
  8
Layer1
  6
CENTER1
 62
7
 10
705.743
 20
449.784
 11
705.743
 21
430.925
  0
CIRCLE
  8
Layer1
  6
CONTINUOUS
 62
7
 10
705.743
 20
590.784
 40
7
  0
CIRCLE
  8
Layer1
  6
CONTINUOUS
 62
7
 10
705.743
 20
590.784
 40
4.5
  0
LINE
  8
Layer1
  6
CENTER1
 62
7
 10
705.743
 20
582.204
 11
705.743
 21
599.569
  0
LINE
  8
Layer1
  6
CONTINUOUS
 62
7
 10
733.241
 20
580.784
 11
733.241
 21
450.784
  0
LINE
  8
Layer1
  6
CENTER1
 62
7
 10
734.918
 20
458.284
 11
777.599
 21
458.284
  0
CIRCLE
  8
Layer1
  6
CONTINUOUS
 62
7
 10
768.241
 20
573.284
 40
4.5
  0
CIRCLE
  8
Layer1
  6
CONTINUOUS
 62
7
 10
768.241
 20
458.284
 40
4.5
  0
CIRCLE
  8
Layer1
  6
CONTINUOUS
 62
7
 10
743.241
 20
458.284
 40
4.5
  0
CIRCLE
  8
Layer1
  6
CONTINUOUS
 62
7
 10
743.241
 20
573.284
 40
4.5
  0
CIRCLE
  8
Layer1
  6
DASHED1
 62
7
 10
768.241
 20
573.284
 40
7
  0
CIRCLE
  8
Layer1
  6
DASHED1
 62
7
 10
768.241
 20
458.284
 40
7
  0
CIRCLE
  8
Layer1
  6
DASHED1
 62
7
 10
743.241
 20
458.284
 40
7
  0
CIRCLE
  8
Layer1
  6
DASHED1
 62
7
 10
743.241
 20
573.284
 40
7
  0
LINE
  8
Layer1
  6
CENTER1
 62
7
 10
768.241
 20
468.723
 11
768.241
 21
446.844
  0
LINE
  8
Layer1
  6
CENTER1
 62
7
 10
768.241
 20
581.784
 11
768.241
 21
563.833
  0
LINE
  8
Layer1
  6
CENTER1
 62
7
 10
743.241
 20
465.974
 11
743.241
 21
446.588
  0
LINE
  8
Layer1
  6
CENTER1
 62
7
 10
743.241
 20
582.359
 11
743.241
 21
563.866
  0
LINE
  8
Layer1
  6
CONTINUOUS
 62
7
 10
731.243
 20
580.784
 11
731.243
 21
450.784
  0
POLYLINE
  8
Layer1
  6
CONTINUOUS
 62
7
 66
1
 10
0
 20
0
 30
0
  0
VERTEX
  8
Layer1
 10
697.116
 20
524.313
  0
VERTEX
  8
Layer1
 10
697.101
 20
524.364
  0
VERTEX
  8
Layer1
 10
697.081
 20
524.426
  0
VERTEX
  8
Layer1
 10
697.058
 20
524.488
  0
VERTEX
  8
Layer1
 10
697.034
 20
524.549
  0
VERTEX
  8
Layer1
 10
697.008
 20
524.609
  0
VERTEX
  8
Layer1
 10
696.981
 20
524.668
  0
VERTEX
  8
Layer1
 10
696.95
 20
524.726
  0
VERTEX
  8
Layer1
 10
696.918
 20
524.784
  0
VERTEX
  8
Layer1
 10
696.885
 20
524.84
  0
VERTEX
  8
Layer1
 10
696.85
 20
524.895
  0
VERTEX
  8
Layer1
 10
696.832
 20
524.919
  0
SEQEND
  0
LINE
  8
Layer1
  6
DASHED1
 62
7
 10
667.187
 20
523.784
 11
667.187
 21
507.784
  0
LINE
  8
Layer1
  6
DASHED1
 62
7
 10
694.89
 20
505.784
 11
669.207
 21
505.784
  0
LINE
  8
Layer1
  6
DASHED1
 62
7
 10
694.688
 20
525.784
 11
669.187
 21
525.784
  0
LINE
  8
Layer1
  6
DASHED1
 62
7
 10
697.187
 20
523.571
 11
697.187
 21
507.864
  0
POLYLINE
  8
Layer1
  6
CONTINUOUS
 62
7
 66
1
 10
0
 20
0
 30
0
  0
VERTEX
  8
Layer1
 10
695.902
 20
505.916
  0
VERTEX
  8
Layer1
 10
695.952
 20
505.936
  0
VERTEX
  8
Layer1
 10
696.011
 20
505.962
  0
VERTEX
  8
Layer1
 10
696.072
 20
505.99
  0
VERTEX
  8
Layer1
 10
696.13
 20
506.02
  0
VERTEX
  8
Layer1
 10
696.187
 20
506.051
  0
VERTEX
  8
Layer1
 10
696.243
 20
506.085
  0
VERTEX
  8
Layer1
 10
696.298
 20
506.121
  0
VERTEX
  8
Layer1
 10
696.351
 20
506.158
  0
VERTEX
  8
Layer1
 10
696.404
 20
506.197
  0
VERTEX
  8
Layer1
 10
696.456
 20
506.238
  0
VERTEX
  8
Layer1
 10
696.505
 20
506.28
  0
VERTEX
  8
Layer1
 10
696.553
 20
506.324
  0
VERTEX
  8
Layer1
 10
696.601
 20
506.369
  0
VERTEX
  8
Layer1
 10
696.647
 20
506.416
  0
VERTEX
  8
Layer1
 10
696.69
 20
506.465
  0
VERTEX
  8
Layer1
 10
696.731
 20
506.515
  0
VERTEX
  8
Layer1
 10
696.774
 20
506.566
  0
VERTEX
  8
Layer1
 10
696.813
 20
506.619
  0
VERTEX
  8
Layer1
 10
696.85
 20
506.672
  0
VERTEX
  8
Layer1
 10
696.885
 20
506.727
  0
VERTEX
  8
Layer1
 10
696.918
 20
506.784
  0
VERTEX
  8
Layer1
 10
696.95
 20
506.841
  0
VERTEX
  8
Layer1
 10
696.981
 20
506.899
  0
VERTEX
  8
Layer1
 10
696.991
 20
506.92
  0
SEQEND
  0
LINE
  8
Layer1
  6
CONTINUOUS
 62
7
 10
667.187
 20
507.784
 11
667.188
 21
507.729
  0
POLYLINE
  8
Layer1
  6
CONTINUOUS
 62
7
 66
1
 10
0
 20
0
 30
0
  0
VERTEX
  8
Layer1
 10
669.187
 20
525.784
  0
VERTEX
  8
Layer1
 10
669.12
 20
525.782
  0
VERTEX
  8
Layer1
 10
669.072
 20
525.78
  0
SEQEND
  0
LINE
  8
Layer1
  6
CONTINUOUS
 62
7
 10
669.187
 20
525.784
 11
670.285
 21
525.784
  0
LINE
  8
Layer1
  6
CONTINUOUS
 62
7
 10
669.207
 20
505.784
 11
670.285
 21
505.784
  0
LINE
  8
Layer1
  6
CONTINUOUS
 62
7
 10
667.187
 20
507.784
 11
667.187
 21
508.74
  0
LINE
  8
Layer1
  6
CONTINUOUS
 62
7
 10
697.187
 20
509.01
 11
697.187
 21
507.864
  0
POLYLINE
  8
Layer1
  6
CONTINUOUS
 62
7
 66
1
 10
0
 20
0
 30
0
  0
VERTEX
  8
Layer1
 10
695.97
 20
525.623
  0
VERTEX
  8
Layer1
 10
695.952
 20
525.631
  0
VERTEX
  8
Layer1
 10
695.89
 20
525.655
  0
VERTEX
  8
Layer1
 10
695.83
 20
525.677
  0
VERTEX
  8
Layer1
 10
695.767
 20
525.697
  0
VERTEX
  8
Layer1
 10
695.705
 20
525.715
  0
VERTEX
  8
Layer1
 10
695.64
 20
525.731
  0
VERTEX
  8
Layer1
 10
695.577
 20
525.745
  0
VERTEX
  8
Layer1
 10
695.513
 20
525.757
  0
VERTEX
  8
Layer1
 10
695.447
 20
525.766
  0
VERTEX
  8
Layer1
 10
695.381
 20
525.774
  0
VERTEX
  8
Layer1
 10
695.318
 20
525.779
  0
VERTEX
  8
Layer1
 10
695.296
 20
525.78
  0
SEQEND
  0
POLYLINE
  8
Layer1
  6
CONTINUOUS
 62
7
 66
1
 10
0
 20
0
 30
0
  0
VERTEX
  8
Layer1
 10
668.332
 20
525.591
  0
VERTEX
  8
Layer1
 10
668.302
 20
525.577
  0
VERTEX
  8
Layer1
 10
668.244
 20
525.547
  0
VERTEX
  8
Layer1
 10
668.187
 20
525.516
  0
VERTEX
  8
Layer1
 10
668.13
 20
525.482
  0
VERTEX
  8
Layer1
 10
668.075
 20
525.446
  0
VERTEX
  8
Layer1
 10
668.022
 20
525.409
  0
VERTEX
  8
Layer1
 10
667.967
 20
525.37
  0
VERTEX
  8
Layer1
 10
667.918
 20
525.33
  0
VERTEX
  8
Layer1
 10
667.868
 20
525.287
  0
VERTEX
  8
Layer1
 10
667.82
 20
525.243
  0
VERTEX
  8
Layer1
 10
667.773
 20
525.198
  0
VERTEX
  8
Layer1
 10
667.726
 20
525.151
  0
VERTEX
  8
Layer1
 10
667.683
 20
525.102
  0
VERTEX
  8
Layer1
 10
667.64
 20
525.052
  0
VERTEX
  8
Layer1
 10
667.6
 20
525.001
  0
VERTEX
  8
Layer1
 10
667.561
 20
524.948
  0
VERTEX
  8
Layer1
 10
667.524
 20
524.895
  0
VERTEX
  8
Layer1
 10
667.488
 20
524.84
  0
VERTEX
  8
Layer1
 10
667.455
 20
524.784
  0
VERTEX
  8
Layer1
 10
667.423
 20
524.726
  0
VERTEX
  8
Layer1
 10
667.418
 20
524.717
  0
SEQEND
  0
POLYLINE
  8
Layer1
  6
CONTINUOUS
 62
7
 66
1
 10
0
 20
0
 30
0
  0
VERTEX
  8
Layer1
 10
667.19
 20
523.908
  0
VERTEX
  8
Layer1
 10
667.188
 20
523.849
  0
VERTEX
  8
Layer1
 10
667.187
 20
523.784
  0
SEQEND
  0
POLYLINE
  8
Layer1
  6
CONTINUOUS
 62
7
 66
1
 10
0
 20
0
 30
0
  0
VERTEX
  8
Layer1
 10
667.351
 20
506.988
  0
VERTEX
  8
Layer1
 10
667.364
 20
506.958
  0
VERTEX
  8
Layer1
 10
667.392
 20
506.899
  0
VERTEX
  8
Layer1
 10
667.423
 20
506.841
  0
VERTEX
  8
Layer1
 10
667.455
 20
506.784
  0
VERTEX
  8
Layer1
 10
667.488
 20
506.727
  0
VERTEX
  8
Layer1
 10
667.524
 20
506.672
  0
VERTEX
  8
Layer1
 10
667.561
 20
506.619
  0
VERTEX
  8
Layer1
 10
667.6
 20
506.566
  0
VERTEX
  8
Layer1
 10
667.64
 20
506.515
  0
VERTEX
  8
Layer1
 10
667.683
 20
506.465
  0
VERTEX
  8
Layer1
 10
667.726
 20
506.416
  0
VERTEX
  8
Layer1
 10
667.773
 20
506.369
  0
VERTEX
  8
Layer1
 10
667.82
 20
506.324
  0
VERTEX
  8
Layer1
 10
667.868
 20
506.28
  0
VERTEX
  8
Layer1
 10
667.918
 20
506.238
  0
VERTEX
  8
Layer1
 10
667.967
 20
506.197
  0
VERTEX
  8
Layer1
 10
668.022
 20
506.158
  0
VERTEX
  8
Layer1
 10
668.075
 20
506.121
  0
VERTEX
  8
Layer1
 10
668.13
 20
506.085
  0
VERTEX
  8
Layer1
 10
668.187
 20
506.051
  0
VERTEX
  8
Layer1
 10
668.244
 20
506.02
  0
VERTEX
  8
Layer1
 10
668.302
 20
505.99
  0
VERTEX
  8
Layer1
 10
668.361
 20
505.962
  0
VERTEX
  8
Layer1
 10
668.421
 20
505.936
  0
VERTEX
  8
Layer1
 10
668.467
 20
505.918
  0
SEQEND
  0
LINE
  8
Layer1
  6
CENTER1
 62
7
 10
720.243
 20
565.285
 11
720.243
 21
583.88
  0
LINE
  8
Layer1
  6
CENTER1
 62
7
 10
635.988
 20
573.284
 11
652.39
 21
573.284
  0
LINE
  8
Layer1
  6
CENTER1
 62
7
 10
712.111
 20
573.284
 11
728.265
 21
573.284
  0
LINE
  8
Layer1
  6
CENTER1
 62
7
 10
682.243
 20
565.599
 11
682.243
 21
584.193
  0
LINE
  8
Layer1
  6
CENTER1
 62
7
 10
644.243
 20
564.324
 11
644.243
 21
582.919
  0
CIRCLE
  8
Layer1
  6
CONTINUOUS
 62
7
 10
644.243
 20
573.284
 40
6.5
  0
CIRCLE
  8
Layer1
  6
CONTINUOUS
 62
7
 10
720.243
 20
573.284
 40
6.5
  0
LINE
  8
Layer1
  6
CENTER1
 62
7
 10
673.534
 20
573.284
 11
690.844
 21
573.284
  0
CIRCLE
  8
Layer1
  6
CONTINUOUS
 62
7
 10
682.243
 20
573.284
 40
6.5
  0
LINE
  8
Layer1
  6
CENTER1
 62
7
 10
635.988
 20
458.284
 11
652.39
 21
458.284
  0
LINE
  8
Layer1
  6
CENTER1
 62
7
 10
712.111
 20
458.284
 11
728.265
 21
458.284
  0
CIRCLE
  8
Layer1
  6
CONTINUOUS
 62
7
 10
644.188
 20
458.284
 40
6.5
  0
CIRCLE
  8
Layer1
  6
CONTINUOUS
 62
7
 10
720.188
 20
458.284
 40
6.5
  0
LINE
  8
Layer1
  6
CENTER1
 62
7
 10
674.216
 20
458.284
 11
691.524
 21
458.284
  0
CIRCLE
  8
Layer1
  6
CONTINUOUS
 62
7
 10
682.188
 20
458.284
 40
6.5
  0
LINE
  8
Layer1
  6
CENTER1
 62
7
 10
644.243
 20
449.977
 11
644.243
 21
466.59
  0
LINE
  8
Layer1
  6
CENTER1
 62
7
 10
682.243
 20
449.318
 11
682.243
 21
466.25
  0
LINE
  8
Layer1
  6
CENTER1
 62
7
 10
720.243
 20
449.668
 11
720.243
 21
466.192
  0
LINE
  8
Layer1
  6
CENTER1
 62
7
 10
734.874
 20
573.284
 11
776.672
 21
573.284
  0
LINE
  8
Layer1
  6
CENTER1
 62
7
 10
603.048
 20
558.284
 11
639.842
 21
558.284
  0
LINE
  8
Layer1
  6
CENTER1
 62
7
 10
775.678
 20
573.783
 11
802.154
 21
573.783
  0
LINE
  8
Layer1
  6
CENTER1
 62
7
 10
773.443
 20
457.783
 11
802.279
 21
457.783
  0
POLYLINE
  8
Layer1
  6
CONTINUOUS
 62
7
 66
1
 10
0
 20
0
 30
0
 70
1
  0
VERTEX
  8
Layer1
 10
427.553
 20
292.415
  0
VERTEX
  8
Layer1
 10
425.077
 20
290.985
  0
VERTEX
  8
Layer1
 10
425.077
 20
288.125
  0
VERTEX
  8
Layer1
 10
427.553
 20
286.695
  0
VERTEX
  8
Layer1
 10
430.029
 20
288.125
  0
VERTEX
  8
Layer1
 10
430.029
 20
290.985
  0
SEQEND
  0
POLYLINE
  8
Layer1
  6
CONTINUOUS
 62
7
 66
1
 10
0
 20
0
 30
0
 70
1
  0
VERTEX
  8
Layer1
 10
342.553
 20
292.415
  0
VERTEX
  8
Layer1
 10
340.077
 20
290.985
  0
VERTEX
  8
Layer1
 10
340.077
 20
288.125
  0
VERTEX
  8
Layer1
 10
342.553
 20
286.695
  0
VERTEX
  8
Layer1
 10
345.029
 20
288.125
  0
VERTEX
  8
Layer1
 10
345.029
 20
290.985
  0
SEQEND
  0
CIRCLE
  8
Layer1
  6
CONTINUOUS
 62
7
 10
342.553
 20
254.555
 40
4
  0
POLYLINE
  8
Layer1
  6
CONTINUOUS
 62
7
 66
1
 10
0
 20
0
 30
0
 70
1
  0
VERTEX
  8
Layer1
 10
342.553
 20
257.415
  0
VERTEX
  8
Layer1
 10
340.077
 20
255.985
  0
VERTEX
  8
Layer1
 10
340.077
 20
253.125
  0
VERTEX
  8
Layer1
 10
342.553
 20
251.695
  0
VERTEX
  8
Layer1
 10
345.029
 20
253.125
  0
VERTEX
  8
Layer1
 10
345.029
 20
255.985
  0
SEQEND
  0
POLYLINE
  8
Layer1
  6
CONTINUOUS
 62
7
 66
1
 10
0
 20
0
 30
0
 70
1
  0
VERTEX
  8
Layer1
 10
427.553
 20
257.415
  0
VERTEX
  8
Layer1
 10
425.077
 20
255.985
  0
VERTEX
  8
Layer1
 10
425.077
 20
253.125
  0
VERTEX
  8
Layer1
 10
427.553
 20
251.695
  0
VERTEX
  8
Layer1
 10
430.029
 20
253.125
  0
VERTEX
  8
Layer1
 10
430.029
 20
255.985
  0
SEQEND
  0
LINE
  8
Layer1
  6
CONTINUOUS
 62
7
 10
469.053
 20
227.055
 11
301.053
 21
227.055
  0
LINE
  8
Layer1
  6
CONTINUOUS
 62
7
 10
319.053
 20
296.055
 11
319.053
 21
250.055
  0
LINE
  8
Layer1
  6
CONTINUOUS
 62
7
 10
451.053
 20
295.855
 11
451.053
 21
250.055
  0
LINE
  8
Layer1
  6
CONTINUOUS
 62
7
 10
396.053
 20
227.055
 11
404.421
 21
227.055
  0
LINE
  8
Layer1
  6
CONTINUOUS
 62
7
 10
374.053
 20
227.055
 11
366.197
 21
227.055
  0
LINE
  8
Layer1
  6
CONTINUOUS
 62
7
 10
393.928
 20
227.055
 11
411.529
 21
227.055
  0
CIRCLE
  8
Layer1
  6
CONTINUOUS
 62
7
 10
342.553
 20
289.555
 40
4
  0
LINE
  8
Layer1
  6
CONTINUOUS
 62
7
 10
470.053
 20
244.055
 11
470.053
 21
228.055
  0
LINE
  8
Layer1
  6
CONTINUOUS
 62
7
 10
300.053
 20
228.055
 11
300.053
 21
244.055
  0
LINE
  8
Layer1
  6
CONTINUOUS
 62
7
 10
301.053
 20
245.055
 11
314.053
 21
245.055
  0
LINE
  8
Layer1
  6
CENTER1
 62
7
 10
310.053
 20
249.734
 11
310.053
 21
223.838
  0
LINE
  8
Layer1
  6
CENTER1
 62
7
 10
460.053
 20
249.197
 11
460.053
 21
222.362
  0
LINE
  8
Layer1
  6
CONTINUOUS
 62
7
 10
335.053
 20
248.055
 11
335.053
 21
296.055
  0
LINE
  8
Layer1
  6
CONTINUOUS
 62
7
 10
435.053
 20
248.055
 11
435.053
 21
296.055
  0
LINE
  8
Layer1
  6
CONTINUOUS
 62
7
 10
469.053
 20
245.055
 11
456.053
 21
245.055
  0
LINE
  8
Layer1
  6
CENTER1
 62
7
 10
342.553
 20
295.703
 11
342.553
 21
283.109
  0
LINE
  8
Layer1
  6
CENTER1
 62
7
 10
427.553
 20
296.053
 11
427.553
 21
283.226
  0
LINE
  8
Layer1
  6
CENTER1
 62
7
 10
336.991
 20
289.555
 11
350.015
 21
289.555
  0
LINE
  8
Layer1
  6
CENTER1
 62
7
 10
336.688
 20
254.555
 11
351.635
 21
254.555
  0
LINE
  8
Layer1
  6
CONTINUOUS
 62
7
 10
334.053
 20
297.055
 11
320.053
 21
297.055
  0
LINE
  8
Layer1
  6
CONTINUOUS
 62
7
 10
334.053
 20
297.055
 11
335.053
 21
296.055
  0
LINE
  8
Layer1
  6
CONTINUOUS
 62
7
 10
435.053
 20
295.855
 11
436.053
 21
296.855
  0
LINE
  8
Layer1
  6
CONTINUOUS
 62
7
 10
434.053
 20
297.055
 11
435.053
 21
296.055
  0
LINE
  8
Layer1
  6
CONTINUOUS
 62
7
 10
335.053
 20
296.055
 11
336.053
 21
297.055
  0
LINE
  8
Layer1
  6
DASHED1
 62
7
 10
433.053
 20
284.055
 11
433.053
 21
312.055
  0
LINE
  8
Layer1
  6
DASHED1
 62
7
 10
337.053
 20
284.055
 11
337.053
 21
312.055
  0
LINE
  8
Layer1
  6
CONTINUOUS
 62
7
 10
319.053
 20
358.055
 11
319.053
 21
371.055
  0
LINE
  8
Layer1
  6
CONTINUOUS
 62
7
 10
451.053
 20
358.055
 11
451.053
 21
371.055
  0
LINE
  8
Layer1
  6
CONTINUOUS
 62
7
 10
450.053
 20
372.055
 11
320.053
 21
372.055
  0
LINE
  8
Layer1
  6
CONTINUOUS
 62
7
 10
320.053
 20
357.055
 11
335.053
 21
357.055
  0
LINE
  8
Layer1
  6
CONTINUOUS
 62
7
 10
450.053
 20
357.055
 11
435.053
 21
357.055
  0
LINE
  8
Layer1
  6
CONTINUOUS
 62
7
 10
301.053
 20
245.055
 11
300.053
 21
244.055
  0
LINE
  8
Layer1
  6
CONTINUOUS
 62
7
 10
300.053
 20
228.055
 11
301.053
 21
227.055
  0
LINE
  8
Layer1
  6
CONTINUOUS
 62
7
 10
469.053
 20
227.055
 11
470.053
 21
228.055
  0
LINE
  8
Layer1
  6
CONTINUOUS
 62
7
 10
470.053
 20
244.055
 11
469.053
 21
245.055
  0
LINE
  8
Layer1
  6
CENTER1
 62
7
 10
342.553
 20
260.513
 11
342.553
 21
242.32
  0
LINE
  8
Layer1
  6
CENTER1
 62
7
 10
427.553
 20
260.977
 11
427.553
 21
242.857
  0
LINE
  8
Layer1
  6
CENTER1
 62
7
 10
421.404
 20
289.555
 11
435.053
 21
289.555
  0
LINE
  8
Layer1
  6
DASHED1
 62
7
 10
339.053
 20
282.055
 11
431.053
 21
282.055
  0
LINE
  8
Layer1
  6
CENTER1
 62
7
 10
421.123
 20
254.555
 11
435.053
 21
254.555
  0
LINE
  8
Layer1
  6
CENTER1
 62
7
 10
327.553
 20
376.922
 11
327.553
 21
347.413
  0
LINE
  8
Layer1
  6
CENTER1
 62
7
 10
442.553
 20
376.922
 11
442.553
 21
348.487
  0
LINE
  8
Layer1
  6
CONTINUOUS
 62
7
 10
320.053
 20
372.055
 11
319.053
 21
371.055
  0
LINE
  8
Layer1
  6
CONTINUOUS
 62
7
 10
450.053
 20
372.055
 11
451.053
 21
371.055
  0
LINE
  8
Layer1
  6
CONTINUOUS
 62
7
 10
451.053
 20
358.055
 11
450.053
 21
357.055
  0
LINE
  8
Layer1
  6
CONTINUOUS
 62
7
 10
319.053
 20
358.055
 11
320.053
 21
357.055
  0
ARC
  8
Layer1
  6
CONTINUOUS
 62
7
 10
335.053
 20
355.055
 40
2
 50
0
 51
90
  0
ARC
  8
Layer1
  6
CONTINUOUS
 62
7
 10
435.053
 20
355.055
 40
2
 50
90
 51
180
  0
LINE
  8
Layer1
  6
CONTINUOUS
 62
7
 10
433.053
 20
312.055
 11
433.053
 21
355.055
  0
LINE
  8
Layer1
  6
CONTINUOUS
 62
7
 10
337.053
 20
312.055
 11
337.053
 21
355.055
  0
LINE
  8
Layer1
  6
CENTER1
 62
7
 10
442.553
 20
315.706
 11
442.553
 21
287.55
  0
LINE
  8
Layer1
  6
CENTER1
 62
7
 10
327.553
 20
314.352
 11
327.553
 21
292.681
  0
ARC
  8
Layer1
  6
CONTINUOUS
 62
7
 10
314.053
 20
250.055
 40
5
 50
270
 51
0
  0
ARC
  8
Layer1
  6
CONTINUOUS
 62
7
 10
456.053
 20
250.055
 40
5
 50
180
 51
270
  0
LINE
  8
Layer1
  6
CONTINUOUS
 62
7
 10
434.053
 20
247.055
 11
336.053
 21
247.055
  0
LINE
  8
Layer1
  6
CONTINUOUS
 62
7
 10
451.053
 20
311.055
 11
451.053
 21
298.055
  0
LINE
  8
Layer1
  6
CONTINUOUS
 62
7
 10
319.053
 20
311.055
 11
319.053
 21
298.055
  0
LINE
  8
Layer1
  6
CONTINUOUS
 62
7
 10
335.053
 20
248.055
 11
336.053
 21
247.055
  0
LINE
  8
Layer1
  6
CONTINUOUS
 62
7
 10
434.053
 20
247.055
 11
435.053
 21
248.055
  0
LINE
  8
Layer1
  6
CONTINUOUS
 62
7
 10
319.053
 20
298.055
 11
320.053
 21
297.055
  0
LINE
  8
Layer1
  6
CONTINUOUS
 62
7
 10
320.053
 20
297.055
 11
319.053
 21
296.055
  0
LINE
  8
Layer1
  6
CONTINUOUS
 62
7
 10
451.053
 20
298.055
 11
450.053
 21
297.055
  0
LINE
  8
Layer1
  6
CONTINUOUS
 62
7
 10
449.852
 20
297.055
 11
451.053
 21
295.855
  0
LINE
  8
Layer1
  6
CONTINUOUS
 62
7
 10
449.852
 20
297.055
 11
334.053
 21
297.055
  0
LINE
  8
Layer1
  6
DASHED1
 62
7
 10
337.053
 20
284.055
 11
339.053
 21
282.055
  0
LINE
  8
Layer1
  6
DASHED1
 62
7
 10
431.053
 20
282.055
 11
433.053
 21
284.055
  0
LINE
  8
Layer1
  6
CONTINUOUS
 62
7
 10
777.241
 20
600.784
 11
634.243
 21
600.784
  0
LINE
  8
Layer1
  6
CONTINUOUS
 62
7
 10
634.243
 20
581.784
 11
730.243
 21
581.784
  0
LINE
  8
Layer1
  6
DASHED1
 62
7
 10
634.188
 20
565.784
 11
778.245
 21
565.784
  0
LINE
  8
Layer1
  6
CONTINUOUS
 62
7
 10
634.243
 20
449.784
 11
730.243
 21
449.784
  0
LINE
  8
Layer1
  6
CONTINUOUS
 62
7
 10
777.241
 20
430.784
 11
634.243
 21
430.784
  0
LINE
  8
Layer1
  6
CONTINUOUS
 62
7
 10
778.241
 20
580.784
 11
778.241
 21
599.784
  0
LINE
  8
Layer1
  6
DASHED1
 62
7
 10
634.188
 20
465.784
 11
778.243
 21
465.784
  0
LINE
  8
Layer1
  6
CONTINUOUS
 62
7
 10
633.243
 20
599.784
 11
634.243
 21
600.784
  0
LINE
  8
Layer1
  6
CONTINUOUS
 62
7
 10
731.243
 20
450.784
 11
730.243
 21
449.784
  0
LINE
  8
Layer1
  6
CONTINUOUS
 62
7
 10
731.243
 20
580.784
 11
730.243
 21
581.784
  0
LINE
  8
Layer1
  6
CONTINUOUS
 62
7
 10
777.241
 20
449.784
 11
778.241
 21
450.784
  0
LINE
  8
Layer1
  6
CONTINUOUS
 62
7
 10
778.241
 20
580.784
 11
777.241
 21
581.784
  0
LINE
  8
Layer1
  6
CONTINUOUS
 62
7
 10
733.241
 20
450.784
 11
734.241
 21
449.784
  0
LINE
  8
Layer1
  6
CONTINUOUS
 62
7
 10
734.241
 20
581.784
 11
777.241
 21
581.784
  0
LINE
  8
Layer1
  6
CONTINUOUS
 62
7
 10
734.241
 20
581.784
 11
733.241
 21
580.784
  0
LINE
  8
Layer1
  6
CONTINUOUS
 62
7
 10
734.241
 20
449.784
 11
777.241
 21
449.784
  0
LINE
  8
Layer1
  6
CENTER1
 62
7
 10
635.197
 20
590.784
 11
775.736
 21
590.784
  0
LINE
  8
Layer1
  6
CONTINUOUS
 62
7
 10
793.241
 20
450.784
 11
793.241
 21
580.784
  0
LINE
  8
Layer1
  6
CONTINUOUS
 62
7
 10
778.241
 20
431.784
 11
778.241
 21
599.784
  0
LINE
  8
Layer1
  6
CENTER1
 62
7
 10
598.354
 20
473.284
 11
643.88
 21
473.284
  0
LINE
  8
Layer1
  6
CONTINUOUS
 62
7
 10
779.241
 20
581.784
 11
792.241
 21
581.784
  0
LINE
  8
Layer1
  6
CONTINUOUS
 62
7
 10
779.241
 20
449.784
 11
792.241
 21
449.784
  0
LINE
  8
Layer1
  6
CONTINUOUS
 62
7
 10
792.241
 20
581.784
 11
793.241
 21
580.784
  0
LINE
  8
Layer1
  6
CONTINUOUS
 62
7
 10
792.241
 20
449.784
 11
793.241
 21
450.784
  0
LINE
  8
Layer1
  6
CONTINUOUS
 62
7
 10
778.241
 20
450.784
 11
779.241
 21
449.784
  0
LINE
  8
Layer1
  6
CONTINUOUS
 62
7
 10
778.241
 20
580.784
 11
779.241
 21
581.784
  0
LINE
  8
Layer1
  6
CONTINUOUS
 62
7
 10
433.053
 20
321.577
 11
396.053
 21
321.577
  0
LINE
  8
Layer1
  6
CENTER1
 62
7
 10
401.053
 20
244.915
 11
401.053
 21
230.061
  0
LINE
  8
Layer1
  6
CENTER1
 62
7
 10
369.053
 20
244.335
 11
369.053
 21
230.477
  0
CIRCLE
  8
Layer1
  6
CONTINUOUS
 62
7
 10
369.053
 20
237.555
 40
5
  0
CIRCLE
  8
Layer1
  6
CONTINUOUS
 62
7
 10
369.053
 20
237.555
 40
4
  0
CIRCLE
  8
Layer1
  6
CONTINUOUS
 62
7
 10
401.053
 20
237.555
 40
5
  0
CIRCLE
  8
Layer1
  6
CONTINUOUS
 62
7
 10
401.053
 20
237.555
 40
4
  0
LINE
  8
Layer1
  6
CENTER1
 62
7
 10
409.294
 20
237.555
 11
360.726
 21
237.555
  0
LINE
  8
Layer1
  6
CONTINUOUS
 62
7
 10
350.015
 20
289.555
 11
357.413
 21
289.555
  0
LINE
  8
Layer1
  6
CENTER1
 62
7
 10
355.053
 20
292.472
 11
355.053
 21
286.72
  0
LINE
  8
Layer1
  6
CENTER1
 62
7
 10
352.783
 20
289.555
 11
357.973
 21
289.555
  0
CIRCLE
  8
Layer1
  6
CONTINUOUS
 62
7
 10
355.053
 20
289.555
 40
1.25
  0
LINE
  8
Layer1
  6
CENTER1
 62
7
 10
415.053
 20
257.472
 11
415.053
 21
251.72
  0
LINE
  8
Layer1
  6
CENTER1
 62
7
 10
412.783
 20
254.555
 11
417.972
 21
254.555
  0
CIRCLE
  8
Layer1
  6
CONTINUOUS
 62
7
 10
415.053
 20
254.555
 40
1.25
  0
TEXT
  8
Layer1
 62
7
 10
508.923
 20
249.965
 72
1
 11
508.923
 21
249.965
 40
4
 41
1
 50
90
  1
中心間距離
  0
TEXT
  8
Layer1
 62
7
 10
302.094
 20
328.055
 40
8
 41
1
  1
2-φ2.5
  0
LINE
  8
Layer1
  6
CONTINUOUS
 62
7
 10
328.527
 20
328.098
 11
299.75
 21
328.098
  0
POLYLINE
  8
Layer1
  6
CONTINUOUS
 62
7
 66
1
 10
0
 20
0
 30
0
  0
VERTEX
  8
Layer1
 10
354.729
 20
289.496
  0
VERTEX
  8
Layer1
 10
328.527
 20
328.098
  0
VERTEX
  8
Layer1
 10
328.527
 20
328.098
  0
SEQEND
  0
POLYLINE
  8
Layer1
  6
CONTINUOUS
 62
7
 66
1
 10
0
 20
0
 30
0
  0
VERTEX
  8
Layer1
 10
354.072
 20
291.385
  0
VERTEX
  8
Layer1
 10
354.729
 20
289.496
  0
VERTEX
  8
Layer1
 10
353.217
 20
290.804
  0
SEQEND
  0
TEXT
  8
Layer1
 62
7
 10
562.498
 20
567.039
 40
6
 41
1
  1
ベース取付穴
  0
POLYLINE
  8
Layer1
  6
CONTINUOUS
 62
7
 66
1
 10
0
 20
0
 30
0
  0
VERTEX
  8
Layer1
 10
642.561
 20
587.602
  0
VERTEX
  8
Layer1
 10
599.64
 20
574.151
  0
VERTEX
  8
Layer1
 10
599.64
 20
574.151
  0
SEQEND
  0
POLYLINE
  8
Layer1
  6
CONTINUOUS
 62
7
 66
1
 10
0
 20
0
 30
0
  0
VERTEX
  8
Layer1
 10
640.562
 20
587.518
  0
VERTEX
  8
Layer1
 10
642.561
 20
587.602
  0
VERTEX
  8
Layer1
 10
640.87
 20
586.53
  0
SEQEND
  0
LINE
  8
Layer1
  6
CONTINUOUS
 62
7
 10
599.64
 20
574.151
 11
571.64
 21
574.151
  0
TEXT
  8
Layer1
 62
7
 10
571.64
 20
574.151
 40
8
 41
1
  1
6-9キリ
  0
POLYLINE
  8
Layer1
  6
CONTINUOUS
 62
7
 66
1
 10
0
 20
0
 30
0
  0
VERTEX
  8
Layer1
 10
771.351
 20
576.852
  0
VERTEX
  8
Layer1
 10
794.854
 20
618.972
  0
VERTEX
  8
Layer1
 10
794.854
 20
618.972
  0
SEQEND
  0
POLYLINE
  8
Layer1
  6
CONTINUOUS
 62
7
 66
1
 10
0
 20
0
 30
0
  0
VERTEX
  8
Layer1
 10
772.745
 20
578.287
  0
VERTEX
  8
Layer1
 10
771.351
 20
576.852
  0
VERTEX
  8
Layer1
 10
771.842
 20
578.791
  0
SEQEND
  0
LINE
  8
Layer1
  6
CONTINUOUS
 62
7
 10
794.854
 20
618.972
 11
822.854
 21
618.972
  0
TEXT
  8
Layer1
 62
7
 10
822.854
 20
618.972
 72
2
 11
822.854
 21
618.972
 40
8
 41
1
  1
4-9キリ
  0
TEXT
  8
Layer1
 62
7
 10
794.485
 20
612.148
 40
6
 41
1
  1
アッパー取付穴
  0
LINE
  8
Layer1
  6
CONTINUOUS
 62
7
 10
634.243
 20
581.784
 11
633.243
 21
580.784
  0
LINE
  8
Layer1
  6
CONTINUOUS
 62
7
 10
633.243
 20
599.784
 11
633.243
 21
431.784
  0
LINE
  8
Layer1
  6
CONTINUOUS
 62
7
 10
629.743
 20
565.784
 11
633.243
 21
565.784
  0
LINE
  8
Layer1
  6
CONTINUOUS
 62
7
 10
628.743
 20
466.784
 11
628.743
 21
564.784
  0
LINE
  8
Layer1
  6
CONTINUOUS
 62
7
 10
606.743
 20
565.784
 11
627.743
 21
565.784
  0
LINE
  8
Layer1
  6
CONTINUOUS
 62
7
 10
605.743
 20
466.784
 11
605.743
 21
564.784
  0
LINE
  8
Layer1
  6
CONTINUOUS
 62
7
 10
606.743
 20
465.784
 11
627.743
 21
465.784
  0
LINE
  8
Layer1
  6
CONTINUOUS
 62
7
 10
605.743
 20
466.784
 11
606.743
 21
465.784
  0
LINE
  8
Layer1
  6
CONTINUOUS
 62
7
 10
628.743
 20
466.784
 11
627.743
 21
465.784
  0
LINE
  8
Layer1
  6
CONTINUOUS
 62
7
 10
628.743
 20
466.784
 11
629.743
 21
465.784
  0
LINE
  8
Layer1
  6
CONTINUOUS
 62
7
 10
629.743
 20
465.784
 11
633.243
 21
465.784
  0
LINE
  8
Layer1
  6
CONTINUOUS
 62
7
 10
628.743
 20
564.784
 11
629.743
 21
565.784
  0
LINE
  8
Layer1
  6
CONTINUOUS
 62
7
 10
628.743
 20
564.784
 11
627.743
 21
565.784
  0
LINE
  8
Layer1
  6
CONTINUOUS
 62
7
 10
605.743
 20
564.784
 11
606.743
 21
565.784
  0
LINE
  8
Layer1
  6
CONTINUOUS
 62
7
 10
633.243
 20
450.784
 11
634.243
 21
449.784
  0
LINE
  8
Layer1
  6
CONTINUOUS
 62
7
 10
633.243
 20
431.784
 11
634.243
 21
430.784
  0
LINE
  8
Layer1
  6
CONTINUOUS
 62
7
 10
633.191
 20
227.249
 11
776.188
 21
227.249
  0
LINE
  8
Layer1
  6
DASHED1
 62
7
 10
632.188
 20
240.249
 11
677.217
 21
240.249
  0
LINE
  8
Layer1
  6
DASHED1
 62
7
 10
632.011
 20
232.249
 11
677.217
 21
232.249
  0
LINE
  8
Layer1
  6
CONTINUOUS
 62
7
 10
628.691
 20
297.249
 11
631.191
 21
297.249
  0
LINE
  8
Layer1
  6
CONTINUOUS
 62
7
 10
684.743
 20
312.412
 11
684.743
 21
304.228
  0
LINE
  8
Layer1
  6
CONTINUOUS
 62
7
 10
679.743
 20
312.249
 11
679.743
 21
304.172
  0
LINE
  8
Layer1
  6
CONTINUOUS
 62
7
 10
685.243
 20
304.541
 11
685.243
 21
303.212
  0
LINE
  8
Layer1
  6
CENTER1
 62
7
 10
592.32
 20
272.249
 11
779.765
 21
272.249
  0
LINE
  8
Layer1
  6
DASHED1
 62
7
 10
648.184
 20
292.749
 11
648.184
 21
286.749
  0
POLYLINE
  8
Layer1
  6
CONTINUOUS
 62
7
 66
1
 10
0
 20
0
 30
0
  0
VERTEX
  8
Layer1
 10
674.005
 20
296.923
  0
VERTEX
  8
Layer1
 10
674.255
 20
296.089
  0
VERTEX
  8
Layer1
 10
674.511
 20
295.258
  0
VERTEX
  8
Layer1
 10
674.774
 20
294.433
  0
VERTEX
  8
Layer1
 10
675.046
 20
293.616
  0
VERTEX
  8
Layer1
 10
675.332
 20
292.812
  0
VERTEX
  8
Layer1
 10
675.636
 20
292.022
  0
VERTEX
  8
Layer1
 10
675.962
 20
291.249
  0
VERTEX
  8
Layer1
 10
676.311
 20
290.498
  0
VERTEX
  8
Layer1
 10
676.688
 20
289.769
  0
VERTEX
  8
Layer1
 10
677.095
 20
289.067
  0
VERTEX
  8
Layer1
 10
677.537
 20
288.394
  0
VERTEX
  8
Layer1
 10
678.018
 20
287.753
  0
VERTEX
  8
Layer1
 10
678.542
 20
287.148
  0
VERTEX
  8
Layer1
 10
679.11
 20
286.58
  0
VERTEX
  8
Layer1
 10
679.726
 20
286.054
  0
VERTEX
  8
Layer1
 10
680.393
 20
285.57
  0
VERTEX
  8
Layer1
 10
681.104
 20
285.124
  0
VERTEX
  8
Layer1
 10
681.84
 20
284.701
  0
VERTEX
  8
Layer1
 10
682.583
 20
284.288
  0
VERTEX
  8
Layer1
 10
683.32
 20
283.873
  0
VERTEX
  8
Layer1
 10
684.029
 20
283.443
  0
VERTEX
  8
Layer1
 10
684.693
 20
282.983
  0
VERTEX
  8
Layer1
 10
685.298
 20
282.482
  0
VERTEX
  8
Layer1
 10
685.827
 20
281.925
  0
VERTEX
  8
Layer1
 10
686.263
 20
281.303
  0
VERTEX
  8
Layer1
 10
686.614
 20
280.619
  0
VERTEX
  8
Layer1
 10
686.894
 20
279.883
  0
VERTEX
  8
Layer1
 10
687.119
 20
279.105
  0
VERTEX
  8
Layer1
 10
687.298
 20
278.294
  0
VERTEX
  8
Layer1
 10
687.452
 20
277.46
  0
VERTEX
  8
Layer1
 10
687.592
 20
276.613
  0
VERTEX
  8
Layer1
 10
687.729
 20
275.762
  0
VERTEX
  8
Layer1
 10
687.881
 20
274.916
  0
VERTEX
  8
Layer1
 10
688.063
 20
274.087
  0
VERTEX
  8
Layer1
 10
688.284
 20
273.281
  0
VERTEX
  8
Layer1
 10
688.548
 20
272.5
  0
VERTEX
  8
Layer1
 10
688.851
 20
271.744
  0
VERTEX
  8
Layer1
 10
689.196
 20
271.011
  0
VERTEX
  8
Layer1
 10
689.573
 20
270.3
  0
VERTEX
  8
Layer1
 10
689.986
 20
269.609
  0
VERTEX
  8
Layer1
 10
690.433
 20
268.938
  0
VERTEX
  8
Layer1
 10
690.909
 20
268.285
  0
VERTEX
  8
Layer1
 10
691.412
 20
267.648
  0
VERTEX
  8
Layer1
 10
691.941
 20
267.027
  0
VERTEX
  8
Layer1
 10
692.495
 20
266.42
  0
VERTEX
  8
Layer1
 10
693.07
 20
265.827
  0
VERTEX
  8
Layer1
 10
693.664
 20
265.245
  0
VERTEX
  8
Layer1
 10
694.274
 20
264.673
  0
VERTEX
  8
Layer1
 10
694.902
 20
264.111
  0
VERTEX
  8
Layer1
 10
695.543
 20
263.557
  0
VERTEX
  8
Layer1
 10
696.195
 20
263.01
  0
VERTEX
  8
Layer1
 10
696.856
 20
262.469
  0
VERTEX
  8
Layer1
 10
697.523
 20
261.932
  0
VERTEX
  8
Layer1
 10
698.196
 20
261.398
  0
VERTEX
  8
Layer1
 10
698.87
 20
260.865
  0
VERTEX
  8
Layer1
 10
699.546
 20
260.334
  0
VERTEX
  8
Layer1
 10
700.22
 20
259.801
  0
VERTEX
  8
Layer1
 10
700.89
 20
259.267
  0
VERTEX
  8
Layer1
 10
701.556
 20
258.73
  0
VERTEX
  8
Layer1
 10
702.211
 20
258.187
  0
VERTEX
  8
Layer1
 10
702.851
 20
257.635
  0
VERTEX
  8
Layer1
 10
703.476
 20
257.073
  0
VERTEX
  8
Layer1
 10
704.075
 20
256.498
  0
VERTEX
  8
Layer1
 10
704.649
 20
255.907
  0
VERTEX
  8
Layer1
 10
705.19
 20
255.298
  0
VERTEX
  8
Layer1
 10
705.697
 20
254.668
  0
VERTEX
  8
Layer1
 10
706.163
 20
254.015
  0
VERTEX
  8
Layer1
 10
706.586
 20
253.336
  0
VERTEX
  8
Layer1
 10
706.962
 20
252.629
  0
VERTEX
  8
Layer1
 10
707.285
 20
251.892
  0
VERTEX
  8
Layer1
 10
707.561
 20
251.127
  0
VERTEX
  8
Layer1
 10
707.791
 20
250.335
  0
VERTEX
  8
Layer1
 10
707.98
 20
249.522
  0
VERTEX
  8
Layer1
 10
708.134
 20
248.689
  0
VERTEX
  8
Layer1
 10
708.258
 20
247.839
  0
VERTEX
  8
Layer1
 10
708.355
 20
246.977
  0
VERTEX
  8
Layer1
 10
708.429
 20
246.104
  0
VERTEX
  8
Layer1
 10
708.489
 20
245.224
  0
VERTEX
  8
Layer1
 10
708.534
 20
244.341
  0
VERTEX
  8
Layer1
 10
708.572
 20
243.456
  0
VERTEX
  8
Layer1
 10
708.606
 20
242.574
  0
VERTEX
  8
Layer1
 10
708.64
 20
241.696
  0
VERTEX
  8
Layer1
 10
708.682
 20
240.828
  0
VERTEX
  8
Layer1
 10
708.734
 20
239.97
  0
VERTEX
  8
Layer1
 10
708.799
 20
239.127
  0
VERTEX
  8
Layer1
 10
708.885
 20
238.302
  0
VERTEX
  8
Layer1
 10
708.995
 20
237.497
  0
VERTEX
  8
Layer1
 10
709.133
 20
236.716
  0
VERTEX
  8
Layer1
 10
709.303
 20
235.962
  0
VERTEX
  8
Layer1
 10
709.514
 20
235.237
  0
VERTEX
  8
Layer1
 10
709.765
 20
234.546
  0
VERTEX
  8
Layer1
 10
710.063
 20
233.891
  0
VERTEX
  8
Layer1
 10
710.413
 20
233.274
  0
VERTEX
  8
Layer1
 10
710.818
 20
232.7
  0
VERTEX
  8
Layer1
 10
711.28
 20
232.167
  0
VERTEX
  8
Layer1
 10
711.793
 20
231.674
  0
VERTEX
  8
Layer1
 10
712.356
 20
231.218
  0
VERTEX
  8
Layer1
 10
712.967
 20
230.796
  0
VERTEX
  8
Layer1
 10
713.619
 20
230.408
  0
VERTEX
  8
Layer1
 10
714.312
 20
230.049
  0
VERTEX
  8
Layer1
 10
715.042
 20
229.718
  0
VERTEX
  8
Layer1
 10
715.804
 20
229.412
  0
VERTEX
  8
Layer1
 10
716.601
 20
229.13
  0
VERTEX
  8
Layer1
 10
717.422
 20
228.868
  0
VERTEX
  8
Layer1
 10
718.27
 20
228.625
  0
VERTEX
  8
Layer1
 10
719.14
 20
228.399
  0
VERTEX
  8
Layer1
 10
720.025
 20
228.186
  0
VERTEX
  8
Layer1
 10
720.928
 20
227.985
  0
VERTEX
  8
Layer1
 10
721.844
 20
227.793
  0
VERTEX
  8
Layer1
 10
722.769
 20
227.608
  0
VERTEX
  8
Layer1
 10
723.7
 20
227.427
  0
VERTEX
  8
Layer1
 10
724.634
 20
227.249
  0
SEQEND
  0
LINE
  8
Layer1
  6
CONTINUOUS
 62
7
 10
776.191
 20
372.249
 11
733.191
 21
372.249
  0
LINE
  8
Layer1
  6
CONTINUOUS
 62
7
 10
776.191
 20
356.249
 11
733.191
 21
356.249
  0
LINE
  8
Layer1
  6
CENTER1
 62
7
 10
767.191
 20
373.961
 11
767.191
 21
351.37
  0
LINE
  8
Layer1
  6
CENTER1
 62
7
 10
742.191
 20
373.961
 11
742.191
 21
351.11
  0
LINE
  8
Layer1
  6
CENTER1
 62
7
 10
747.191
 20
224.435
 11
747.191
 21
269.859
  0
LINE
  8
Layer1
  6
CONTINUOUS
 62
7
 10
753.191
 20
228.426
 11
753.191
 21
250.426
  0
LINE
  8
Layer1
  6
CONTINUOUS
 62
7
 10
741.191
 20
228.426
 11
741.191
 21
250.426
  0
LINE
  8
Layer1
  6
CONTINUOUS
 62
7
 10
741.191
 20
250.426
 11
753.191
 21
250.426
  0
LINE
  8
Layer1
  6
CONTINUOUS
 62
7
 10
776.234
 20
247.249
 11
753.183
 21
247.249
  0
LINE
  8
Layer1
  6
DASHED1
 62
7
 10
744.191
 20
241.036
 11
744.191
 21
262.426
  0
LINE
  8
Layer1
  6
DASHED1
 62
7
 10
750.191
 20
251.426
 11
750.191
 21
262.426
  0
LINE
  8
Layer1
  6
DASHED1
 62
7
 10
744.191
 20
262.426
 11
750.191
 21
262.426
  0
LINE
  8
Layer1
  6
DASHED1
 62
7
 10
744.691
 20
241.052
 11
744.691
 21
265.983
  0
LINE
  8
Layer1
  6
DASHED1
 62
7
 10
749.691
 20
241.413
 11
749.691
 21
265.983
  0
LINE
  8
Layer1
  6
CONTINUOUS
 62
7
 10
747.191
 20
267.426
 11
749.691
 21
265.983
  0
LINE
  8
Layer1
  6
CONTINUOUS
 62
7
 10
747.191
 20
267.426
 11
744.691
 21
265.983
  0
LINE
  8
Layer1
  6
DASHED1
 62
7
 10
744.691
 20
265.983
 11
749.691
 21
265.983
  0
LINE
  8
Layer1
  6
CONTINUOUS
 62
7
 10
749.691
 20
265.983
 11
749.37
 21
265.983
  0
LINE
  8
Layer1
  6
CONTINUOUS
 62
7
 10
750.191
 20
262.426
 11
749.066
 21
262.426
  0
LINE
  8
Layer1
  6
CONTINUOUS
 62
7
 10
744.191
 20
262.426
 11
744.191
 21
261.526
  0
LINE
  8
Layer1
  6
DASHED1
 62
7
 10
750.191
 20
262.426
 11
750.191
 21
241.807
  0
LINE
  8
Layer1
  6
CONTINUOUS
 62
7
 10
743.191
 20
250.426
 11
751.191
 21
250.426
  0
LINE
  8
Layer1
  6
CONTINUOUS
 62
7
 10
753.191
 20
228.426
 11
741.191
 21
228.426
  0
LINE
  8
Layer1
  6
CENTER1
 62
7
 10
641.303
 20
254.749
 11
598.88
 21
254.749
  0
LINE
  8
Layer1
  6
CENTER1
 62
7
 10
666.758
 20
229.52
 11
711.433
 21
229.52
  0
LINE
  8
Layer1
  6
CENTER1
 62
7
 10
708.366
 20
243.014
 11
665.587
 21
243.014
  0
LINE
  8
Layer1
  6
DASHED1
 62
7
 10
677.217
 20
232.249
 11
677.217
 21
240.249
  0
LINE
  8
Layer1
  6
CENTER1
 62
7
 10
681.993
 20
236.249
 11
627.256
 21
236.249
  0
LINE
  8
Layer1
  6
DASHED1
 62
7
 10
669.342
 20
227.261
 11
671.642
 21
227.261
  0
LINE
  8
Layer1
  6
DASHED1
 62
7
 10
670.109
 20
245.261
 11
667.806
 21
245.261
  0
LINE
  8
Layer1
  6
DASHED1
 62
7
 10
667.806
 20
240.767
 11
670.109
 21
240.767
  0
LINE
  8
Layer1
  6
DASHED1
 62
7
 10
669.342
 20
231.779
 11
671.642
 21
231.779
  0
LINE
  8
Layer1
  6
DASHED1
 62
7
 10
670.109
 20
245.261
 11
670.109
 21
240.767
  0
LINE
  8
Layer1
  6
DASHED1
 62
7
 10
667.806
 20
245.261
 11
667.806
 21
240.767
  0
LINE
  8
Layer1
  6
DASHED1
 62
7
 10
669.342
 20
231.779
 11
669.342
 21
227.261
  0
LINE
  8
Layer1
  6
DASHED1
 62
7
 10
671.642
 20
231.779
 11
671.642
 21
227.261
  0
LINE
  8
Layer1
  6
DASHED1
 62
7
 10
667.806
 20
240.767
 11
669.342
 21
231.779
  0
LINE
  8
Layer1
  6
DASHED1
 62
7
 10
670.109
 20
240.767
 11
671.642
 21
231.779
  0
LINE
  8
Layer1
  6
DASHED1
 62
7
 10
668.572
 20
236.273
 11
669.342
 21
227.261
  0
LINE
  8
Layer1
  6
DASHED1
 62
7
 10
670.301
 20
245.261
 11
670.875
 21
236.273
  0
LINE
  8
Layer1
  6
DASHED1
 62
7
 10
667.614
 20
227.261
 11
668.765
 21
227.261
  0
LINE
  8
Layer1
  6
DASHED1
 62
7
 10
668.765
 20
231.755
 11
667.614
 21
231.755
  0
LINE
  8
Layer1
  6
DASHED1
 62
7
 10
668.765
 20
227.261
 11
668.765
 21
231.755
  0
LINE
  8
Layer1
  6
DASHED1
 62
7
 10
668.765
 20
231.755
 11
667.998
 21
236.249
  0
LINE
  8
Layer1
  6
DASHED1
 62
7
 10
667.614
 20
227.261
 11
667.614
 21
236.249
  0
LINE
  8
Layer1
  6
DASHED1
 62
7
 10
667.998
 20
236.249
 11
667.614
 21
236.249
  0
LINE
  8
Layer1
  6
CONTINUOUS
 62
7
 10
757.191
 20
227.249
 11
757.191
 21
247.249
  0
LINE
  8
Layer1
  6
CENTER1
 62
7
 10
796.235
 20
257.249
 11
775.765
 21
257.249
  0
LINE
  8
Layer1
  6
CONTINUOUS
 62
7
 10
751.191
 20
229.426
 11
743.191
 21
229.426
  0
LINE
  8
Layer1
  6
CONTINUOUS
 62
7
 10
742.191
 20
230.426
 11
742.191
 21
235.426
  0
LINE
  8
Layer1
  6
CONTINUOUS
 62
7
 10
752.191
 20
230.426
 11
752.191
 21
235.426
  0
LINE
  8
Layer1
  6
CONTINUOUS
 62
7
 10
741.691
 20
235.426
 11
752.691
 21
235.426
  0
LINE
  8
Layer1
  6
CONTINUOUS
 62
7
 10
743.191
 20
229.426
 11
742.191
 21
230.426
  0
LINE
  8
Layer1
  6
CONTINUOUS
 62
7
 10
751.191
 20
229.426
 11
752.191
 21
230.426
  0
LINE
  8
Layer1
  6
CONTINUOUS
 62
7
 10
742.191
 20
230.426
 11
752.191
 21
230.426
  0
LINE
  8
Layer1
  6
CONTINUOUS
 62
7
 10
750.191
 20
262.426
 11
749.691
 21
263.292
  0
LINE
  8
Layer1
  6
CONTINUOUS
 62
7
 10
744.191
 20
262.426
 11
744.691
 21
263.292
  0
LINE
  8
Layer1
  6
DASHED1
 62
7
 10
744.691
 20
263.292
 11
749.691
 21
263.292
  0
POLYLINE
  8
Layer1
  6
CONTINUOUS
 62
7
 66
1
 10
0
 20
0
 30
0
  0
VERTEX
  8
Layer1
 10
741.191
 20
239.426
  0
VERTEX
  8
Layer1
 10
741.378
 20
239.567
  0
VERTEX
  8
Layer1
 10
741.563
 20
239.707
  0
VERTEX
  8
Layer1
 10
741.751
 20
239.844
  0
VERTEX
  8
Layer1
 10
741.938
 20
239.98
  0
VERTEX
  8
Layer1
 10
742.126
 20
240.111
  0
VERTEX
  8
Layer1
 10
742.313
 20
240.238
  0
VERTEX
  8
Layer1
 10
742.503
 20
240.359
  0
VERTEX
  8
Layer1
 10
742.692
 20
240.474
  0
VERTEX
  8
Layer1
 10
742.881
 20
240.581
  0
VERTEX
  8
Layer1
 10
743.072
 20
240.68
  0
VERTEX
  8
Layer1
 10
743.265
 20
240.769
  0
VERTEX
  8
Layer1
 10
743.457
 20
240.848
  0
VERTEX
  8
Layer1
 10
743.652
 20
240.916
  0
VERTEX
  8
Layer1
 10
743.849
 20
240.972
  0
VERTEX
  8
Layer1
 10
744.044
 20
241.015
  0
VERTEX
  8
Layer1
 10
744.244
 20
241.044
  0
VERTEX
  8
Layer1
 10
744.443
 20
241.058
  0
VERTEX
  8
Layer1
 10
744.645
 20
241.056
  0
VERTEX
  8
Layer1
 10
744.849
 20
241.038
  0
VERTEX
  8
Layer1
 10
745.053
 20
241.004
  0
VERTEX
  8
Layer1
 10
745.259
 20
240.959
  0
VERTEX
  8
Layer1
 10
745.467
 20
240.905
  0
VERTEX
  8
Layer1
 10
745.674
 20
240.844
  0
VERTEX
  8
Layer1
 10
745.881
 20
240.779
  0
VERTEX
  8
Layer1
 10
746.091
 20
240.714
  0
VERTEX
  8
Layer1
 10
746.298
 20
240.65
  0
VERTEX
  8
Layer1
 10
746.505
 20
240.591
  0
VERTEX
  8
Layer1
 10
746.711
 20
240.54
  0
VERTEX
  8
Layer1
 10
746.917
 20
240.499
  0
VERTEX
  8
Layer1
 10
747.12
 20
240.472
  0
VERTEX
  8
Layer1
 10
747.322
 20
240.46
  0
VERTEX
  8
Layer1
 10
747.52
 20
240.464
  0
VERTEX
  8
Layer1
 10
747.717
 20
240.484
  0
VERTEX
  8
Layer1
 10
747.913
 20
240.518
  0
VERTEX
  8
Layer1
 10
748.107
 20
240.566
  0
VERTEX
  8
Layer1
 10
748.301
 20
240.627
  0
VERTEX
  8
Layer1
 10
748.49
 20
240.7
  0
VERTEX
  8
Layer1
 10
748.678
 20
240.785
  0
VERTEX
  8
Layer1
 10
748.866
 20
240.88
  0
VERTEX
  8
Layer1
 10
749.053
 20
240.984
  0
VERTEX
  8
Layer1
 10
749.236
 20
241.097
  0
VERTEX
  8
Layer1
 10
749.418
 20
241.218
  0
VERTEX
  8
Layer1
 10
749.601
 20
241.346
  0
VERTEX
  8
Layer1
 10
749.78
 20
241.48
  0
VERTEX
  8
Layer1
 10
749.958
 20
241.619
  0
VERTEX
  8
Layer1
 10
750.138
 20
241.762
  0
VERTEX
  8
Layer1
 10
750.313
 20
241.909
  0
VERTEX
  8
Layer1
 10
750.489
 20
242.059
  0
VERTEX
  8
Layer1
 10
750.663
 20
242.211
  0
VERTEX
  8
Layer1
 10
750.836
 20
242.363
  0
VERTEX
  8
Layer1
 10
751.009
 20
242.516
  0
VERTEX
  8
Layer1
 10
751.179
 20
242.668
  0
VERTEX
  8
Layer1
 10
751.351
 20
242.819
  0
VERTEX
  8
Layer1
 10
751.522
 20
242.967
  0
VERTEX
  8
Layer1
 10
751.69
 20
243.112
  0
VERTEX
  8
Layer1
 10
751.859
 20
243.253
  0
VERTEX
  8
Layer1
 10
752.025
 20
243.39
  0
VERTEX
  8
Layer1
 10
752.193
 20
243.524
  0
VERTEX
  8
Layer1
 10
752.361
 20
243.655
  0
VERTEX
  8
Layer1
 10
752.527
 20
243.784
  0
VERTEX
  8
Layer1
 10
752.693
 20
243.912
  0
VERTEX
  8
Layer1
 10
752.86
 20
244.037
  0
VERTEX
  8
Layer1
 10
753.024
 20
244.162
  0
VERTEX
  8
Layer1
 10
753.191
 20
244.287
  0
SEQEND
  0
LINE
  8
Layer1
  6
CONTINUOUS
 62
7
 10
750.191
 20
241.807
 11
750.191
 21
235.426
  0
LINE
  8
Layer1
  6
CONTINUOUS
 62
7
 10
749.691
 20
241.413
 11
749.691
 21
235.426
  0
LINE
  8
Layer1
  6
CONTINUOUS
 62
7
 10
744.691
 20
241.053
 11
744.691
 21
235.426
  0
LINE
  8
Layer1
  6
CONTINUOUS
 62
7
 10
744.191
 20
241.036
 11
744.191
 21
235.426
  0
LINE
  8
Layer1
  6
CONTINUOUS
 62
7
 10
742.191
 20
235.426
 11
742.191
 21
230.426
  0
LINE
  8
Layer1
  6
CONTINUOUS
 62
7
 10
752.191
 20
235.426
 11
752.191
 21
230.426
  0
LINE
  8
Layer1
  6
CONTINUOUS
 62
7
 10
741.691
 20
228.426
 11
741.691
 21
235.426
  0
LINE
  8
Layer1
  6
CONTINUOUS
 62
7
 10
752.691
 20
228.426
 11
752.691
 21
235.426
  0
LINE
  8
Layer1
  6
CENTER1
 62
7
 10
774.765
 20
289.249
 11
803.697
 21
289.249
  0
LINE
  8
Layer1
  6
CENTER1
 62
7
 10
770.264
 20
270.249
 11
803.677
 21
270.249
  0
LINE
  8
Layer1
  6
CENTER1
 62
7
 10
770.356
 20
251.249
 11
804.592
 21
251.249
  0
LINE
  8
Layer1
  6
CONTINUOUS
 62
7
 10
677.88
 20
321.582
 11
686.783
 21
321.582
  0
LINE
  8
Layer1
  6
CONTINUOUS
 62
7
 10
677.88
 20
319.267
 11
685.715
 21
319.267
  0
LINE
  8
Layer1
  6
CONTINUOUS
 62
7
 10
686.783
 20
321.582
 11
688.207
 21
319.92
  0
LINE
  8
Layer1
  6
CONTINUOUS
 62
7
 10
688.207
 20
319.267
 11
688.207
 21
319.92
  0
POLYLINE
  8
Layer1
  6
CONTINUOUS
 62
7
 66
1
 10
0
 20
0
 30
0
  0
VERTEX
  8
Layer1
 10
685.715
 20
319.267
  0
VERTEX
  8
Layer1
 10
685.717
 20
319.185
  0
VERTEX
  8
Layer1
 10
685.724
 20
319.103
  0
VERTEX
  8
Layer1
 10
685.736
 20
319.022
  0
VERTEX
  8
Layer1
 10
685.754
 20
318.942
  0
VERTEX
  8
Layer1
 10
685.777
 20
318.863
  0
VERTEX
  8
Layer1
 10
685.804
 20
318.786
  0
VERTEX
  8
Layer1
 10
685.839
 20
318.711
  0
VERTEX
  8
Layer1
 10
685.875
 20
318.639
  0
VERTEX
  8
Layer1
 10
685.918
 20
318.569
  0
VERTEX
  8
Layer1
 10
685.967
 20
318.502
  0
VERTEX
  8
Layer1
 10
686.018
 20
318.438
  0
VERTEX
  8
Layer1
 10
686.073
 20
318.378
  0
VERTEX
  8
Layer1
 10
686.135
 20
318.321
  0
VERTEX
  8
Layer1
 10
686.197
 20
318.269
  0
VERTEX
  8
Layer1
 10
686.265
 20
318.221
  0
VERTEX
  8
Layer1
 10
686.332
 20
318.177
  0
VERTEX
  8
Layer1
 10
686.404
 20
318.138
  0
VERTEX
  8
Layer1
 10
686.481
 20
318.104
  0
VERTEX
  8
Layer1
 10
686.558
 20
318.075
  0
VERTEX
  8
Layer1
 10
686.635
 20
318.051
  0
VERTEX
  8
Layer1
 10
686.716
 20
318.032
  0
VERTEX
  8
Layer1
 10
686.796
 20
318.019
  0
VERTEX
  8
Layer1
 10
686.879
 20
318.011
  0
VERTEX
  8
Layer1
 10
686.96
 20
318.008
  0
VERTEX
  8
Layer1
 10
687.043
 20
318.011
  0
VERTEX
  8
Layer1
 10
687.125
 20
318.019
  0
VERTEX
  8
Layer1
 10
687.206
 20
318.032
  0
VERTEX
  8
Layer1
 10
687.284
 20
318.051
  0
VERTEX
  8
Layer1
 10
687.363
 20
318.075
  0
VERTEX
  8
Layer1
 10
687.44
 20
318.104
  0
VERTEX
  8
Layer1
 10
687.515
 20
318.138
  0
VERTEX
  8
Layer1
 10
687.587
 20
318.177
  0
VERTEX
  8
Layer1
 10
687.658
 20
318.221
  0
VERTEX
  8
Layer1
 10
687.724
 20
318.269
  0
VERTEX
  8
Layer1
 10
687.785
 20
318.321
  0
VERTEX
  8
Layer1
 10
687.846
 20
318.378
  0
VERTEX
  8
Layer1
 10
687.902
 20
318.438
  0
VERTEX
  8
Layer1
 10
687.952
 20
318.502
  0
VERTEX
  8
Layer1
 10
688
 20
318.569
  0
VERTEX
  8
Layer1
 10
688.043
 20
318.639
  0
VERTEX
  8
Layer1
 10
688.082
 20
318.711
  0
VERTEX
  8
Layer1
 10
688.116
 20
318.786
  0
VERTEX
  8
Layer1
 10
688.144
 20
318.863
  0
VERTEX
  8
Layer1
 10
688.168
 20
318.942
  0
VERTEX
  8
Layer1
 10
688.186
 20
319.022
  0
VERTEX
  8
Layer1
 10
688.197
 20
319.103
  0
VERTEX
  8
Layer1
 10
688.206
 20
319.185
  0
VERTEX
  8
Layer1
 10
688.207
 20
319.267
  0
SEQEND
  0
LINE
  8
Layer1
  6
CONTINUOUS
 62
7
 10
677.88
 20
321.582
 11
675.467
 21
319.054
  0
LINE
  8
Layer1
  6
CONTINUOUS
 62
7
 10
677.88
 20
319.267
 11
676.456
 21
318.021
  0
POLYLINE
  8
Layer1
  6
CONTINUOUS
 62
7
 66
1
 10
0
 20
0
 30
0
  0
VERTEX
  8
Layer1
 10
675.467
 20
319.054
  0
VERTEX
  8
Layer1
 10
675.436
 20
319.02
  0
VERTEX
  8
Layer1
 10
675.408
 20
318.984
  0
VERTEX
  8
Layer1
 10
675.381
 20
318.947
  0
VERTEX
  8
Layer1
 10
675.359
 20
318.908
  0
VERTEX
  8
Layer1
 10
675.337
 20
318.867
  0
VERTEX
  8
Layer1
 10
675.32
 20
318.825
  0
VERTEX
  8
Layer1
 10
675.303
 20
318.783
  0
VERTEX
  8
Layer1
 10
675.292
 20
318.739
  0
VERTEX
  8
Layer1
 10
675.282
 20
318.695
  0
VERTEX
  8
Layer1
 10
675.274
 20
318.65
  0
VERTEX
  8
Layer1
 10
675.269
 20
318.604
  0
VERTEX
  8
Layer1
 10
675.268
 20
318.559
  0
VERTEX
  8
Layer1
 10
675.269
 20
318.513
  0
VERTEX
  8
Layer1
 10
675.274
 20
318.468
  0
VERTEX
  8
Layer1
 10
675.282
 20
318.423
  0
VERTEX
  8
Layer1
 10
675.292
 20
318.379
  0
VERTEX
  8
Layer1
 10
675.303
 20
318.335
  0
VERTEX
  8
Layer1
 10
675.32
 20
318.293
  0
VERTEX
  8
Layer1
 10
675.339
 20
318.251
  0
VERTEX
  8
Layer1
 10
675.36
 20
318.211
  0
VERTEX
  8
Layer1
 10
675.381
 20
318.172
  0
VERTEX
  8
Layer1
 10
675.409
 20
318.134
  0
VERTEX
  8
Layer1
 10
675.437
 20
318.098
  0
VERTEX
  8
Layer1
 10
675.467
 20
318.065
  0
VERTEX
  8
Layer1
 10
675.5
 20
318.033
  0
VERTEX
  8
Layer1
 10
675.534
 20
318.003
  0
VERTEX
  8
Layer1
 10
675.571
 20
317.976
  0
VERTEX
  8
Layer1
 10
675.609
 20
317.95
  0
VERTEX
  8
Layer1
 10
675.648
 20
317.928
  0
VERTEX
  8
Layer1
 10
675.688
 20
317.908
  0
VERTEX
  8
Layer1
 10
675.731
 20
317.89
  0
VERTEX
  8
Layer1
 10
675.774
 20
317.875
  0
VERTEX
  8
Layer1
 10
675.818
 20
317.863
  0
VERTEX
  8
Layer1
 10
675.861
 20
317.854
  0
VERTEX
  8
Layer1
 10
675.908
 20
317.848
  0
VERTEX
  8
Layer1
 10
675.952
 20
317.845
  0
VERTEX
  8
Layer1
 10
675.996
 20
317.844
  0
VERTEX
  8
Layer1
 10
676.043
 20
317.846
  0
VERTEX
  8
Layer1
 10
676.089
 20
317.852
  0
VERTEX
  8
Layer1
 10
676.133
 20
317.86
  0
VERTEX
  8
Layer1
 10
676.178
 20
317.87
  0
VERTEX
  8
Layer1
 10
676.22
 20
317.884
  0
VERTEX
  8
Layer1
 10
676.264
 20
317.901
  0
VERTEX
  8
Layer1
 10
676.303
 20
317.92
  0
VERTEX
  8
Layer1
 10
676.344
 20
317.941
  0
VERTEX
  8
Layer1
 10
676.383
 20
317.965
  0
VERTEX
  8
Layer1
 10
676.419
 20
317.992
  0
VERTEX
  8
Layer1
 10
676.456
 20
318.021
  0
SEQEND
  0
LINE
  8
Layer1
  6
CONTINUOUS
 62
7
 10
679.2
 20
319.267
 11
679.2
 21
316.144
  0
LINE
  8
Layer1
  6
CONTINUOUS
 62
7
 10
685.111
 20
319.267
 11
685.111
 21
316.144
  0
LINE
  8
Layer1
  6
CONTINUOUS
 62
7
 10
680.005
 20
303.992
 11
684.394
 21
303.992
  0
LINE
  8
Layer1
  6
CONTINUOUS
 62
7
 10
679.2
 20
304.54
 11
685.2
 21
304.54
  0
LINE
  8
Layer1
  6
CONTINUOUS
 62
7
 10
680.005
 20
303.992
 11
679.2
 21
304.54
  0
LINE
  8
Layer1
  6
CONTINUOUS
 62
7
 10
684.394
 20
303.992
 11
685.2
 21
304.54
  0
LINE
  8
Layer1
  6
CONTINUOUS
 62
7
 10
687.312
 20
312.412
 11
687.312
 21
315.499
  0
LINE
  8
Layer1
  6
CONTINUOUS
 62
7
 10
687.312
 20
315.499
 11
686.193
 21
316.144
  0
LINE
  8
Layer1
  6
CONTINUOUS
 62
7
 10
686.193
 20
316.144
 11
678.291
 21
316.144
  0
LINE
  8
Layer1
  6
CONTINUOUS
 62
7
 10
678.291
 20
316.144
 11
677.173
 21
315.499
  0
LINE
  8
Layer1
  6
CONTINUOUS
 62
7
 10
677.173
 20
315.499
 11
677.173
 21
312.412
  0
LINE
  8
Layer1
  6
CONTINUOUS
 62
7
 10
684.775
 20
312.412
 11
684.775
 21
315.499
  0
LINE
  8
Layer1
  6
CONTINUOUS
 62
7
 10
679.707
 20
312.412
 11
679.707
 21
315.499
  0
POLYLINE
  8
Layer1
  6
CONTINUOUS
 62
7
 66
1
 10
0
 20
0
 30
0
  0
VERTEX
  8
Layer1
 10
684.775
 20
315.499
  0
VERTEX
  8
Layer1
 10
684.673
 20
315.53
  0
VERTEX
  8
Layer1
 10
684.572
 20
315.561
  0
VERTEX
  8
Layer1
 10
684.467
 20
315.59
  0
VERTEX
  8
Layer1
 10
684.364
 20
315.618
  0
VERTEX
  8
Layer1
 10
684.26
 20
315.644
  0
VERTEX
  8
Layer1
 10
684.157
 20
315.67
  0
VERTEX
  8
Layer1
 10
684.052
 20
315.693
  0
VERTEX
  8
Layer1
 10
683.947
 20
315.716
  0
VERTEX
  8
Layer1
 10
683.842
 20
315.737
  0
VERTEX
  8
Layer1
 10
683.736
 20
315.757
  0
VERTEX
  8
Layer1
 10
683.63
 20
315.775
  0
VERTEX
  8
Layer1
 10
683.524
 20
315.792
  0
VERTEX
  8
Layer1
 10
683.418
 20
315.808
  0
VERTEX
  8
Layer1
 10
683.313
 20
315.822
  0
VERTEX
  8
Layer1
 10
683.206
 20
315.835
  0
VERTEX
  8
Layer1
 10
683.099
 20
315.847
  0
VERTEX
  8
Layer1
 10
682.993
 20
315.857
  0
VERTEX
  8
Layer1
 10
682.885
 20
315.866
  0
VERTEX
  8
Layer1
 10
682.779
 20
315.874
  0
VERTEX
  8
Layer1
 10
682.671
 20
315.88
  0
VERTEX
  8
Layer1
 10
682.563
 20
315.885
  0
VERTEX
  8
Layer1
 10
682.457
 20
315.888
  0
VERTEX
  8
Layer1
 10
682.35
 20
315.89
  0
VERTEX
  8
Layer1
 10
682.243
 20
315.891
  0
VERTEX
  8
Layer1
 10
682.135
 20
315.89
  0
VERTEX
  8
Layer1
 10
682.027
 20
315.888
  0
VERTEX
  8
Layer1
 10
681.919
 20
315.885
  0
VERTEX
  8
Layer1
 10
681.813
 20
315.88
  0
VERTEX
  8
Layer1
 10
681.706
 20
315.874
  0
VERTEX
  8
Layer1
 10
681.599
 20
315.866
  0
VERTEX
  8
Layer1
 10
681.493
 20
315.857
  0
VERTEX
  8
Layer1
 10
681.385
 20
315.847
  0
VERTEX
  8
Layer1
 10
681.279
 20
315.835
  0
VERTEX
  8
Layer1
 10
681.173
 20
315.822
  0
VERTEX
  8
Layer1
 10
681.065
 20
315.808
  0
VERTEX
  8
Layer1
 10
680.958
 20
315.792
  0
VERTEX
  8
Layer1
 10
680.852
 20
315.775
  0
VERTEX
  8
Layer1
 10
680.748
 20
315.757
  0
VERTEX
  8
Layer1
 10
680.642
 20
315.737
  0
VERTEX
  8
Layer1
 10
680.537
 20
315.716
  0
VERTEX
  8
Layer1
 10
680.433
 20
315.693
  0
VERTEX
  8
Layer1
 10
680.327
 20
315.67
  0
VERTEX
  8
Layer1
 10
680.224
 20
315.644
  0
VERTEX
  8
Layer1
 10
680.12
 20
315.618
  0
VERTEX
  8
Layer1
 10
680.015
 20
315.59
  0
VERTEX
  8
Layer1
 10
679.912
 20
315.561
  0
VERTEX
  8
Layer1
 10
679.809
 20
315.53
  0
VERTEX
  8
Layer1
 10
679.707
 20
315.499
  0
SEQEND
  0
POLYLINE
  8
Layer1
  6
CONTINUOUS
 62
7
 66
1
 10
0
 20
0
 30
0
  0
VERTEX
  8
Layer1
 10
687.312
 20
315.499
  0
VERTEX
  8
Layer1
 10
687.265
 20
315.53
  0
VERTEX
  8
Layer1
 10
687.217
 20
315.56
  0
VERTEX
  8
Layer1
 10
687.168
 20
315.588
  0
VERTEX
  8
Layer1
 10
687.12
 20
315.616
  0
VERTEX
  8
Layer1
 10
687.071
 20
315.642
  0
VERTEX
  8
Layer1
 10
687.019
 20
315.667
  0
VERTEX
  8
Layer1
 10
686.969
 20
315.691
  0
VERTEX
  8
Layer1
 10
686.918
 20
315.714
  0
VERTEX
  8
Layer1
 10
686.866
 20
315.735
  0
VERTEX
  8
Layer1
 10
686.813
 20
315.755
  0
VERTEX
  8
Layer1
 10
686.76
 20
315.773
  0
VERTEX
  8
Layer1
 10
686.707
 20
315.791
  0
VERTEX
  8
Layer1
 10
686.654
 20
315.806
  0
VERTEX
  8
Layer1
 10
686.6
 20
315.821
  0
VERTEX
  8
Layer1
 10
686.543
 20
315.834
  0
VERTEX
  8
Layer1
 10
686.491
 20
315.846
  0
VERTEX
  8
Layer1
 10
686.434
 20
315.857
  0
VERTEX
  8
Layer1
 10
686.38
 20
315.866
  0
VERTEX
  8
Layer1
 10
686.322
 20
315.873
  0
VERTEX
  8
Layer1
 10
686.268
 20
315.88
  0
VERTEX
  8
Layer1
 10
686.212
 20
315.885
  0
VERTEX
  8
Layer1
 10
686.157
 20
315.888
  0
VERTEX
  8
Layer1
 10
686.101
 20
315.89
  0
VERTEX
  8
Layer1
 10
686.043
 20
315.891
  0
VERTEX
  8
Layer1
 10
685.986
 20
315.89
  0
VERTEX
  8
Layer1
 10
685.931
 20
315.888
  0
VERTEX
  8
Layer1
 10
685.875
 20
315.885
  0
VERTEX
  8
Layer1
 10
685.82
 20
315.88
  0
VERTEX
  8
Layer1
 10
685.765
 20
315.873
  0
VERTEX
  8
Layer1
 10
685.707
 20
315.866
  0
VERTEX
  8
Layer1
 10
685.654
 20
315.857
  0
VERTEX
  8
Layer1
 10
685.599
 20
315.846
  0
VERTEX
  8
Layer1
 10
685.543
 20
315.834
  0
VERTEX
  8
Layer1
 10
685.488
 20
315.821
  0
VERTEX
  8
Layer1
 10
685.434
 20
315.806
  0
VERTEX
  8
Layer1
 10
685.38
 20
315.791
  0
VERTEX
  8
Layer1
 10
685.327
 20
315.773
  0
VERTEX
  8
Layer1
 10
685.274
 20
315.755
  0
VERTEX
  8
Layer1
 10
685.221
 20
315.735
  0
VERTEX
  8
Layer1
 10
685.168
 20
315.714
  0
VERTEX
  8
Layer1
 10
685.119
 20
315.691
  0
VERTEX
  8
Layer1
 10
685.068
 20
315.667
  0
VERTEX
  8
Layer1
 10
685.017
 20
315.642
  0
VERTEX
  8
Layer1
 10
684.967
 20
315.616
  0
VERTEX
  8
Layer1
 10
684.918
 20
315.588
  0
VERTEX
  8
Layer1
 10
684.87
 20
315.56
  0
VERTEX
  8
Layer1
 10
684.822
 20
315.53
  0
VERTEX
  8
Layer1
 10
684.775
 20
315.499
  0
SEQEND
  0
POLYLINE
  8
Layer1
  6
CONTINUOUS
 62
7
 66
1
 10
0
 20
0
 30
0
  0
VERTEX
  8
Layer1
 10
679.707
 20
315.499
  0
VERTEX
  8
Layer1
 10
679.66
 20
315.53
  0
VERTEX
  8
Layer1
 10
679.613
 20
315.56
  0
VERTEX
  8
Layer1
 10
679.565
 20
315.588
  0
VERTEX
  8
Layer1
 10
679.515
 20
315.616
  0
VERTEX
  8
Layer1
 10
679.467
 20
315.642
  0
VERTEX
  8
Layer1
 10
679.417
 20
315.667
  0
VERTEX
  8
Layer1
 10
679.366
 20
315.691
  0
VERTEX
  8
Layer1
 10
679.313
 20
315.714
  0
VERTEX
  8
Layer1
 10
679.263
 20
315.735
  0
VERTEX
  8
Layer1
 10
679.208
 20
315.755
  0
VERTEX
  8
Layer1
 10
679.157
 20
315.773
  0
VERTEX
  8
Layer1
 10
679.102
 20
315.791
  0
VERTEX
  8
Layer1
 10
679.048
 20
315.806
  0
VERTEX
  8
Layer1
 10
678.995
 20
315.821
  0
VERTEX
  8
Layer1
 10
678.941
 20
315.834
  0
VERTEX
  8
Layer1
 10
678.886
 20
315.846
  0
VERTEX
  8
Layer1
 10
678.832
 20
315.857
  0
VERTEX
  8
Layer1
 10
678.774
 20
315.866
  0
VERTEX
  8
Layer1
 10
678.72
 20
315.873
  0
VERTEX
  8
Layer1
 10
678.664
 20
315.88
  0
VERTEX
  8
Layer1
 10
678.609
 20
315.885
  0
VERTEX
  8
Layer1
 10
678.553
 20
315.888
  0
VERTEX
  8
Layer1
 10
678.495
 20
315.89
  0
VERTEX
  8
Layer1
 10
678.44
 20
315.891
  0
VERTEX
  8
Layer1
 10
678.385
 20
315.89
  0
VERTEX
  8
Layer1
 10
678.327
 20
315.888
  0
VERTEX
  8
Layer1
 10
678.272
 20
315.885
  0
VERTEX
  8
Layer1
 10
678.217
 20
315.88
  0
VERTEX
  8
Layer1
 10
678.159
 20
315.873
  0
VERTEX
  8
Layer1
 10
678.104
 20
315.866
  0
VERTEX
  8
Layer1
 10
678.048
 20
315.857
  0
VERTEX
  8
Layer1
 10
677.995
 20
315.846
  0
VERTEX
  8
Layer1
 10
677.938
 20
315.834
  0
VERTEX
  8
Layer1
 10
677.885
 20
315.821
  0
VERTEX
  8
Layer1
 10
677.831
 20
315.806
  0
VERTEX
  8
Layer1
 10
677.775
 20
315.791
  0
VERTEX
  8
Layer1
 10
677.724
 20
315.773
  0
VERTEX
  8
Layer1
 10
677.669
 20
315.755
  0
VERTEX
  8
Layer1
 10
677.618
 20
315.735
  0
VERTEX
  8
Layer1
 10
677.565
 20
315.714
  0
VERTEX
  8
Layer1
 10
677.515
 20
315.691
  0
VERTEX
  8
Layer1
 10
677.464
 20
315.667
  0
VERTEX
  8
Layer1
 10
677.414
 20
315.642
  0
VERTEX
  8
Layer1
 10
677.363
 20
315.616
  0
VERTEX
  8
Layer1
 10
677.315
 20
315.588
  0
VERTEX
  8
Layer1
 10
677.265
 20
315.56
  0
VERTEX
  8
Layer1
 10
677.219
 20
315.53
  0
VERTEX
  8
Layer1
 10
677.173
 20
315.499
  0
SEQEND
  0
POLYLINE
  8
Layer1
  6
CONTINUOUS
 62
7
 66
1
 10
0
 20
0
 30
0
 70
1
  0
VERTEX
  8
Layer1
 10
687.505
 20
319.255
  0
VERTEX
  8
Layer1
 10
687.5
 20
319.326
  0
VERTEX
  8
Layer1
 10
687.486
 20
319.396
  0
VERTEX
  8
Layer1
 10
687.466
 20
319.464
  0
VERTEX
  8
Layer1
 10
687.433
 20
319.528
  0
VERTEX
  8
Layer1
 10
687.393
 20
319.587
  0
VERTEX
  8
Layer1
 10
687.346
 20
319.641
  0
VERTEX
  8
Layer1
 10
687.293
 20
319.688
  0
VERTEX
  8
Layer1
 10
687.234
 20
319.727
  0
VERTEX
  8
Layer1
 10
687.168
 20
319.759
  0
VERTEX
  8
Layer1
 10
687.101
 20
319.782
  0
VERTEX
  8
Layer1
 10
687.032
 20
319.796
  0
VERTEX
  8
Layer1
 10
686.96
 20
319.801
  0
VERTEX
  8
Layer1
 10
686.89
 20
319.796
  0
VERTEX
  8
Layer1
 10
686.82
 20
319.782
  0
VERTEX
  8
Layer1
 10
686.75
 20
319.759
  0
VERTEX
  8
Layer1
 10
686.688
 20
319.727
  0
VERTEX
  8
Layer1
 10
686.629
 20
319.688
  0
VERTEX
  8
Layer1
 10
686.573
 20
319.641
  0
VERTEX
  8
Layer1
 10
686.527
 20
319.587
  0
VERTEX
  8
Layer1
 10
686.486
 20
319.528
  0
VERTEX
  8
Layer1
 10
686.457
 20
319.464
  0
VERTEX
  8
Layer1
 10
686.433
 20
319.396
  0
VERTEX
  8
Layer1
 10
686.418
 20
319.326
  0
VERTEX
  8
Layer1
 10
686.414
 20
319.255
  0
VERTEX
  8
Layer1
 10
686.418
 20
319.183
  0
VERTEX
  8
Layer1
 10
686.433
 20
319.113
  0
VERTEX
  8
Layer1
 10
686.457
 20
319.046
  0
VERTEX
  8
Layer1
 10
686.486
 20
318.982
  0
VERTEX
  8
Layer1
 10
686.527
 20
318.922
  0
VERTEX
  8
Layer1
 10
686.573
 20
318.868
  0
VERTEX
  8
Layer1
 10
686.629
 20
318.821
  0
VERTEX
  8
Layer1
 10
686.688
 20
318.782
  0
VERTEX
  8
Layer1
 10
686.75
 20
318.75
  0
VERTEX
  8
Layer1
 10
686.82
 20
318.727
  0
VERTEX
  8
Layer1
 10
686.89
 20
318.713
  0
VERTEX
  8
Layer1
 10
686.96
 20
318.709
  0
VERTEX
  8
Layer1
 10
687.032
 20
318.713
  0
VERTEX
  8
Layer1
 10
687.101
 20
318.727
  0
VERTEX
  8
Layer1
 10
687.168
 20
318.75
  0
VERTEX
  8
Layer1
 10
687.234
 20
318.782
  0
VERTEX
  8
Layer1
 10
687.293
 20
318.821
  0
VERTEX
  8
Layer1
 10
687.346
 20
318.868
  0
VERTEX
  8
Layer1
 10
687.393
 20
318.922
  0
VERTEX
  8
Layer1
 10
687.433
 20
318.982
  0
VERTEX
  8
Layer1
 10
687.466
 20
319.046
  0
VERTEX
  8
Layer1
 10
687.486
 20
319.113
  0
VERTEX
  8
Layer1
 10
687.5
 20
319.183
  0
SEQEND
  0
LINE
  8
Layer1
  6
CONTINUOUS
 62
7
 10
679.2
 20
304.54
 11
679.2
 21
312.25
  0
LINE
  8
Layer1
  6
CONTINUOUS
 62
7
 10
685.2
 20
304.54
 11
685.2
 21
312.25
  0
LINE
  8
Layer1
  6
CONTINUOUS
 62
7
 10
632.188
 20
245.249
 11
708.664
 21
245.249
  0
LINE
  8
Layer1
  6
CONTINUOUS
 62
7
 10
667.614
 20
245.249
 11
667.614
 21
227.249
  0
LINE
  8
Layer1
  6
DASHED1
 62
7
 10
719.912
 20
227.249
 11
722.23
 21
227.249
  0
LINE
  8
Layer1
  6
CONTINUOUS
 62
7
 10
741.191
 20
245.249
 11
739.259
 21
245.249
  0
LINE
  8
Layer1
  6
CONTINUOUS
 62
7
 10
731.339
 20
227.249
 11
733.657
 21
227.249
  0
LINE
  8
Layer1
  6
CONTINUOUS
 62
7
 10
732.111
 20
245.249
 11
729.793
 21
245.249
  0
LINE
  8
Layer1
  6
CONTINUOUS
 62
7
 10
729.793
 20
240.755
 11
732.111
 21
240.755
  0
LINE
  8
Layer1
  6
CONTINUOUS
 62
7
 10
731.339
 20
231.767
 11
733.657
 21
231.767
  0
LINE
  8
Layer1
  6
CONTINUOUS
 62
7
 10
732.111
 20
245.249
 11
732.111
 21
240.755
  0
LINE
  8
Layer1
  6
CONTINUOUS
 62
7
 10
729.793
 20
245.249
 11
729.793
 21
240.755
  0
LINE
  8
Layer1
  6
CONTINUOUS
 62
7
 10
731.339
 20
231.767
 11
731.339
 21
227.249
  0
LINE
  8
Layer1
  6
CONTINUOUS
 62
7
 10
733.657
 20
231.767
 11
733.657
 21
227.249
  0
LINE
  8
Layer1
  6
CONTINUOUS
 62
7
 10
729.793
 20
240.755
 11
731.339
 21
231.767
  0
LINE
  8
Layer1
  6
CONTINUOUS
 62
7
 10
732.111
 20
240.755
 11
733.657
 21
231.767
  0
LINE
  8
Layer1
  6
CONTINUOUS
 62
7
 10
730.566
 20
236.261
 11
731.339
 21
227.249
  0
LINE
  8
Layer1
  6
CONTINUOUS
 62
7
 10
732.303
 20
245.249
 11
732.884
 21
236.261
  0
LINE
  8
Layer1
  6
CONTINUOUS
 62
7
 10
739.259
 20
240.755
 11
741.191
 21
240.749
  0
LINE
  8
Layer1
  6
CONTINUOUS
 62
7
 10
739.259
 20
245.249
 11
739.259
 21
240.755
  0
LINE
  8
Layer1
  6
CONTINUOUS
 62
7
 10
739.259
 20
240.755
 11
740.803
 21
231.767
  0
LINE
  8
Layer1
  6
CONTINUOUS
 62
7
 10
740.032
 20
236.261
 11
740.803
 21
227.249
  0
LINE
  8
Layer1
  6
CONTINUOUS
 62
7
 10
708.653
 20
247.249
 11
741.197
 21
247.249
  0
LINE
  8
Layer1
  6
DASHED1
 62
7
 10
715.274
 20
227.249
 11
717.594
 21
227.249
  0
LINE
  8
Layer1
  6
CONTINUOUS
 62
7
 10
777.166
 20
267.978
 11
732.191
 21
321.577
  0
LINE
  8
Layer1
  6
DASHED1
 62
7
 10
765.191
 20
282.249
 11
774.191
 21
282.249
  0
LINE
  8
Layer1
  6
CONTINUOUS
 62
7
 10
732.191
 20
371.249
 11
732.191
 21
321.577
  0
ARC
  8
Layer1
  6
CONTINUOUS
 62
7
 10
774.191
 20
285.249
 40
3
 50
270
 51
0
  0
LINE
  8
Layer1
  6
CONTINUOUS
 62
7
 10
777.234
 20
248.249
 11
776.234
 21
247.249
  0
LINE
  8
Layer1
  6
CONTINUOUS
 62
7
 10
778.191
 20
242.249
 11
791.191
 21
242.249
  0
LINE
  8
Layer1
  6
CONTINUOUS
 62
7
 10
792.191
 20
243.249
 11
792.191
 21
304.249
  0
LINE
  8
Layer1
  6
CONTINUOUS
 62
7
 10
778.191
 20
305.249
 11
791.191
 21
305.249
  0
LINE
  8
Layer1
  6
CONTINUOUS
 62
7
 10
792.191
 20
243.249
 11
791.191
 21
242.249
  0
LINE
  8
Layer1
  6
CONTINUOUS
 62
7
 10
778.191
 20
242.249
 11
777.191
 21
243.249
  0
LINE
  8
Layer1
  6
CONTINUOUS
 62
7
 10
777.191
 20
304.249
 11
778.191
 21
305.249
  0
LINE
  8
Layer1
  6
CONTINUOUS
 62
7
 10
732.191
 20
357.249
 11
733.191
 21
356.249
  0
LINE
  8
Layer1
  6
CONTINUOUS
 62
7
 10
732.191
 20
371.249
 11
733.191
 21
372.249
  0
LINE
  8
Layer1
  6
CONTINUOUS
 62
7
 10
736.691
 20
372.249
 11
747.691
 21
372.249
  0
LINE
  8
Layer1
  6
CONTINUOUS
 62
7
 10
730.14
 20
310.949
 11
730.14
 21
298.249
  0
LINE
  8
Layer1
  6
CONTINUOUS
 62
7
 10
694.688
 20
303.212
 11
667.688
 21
303.212
  0
LINE
  8
Layer1
  6
CONTINUOUS
 62
7
 10
728.89
 20
312.249
 11
633.191
 21
312.249
  0
LINE
  8
Layer1
  6
CONTINUOUS
 62
7
 10
696.188
 20
298.212
 11
696.188
 21
301.712
  0
LINE
  8
Layer1
  6
CONTINUOUS
 62
7
 10
666.188
 20
298.212
 11
666.188
 21
301.712
  0
LINE
  8
Layer1
  6
CENTER1
 62
7
 10
682.243
 20
325.657
 11
682.243
 21
292.151
  0
ARC
  8
Layer1
  6
CONTINUOUS
 62
7
 10
694.688
 20
301.712
 40
1.5
 50
2.03555e-013
 51
90
  0
ARC
  8
Layer1
  6
CONTINUOUS
 62
7
 10
667.688
 20
301.712
 40
1.5
 50
90
 51
180
  0
LINE
  8
Layer1
  6
CONTINUOUS
 62
7
 10
665.188
 20
297.212
 11
663.505
 21
297.212
  0
ARC
  8
Layer1
  6
CONTINUOUS
 62
7
 10
697.188
 20
298.212
 40
1
 50
180
 51
270
  0
ARC
  8
Layer1
  6
CONTINUOUS
 62
7
 10
665.188
 20
298.212
 40
1
 50
270
 51
2.03555e-013
  0
LINE
  8
Layer1
  6
CONTINUOUS
 62
7
 10
679.243
 20
304.54
 11
679.243
 21
303.212
  0
LINE
  8
Layer1
  6
CONTINUOUS
 62
7
 10
679.243
 20
311.412
 11
678.404
 21
312.249
  0
LINE
  8
Layer1
  6
CONTINUOUS
 62
7
 10
685.243
 20
311.412
 11
686.08
 21
312.249
  0
POLYLINE
  8
Layer1
  6
CONTINUOUS
 62
7
 66
1
 10
0
 20
0
 30
0
  0
VERTEX
  8
Layer1
 10
660.418
 20
312.249
  0
VERTEX
  8
Layer1
 10
660.447
 20
312.06
  0
VERTEX
  8
Layer1
 10
660.476
 20
311.87
  0
VERTEX
  8
Layer1
 10
660.506
 20
311.68
  0
VERTEX
  8
Layer1
 10
660.537
 20
311.491
  0
VERTEX
  8
Layer1
 10
660.568
 20
311.302
  0
VERTEX
  8
Layer1
 10
660.601
 20
311.112
  0
VERTEX
  8
Layer1
 10
660.633
 20
310.923
  0
VERTEX
  8
Layer1
 10
660.668
 20
310.735
  0
VERTEX
  8
Layer1
 10
660.705
 20
310.546
  0
VERTEX
  8
Layer1
 10
660.743
 20
310.358
  0
VERTEX
  8
Layer1
 10
660.783
 20
310.17
  0
VERTEX
  8
Layer1
 10
660.823
 20
309.983
  0
VERTEX
  8
Layer1
 10
660.869
 20
309.796
  0
VERTEX
  8
Layer1
 10
660.916
 20
309.61
  0
VERTEX
  8
Layer1
 10
660.966
 20
309.424
  0
VERTEX
  8
Layer1
 10
661.017
 20
309.239
  0
VERTEX
  8
Layer1
 10
661.072
 20
309.054
  0
VERTEX
  8
Layer1
 10
661.131
 20
308.87
  0
VERTEX
  8
Layer1
 10
661.196
 20
308.686
  0
VERTEX
  8
Layer1
 10
661.261
 20
308.503
  0
VERTEX
  8
Layer1
 10
661.332
 20
308.321
  0
VERTEX
  8
Layer1
 10
661.404
 20
308.14
  0
VERTEX
  8
Layer1
 10
661.481
 20
307.959
  0
VERTEX
  8
Layer1
 10
661.558
 20
307.778
  0
VERTEX
  8
Layer1
 10
661.636
 20
307.598
  0
VERTEX
  8
Layer1
 10
661.716
 20
307.418
  0
VERTEX
  8
Layer1
 10
661.793
 20
307.238
  0
VERTEX
  8
Layer1
 10
661.87
 20
307.059
  0
VERTEX
  8
Layer1
 10
661.947
 20
306.879
  0
VERTEX
  8
Layer1
 10
662.019
 20
306.699
  0
VERTEX
  8
Layer1
 10
662.09
 20
306.519
  0
VERTEX
  8
Layer1
 10
662.154
 20
306.338
  0
VERTEX
  8
Layer1
 10
662.217
 20
306.157
  0
VERTEX
  8
Layer1
 10
662.273
 20
305.976
  0
VERTEX
  8
Layer1
 10
662.322
 20
305.793
  0
VERTEX
  8
Layer1
 10
662.363
 20
305.61
  0
VERTEX
  8
Layer1
 10
662.399
 20
305.427
  0
VERTEX
  8
Layer1
 10
662.426
 20
305.242
  0
VERTEX
  8
Layer1
 10
662.443
 20
305.056
  0
VERTEX
  8
Layer1
 10
662.452
 20
304.869
  0
VERTEX
  8
Layer1
 10
662.452
 20
304.681
  0
VERTEX
  8
Layer1
 10
662.445
 20
304.492
  0
VERTEX
  8
Layer1
 10
662.429
 20
304.303
  0
VERTEX
  8
Layer1
 10
662.412
 20
304.113
  0
VERTEX
  8
Layer1
 10
662.39
 20
303.922
  0
VERTEX
  8
Layer1
 10
662.363
 20
303.73
  0
VERTEX
  8
Layer1
 10
662.335
 20
303.538
  0
VERTEX
  8
Layer1
 10
662.304
 20
303.346
  0
VERTEX
  8
Layer1
 10
662.274
 20
303.153
  0
VERTEX
  8
Layer1
 10
662.245
 20
302.96
  0
VERTEX
  8
Layer1
 10
662.217
 20
302.767
  0
VERTEX
  8
Layer1
 10
662.193
 20
302.574
  0
VERTEX
  8
Layer1
 10
662.173
 20
302.381
  0
VERTEX
  8
Layer1
 10
662.157
 20
302.188
  0
VERTEX
  8
Layer1
 10
662.144
 20
301.996
  0
VERTEX
  8
Layer1
 10
662.14
 20
301.804
  0
VERTEX
  8
Layer1
 10
662.142
 20
301.612
  0
VERTEX
  8
Layer1
 10
662.149
 20
301.42
  0
VERTEX
  8
Layer1
 10
662.16
 20
301.229
  0
VERTEX
  8
Layer1
 10
662.178
 20
301.037
  0
VERTEX
  8
Layer1
 10
662.197
 20
300.846
  0
VERTEX
  8
Layer1
 10
662.219
 20
300.656
  0
VERTEX
  8
Layer1
 10
662.245
 20
300.465
  0
VERTEX
  8
Layer1
 10
662.269
 20
300.274
  0
VERTEX
  8
Layer1
 10
662.298
 20
300.083
  0
VERTEX
  8
Layer1
 10
662.325
 20
299.893
  0
VERTEX
  8
Layer1
 10
662.351
 20
299.702
  0
VERTEX
  8
Layer1
 10
662.38
 20
299.511
  0
VERTEX
  8
Layer1
 10
662.404
 20
299.321
  0
VERTEX
  8
Layer1
 10
662.428
 20
299.13
  0
VERTEX
  8
Layer1
 10
662.447
 20
298.939
  0
VERTEX
  8
Layer1
 10
662.465
 20
298.748
  0
VERTEX
  8
Layer1
 10
662.476
 20
298.556
  0
VERTEX
  8
Layer1
 10
662.485
 20
298.365
  0
VERTEX
  8
Layer1
 10
662.489
 20
298.173
  0
VERTEX
  8
Layer1
 10
662.491
 20
297.981
  0
VERTEX
  8
Layer1
 10
662.488
 20
297.789
  0
VERTEX
  8
Layer1
 10
662.486
 20
297.597
  0
VERTEX
  8
Layer1
 10
662.481
 20
297.404
  0
VERTEX
  8
Layer1
 10
662.476
 20
297.212
  0
SEQEND
  0
LINE
  8
Layer1
  6
CENTER1
 62
7
 10
643.191
 20
295.866
 11
643.191
 21
315.334
  0
LINE
  8
Layer1
  6
CONTINUOUS
 62
7
 10
632.191
 20
228.249
 11
632.191
 21
296.249
  0
LINE
  8
Layer1
  6
CONTINUOUS
 62
7
 10
633.191
 20
297.249
 11
632.191
 21
296.249
  0
LINE
  8
Layer1
  6
CONTINUOUS
 62
7
 10
777.191
 20
228.252
 11
776.188
 21
227.249
  0
LINE
  8
Layer1
  6
CONTINUOUS
 62
7
 10
627.691
 20
296.249
 11
628.691
 21
297.249
  0
LINE
  8
Layer1
  6
CONTINUOUS
 62
7
 10
633.191
 20
312.249
 11
632.191
 21
311.249
  0
LINE
  8
Layer1
  6
CONTINUOUS
 62
7
 10
632.191
 20
298.249
 11
633.191
 21
297.249
  0
LINE
  8
Layer1
  6
DASHED1
 62
7
 10
713.688
 20
310.449
 11
713.688
 21
303.949
  0
LINE
  8
Layer1
  6
CONTINUOUS
 62
7
 10
716.243
 20
304.273
 11
716.243
 21
297.249
  0
LINE
  8
Layer1
  6
CONTINUOUS
 62
7
 10
724.243
 20
304.262
 11
724.243
 21
297.249
  0
LINE
  8
Layer1
  6
CENTER1
 62
7
 10
720.243
 20
314.027
 11
720.243
 21
296.024
  0
LINE
  8
Layer1
  6
CONTINUOUS
 62
7
 10
628.691
 20
247.249
 11
632.191
 21
247.249
  0
LINE
  8
Layer1
  6
CONTINUOUS
 62
7
 10
632.191
 20
228.249
 11
633.191
 21
227.249
  0
LINE
  8
Layer1
  6
DASHED1
 62
7
 10
777.166
 20
267.978
 11
732.191
 21
321.577
  0
LINE
  8
Layer1
  6
CONTINUOUS
 62
7
 10
777.191
 20
228.252
 11
777.191
 21
371.249
  0
LINE
  8
Layer1
  6
CONTINUOUS
 62
7
 10
777.191
 20
371.249
 11
776.191
 21
372.249
  0
LINE
  8
Layer1
  6
CONTINUOUS
 62
7
 10
776.191
 20
356.249
 11
777.191
 21
357.249
  0
LINE
  8
Layer1
  6
CONTINUOUS
 62
7
 10
726.743
 20
304.249
 11
726.743
 21
311.749
  0
LINE
  8
Layer1
  6
CONTINUOUS
 62
7
 10
713.743
 20
304.249
 11
713.743
 21
311.749
  0
LINE
  8
Layer1
  6
CONTINUOUS
 62
7
 10
726.743
 20
311.749
 11
713.743
 21
311.749
  0
LINE
  8
Layer1
  6
CONTINUOUS
 62
7
 10
726.243
 20
312.249
 11
714.243
 21
312.249
  0
LINE
  8
Layer1
  6
CONTINUOUS
 62
7
 10
726.743
 20
311.749
 11
726.243
 21
312.249
  0
LINE
  8
Layer1
  6
CONTINUOUS
 62
7
 10
713.743
 20
311.749
 11
714.243
 21
312.249
  0
LINE
  8
Layer1
  6
CONTINUOUS
 62
7
 10
713.743
 20
304.249
 11
726.743
 21
304.249
  0
LINE
  8
Layer1
  6
CONTINUOUS
 62
7
 10
714.743
 20
304.826
 11
714.743
 21
311.172
  0
LINE
  8
Layer1
  6
CONTINUOUS
 62
7
 10
715.743
 20
305.403
 11
715.743
 21
310.596
  0
LINE
  8
Layer1
  6
CONTINUOUS
 62
7
 10
716.743
 20
305.98
 11
716.743
 21
310.019
  0
LINE
  8
Layer1
  6
CONTINUOUS
 62
7
 10
717.743
 20
306.557
 11
717.743
 21
309.442
  0
LINE
  8
Layer1
  6
PHANTOM1
 62
7
 10
752.214
 20
267.921
 11
727.628
 21
297.222
  0
LINE
  8
Layer1
  6
PHANTOM1
 62
7
 10
752.214
 20
267.921
 11
752.214
 21
247.222
  0
LINE
  8
Layer1
  6
PHANTOM1
 62
7
 10
776.191
 20
342.449
 11
733.191
 21
342.449
  0
LINE
  8
Layer1
  6
PHANTOM1
 62
7
 10
776.191
 20
326.449
 11
733.191
 21
326.449
  0
LINE
  8
Layer1
  6
CONTINUOUS
 62
7
 10
792.191
 20
282.749
 11
799.691
 21
282.749
  0
LINE
  8
Layer1
  6
CONTINUOUS
 62
7
 10
792.191
 20
295.749
 11
799.691
 21
295.749
  0
LINE
  8
Layer1
  6
CONTINUOUS
 62
7
 10
799.691
 20
282.749
 11
799.691
 21
295.749
  0
LINE
  8
Layer1
  6
CONTINUOUS
 62
7
 10
800.191
 20
283.249
 11
800.191
 21
295.249
  0
LINE
  8
Layer1
  6
CONTINUOUS
 62
7
 10
799.691
 20
282.749
 11
800.191
 21
283.249
  0
LINE
  8
Layer1
  6
CONTINUOUS
 62
7
 10
799.691
 20
295.749
 11
800.191
 21
295.249
  0
LINE
  8
Layer1
  6
CONTINUOUS
 62
7
 10
792.191
 20
295.749
 11
792.191
 21
282.749
  0
LINE
  8
Layer1
  6
CONTINUOUS
 62
7
 10
792.767
 20
294.749
 11
799.114
 21
294.749
  0
LINE
  8
Layer1
  6
CONTINUOUS
 62
7
 10
793.344
 20
293.749
 11
798.537
 21
293.749
  0
LINE
  8
Layer1
  6
CONTINUOUS
 62
7
 10
793.921
 20
292.749
 11
797.96
 21
292.749
  0
LINE
  8
Layer1
  6
CONTINUOUS
 62
7
 10
794.498
 20
291.749
 11
797.383
 21
291.749
  0
LINE
  8
Layer1
  6
CONTINUOUS
 62
7
 10
792.191
 20
263.749
 11
799.691
 21
263.749
  0
LINE
  8
Layer1
  6
CONTINUOUS
 62
7
 10
792.191
 20
276.749
 11
799.691
 21
276.749
  0
LINE
  8
Layer1
  6
CONTINUOUS
 62
7
 10
799.691
 20
263.749
 11
799.691
 21
276.749
  0
LINE
  8
Layer1
  6
CONTINUOUS
 62
7
 10
800.191
 20
264.249
 11
800.191
 21
276.249
  0
LINE
  8
Layer1
  6
CONTINUOUS
 62
7
 10
799.691
 20
263.749
 11
800.191
 21
264.249
  0
LINE
  8
Layer1
  6
CONTINUOUS
 62
7
 10
799.691
 20
276.749
 11
800.191
 21
276.249
  0
LINE
  8
Layer1
  6
CONTINUOUS
 62
7
 10
792.191
 20
276.749
 11
792.191
 21
263.749
  0
LINE
  8
Layer1
  6
CONTINUOUS
 62
7
 10
792.767
 20
275.749
 11
799.114
 21
275.749
  0
LINE
  8
Layer1
  6
CONTINUOUS
 62
7
 10
793.344
 20
274.749
 11
798.537
 21
274.749
  0
LINE
  8
Layer1
  6
CONTINUOUS
 62
7
 10
793.921
 20
273.749
 11
797.96
 21
273.749
  0
LINE
  8
Layer1
  6
CONTINUOUS
 62
7
 10
794.498
 20
272.749
 11
797.383
 21
272.749
  0
LINE
  8
Layer1
  6
CONTINUOUS
 62
7
 10
792.191
 20
244.359
 11
799.691
 21
244.359
  0
LINE
  8
Layer1
  6
CONTINUOUS
 62
7
 10
792.191
 20
257.359
 11
799.691
 21
257.359
  0
LINE
  8
Layer1
  6
CONTINUOUS
 62
7
 10
799.691
 20
244.359
 11
799.691
 21
257.359
  0
LINE
  8
Layer1
  6
CONTINUOUS
 62
7
 10
800.191
 20
244.859
 11
800.191
 21
256.859
  0
LINE
  8
Layer1
  6
CONTINUOUS
 62
7
 10
799.691
 20
244.359
 11
800.191
 21
244.859
  0
LINE
  8
Layer1
  6
CONTINUOUS
 62
7
 10
799.691
 20
257.359
 11
800.191
 21
256.859
  0
LINE
  8
Layer1
  6
CONTINUOUS
 62
7
 10
792.191
 20
257.359
 11
792.191
 21
244.359
  0
LINE
  8
Layer1
  6
CONTINUOUS
 62
7
 10
792.767
 20
256.359
 11
799.114
 21
256.359
  0
LINE
  8
Layer1
  6
CONTINUOUS
 62
7
 10
793.344
 20
255.359
 11
798.537
 21
255.359
  0
LINE
  8
Layer1
  6
CONTINUOUS
 62
7
 10
793.921
 20
254.359
 11
797.96
 21
254.359
  0
LINE
  8
Layer1
  6
CONTINUOUS
 62
7
 10
794.498
 20
253.359
 11
797.383
 21
253.359
  0
LINE
  8
Layer1
  6
DASHED1
 62
7
 10
780.234
 20
253.249
 11
792.486
 21
253.249
  0
LINE
  8
Layer1
  6
DASHED1
 62
7
 10
780.234
 20
261.249
 11
792.191
 21
261.249
  0
LINE
  8
Layer1
  6
DASHED1
 62
7
 10
780.234
 20
262.249
 11
792.191
 21
262.249
  0
LINE
  8
Layer1
  6
DASHED1
 62
7
 10
780.234
 20
252.249
 11
792.143
 21
252.249
  0
LINE
  8
Layer1
  6
PHANTOM1
 62
7
 10
579.691
 20
248.249
 11
579.691
 21
296.249
  0
LINE
  8
Layer1
  6
PHANTOM1
 62
7
 10
601.691
 20
247.249
 11
580.691
 21
247.249
  0
LINE
  8
Layer1
  6
PHANTOM1
 62
7
 10
601.691
 20
297.249
 11
580.691
 21
297.249
  0
LINE
  8
Layer1
  6
PHANTOM1
 62
7
 10
579.691
 20
296.249
 11
580.691
 21
297.249
  0
LINE
  8
Layer1
  6
PHANTOM1
 62
7
 10
579.691
 20
248.249
 11
580.691
 21
247.249
  0
LINE
  8
Layer1
  6
PHANTOM1
 62
7
 10
601.691
 20
247.249
 11
602.691
 21
248.249
  0
LINE
  8
Layer1
  6
PHANTOM1
 62
7
 10
601.691
 20
297.249
 11
602.691
 21
296.249
  0
LINE
  8
Layer1
  6
DASHED1
 62
7
 10
623.187
 20
292.749
 11
619.643
 21
292.749
  0
LINE
  8
Layer1
  6
PHANTOM1
 62
7
 10
602.691
 20
296.249
 11
602.691
 21
248.249
  0
LINE
  8
Layer1
  6
CONTINUOUS
 62
7
 10
604.691
 20
248.249
 11
604.691
 21
225.249
  0
LINE
  8
Layer1
  6
CONTINUOUS
 62
7
 10
579.691
 20
248.249
 11
579.691
 21
225.249
  0
POLYLINE
  8
Layer1
  6
CONTINUOUS
 62
7
 66
1
 10
0
 20
0
 30
0
  0
VERTEX
  8
Layer1
 10
604.691
 20
227.249
  0
VERTEX
  8
Layer1
 10
579.691
 20
227.249
  0
SEQEND
  0
POLYLINE
  8
Layer1
  6
CONTINUOUS
 62
7
 66
1
 10
0
 20
0
 30
0
  0
VERTEX
  8
Layer1
 10
602.76
 20
227.767
  0
VERTEX
  8
Layer1
 10
604.691
 20
227.249
  0
VERTEX
  8
Layer1
 10
602.76
 20
226.732
  0
SEQEND
  0
POLYLINE
  8
Layer1
  6
CONTINUOUS
 62
7
 66
1
 10
0
 20
0
 30
0
  0
VERTEX
  8
Layer1
 10
581.621
 20
226.732
  0
VERTEX
  8
Layer1
 10
579.691
 20
227.249
  0
VERTEX
  8
Layer1
 10
581.621
 20
227.767
  0
SEQEND
  0
TEXT
  8
Layer1
 62
7
 10
592.077
 20
220.419
 72
1
 11
592.077
 21
220.419
 40
4
 41
1
  1
(ストローク)
  0
TEXT
  8
Layer1
 62
7
 10
832.822
 20
302.018
 72
1
 11
832.822
 21
302.018
 40
4
 41
1
 50
90
  1
(シャットハイト） 
  0
TEXT
  8
Layer1
 62
7
 10
849.164
 20
321.065
 72
1
 11
849.164
 21
321.065
 40
4
 41
1
 50
90
  1
(オープンハイト）
  0
LINE
  8
Layer1
  6
CONTINUOUS
 62
7
 10
792.191
 20
304.249
 11
791.191
 21
305.249
  0
LINE
  8
Layer1
  6
CONTINUOUS
 62
7
 10
729.14
 20
297.249
 11
730.14
 21
298.249
  0
LINE
  8
Layer1
  6
CONTINUOUS
 62
7
 10
728.89
 20
312.249
 11
730.191
 21
310.949
  0
LINE
  8
Layer1
  6
CONTINUOUS
 62
7
 10
632.191
 20
311.249
 11
632.191
 21
298.249
  0
POLYLINE
  8
Layer1
  6
CONTINUOUS
 62
7
 66
1
 10
0
 20
0
 30
0
  0
VERTEX
  8
Layer1
 10
630.409
 20
297.249
  0
VERTEX
  8
Layer1
 10
630.409
 20
296.899
  0
VERTEX
  8
Layer1
 10
630.41
 20
296.548
  0
VERTEX
  8
Layer1
 10
630.414
 20
296.196
  0
VERTEX
  8
Layer1
 10
630.417
 20
295.843
  0
VERTEX
  8
Layer1
 10
630.418
 20
295.489
  0
VERTEX
  8
Layer1
 10
630.423
 20
295.132
  0
VERTEX
  8
Layer1
 10
630.428
 20
294.774
  0
VERTEX
  8
Layer1
 10
630.434
 20
294.412
  0
VERTEX
  8
Layer1
 10
630.443
 20
294.048
  0
VERTEX
  8
Layer1
 10
630.452
 20
293.68
  0
VERTEX
  8
Layer1
 10
630.462
 20
293.309
  0
VERTEX
  8
Layer1
 10
630.475
 20
292.933
  0
VERTEX
  8
Layer1
 10
630.489
 20
292.552
  0
VERTEX
  8
Layer1
 10
630.505
 20
292.167
  0
VERTEX
  8
Layer1
 10
630.524
 20
291.776
  0
VERTEX
  8
Layer1
 10
630.548
 20
291.38
  0
VERTEX
  8
Layer1
 10
630.572
 20
290.978
  0
VERTEX
  8
Layer1
 10
630.596
 20
290.571
  0
VERTEX
  8
Layer1
 10
630.623
 20
290.16
  0
VERTEX
  8
Layer1
 10
630.649
 20
289.747
  0
VERTEX
  8
Layer1
 10
630.669
 20
289.333
  0
VERTEX
  8
Layer1
 10
630.688
 20
288.919
  0
VERTEX
  8
Layer1
 10
630.702
 20
288.506
  0
VERTEX
  8
Layer1
 10
630.707
 20
288.097
  0
VERTEX
  8
Layer1
 10
630.706
 20
287.691
  0
VERTEX
  8
Layer1
 10
630.695
 20
287.291
  0
VERTEX
  8
Layer1
 10
630.673
 20
286.897
  0
VERTEX
  8
Layer1
 10
630.639
 20
286.511
  0
VERTEX
  8
Layer1
 10
630.591
 20
286.135
  0
VERTEX
  8
Layer1
 10
630.527
 20
285.769
  0
VERTEX
  8
Layer1
 10
630.448
 20
285.415
  0
VERTEX
  8
Layer1
 10
630.351
 20
285.074
  0
VERTEX
  8
Layer1
 10
630.236
 20
284.747
  0
VERTEX
  8
Layer1
 10
630.101
 20
284.436
  0
VERTEX
  8
Layer1
 10
629.946
 20
284.141
  0
VERTEX
  8
Layer1
 10
629.765
 20
283.865
  0
VERTEX
  8
Layer1
 10
629.562
 20
283.609
  0
VERTEX
  8
Layer1
 10
629.332
 20
283.373
  0
VERTEX
  8
Layer1
 10
629.073
 20
283.159
  0
VERTEX
  8
Layer1
 10
628.793
 20
282.964
  0
VERTEX
  8
Layer1
 10
628.493
 20
282.783
  0
VERTEX
  8
Layer1
 10
628.176
 20
282.613
  0
VERTEX
  8
Layer1
 10
627.845
 20
282.449
  0
VERTEX
  8
Layer1
 10
627.506
 20
282.287
  0
VERTEX
  8
Layer1
 10
627.166
 20
282.122
  0
VERTEX
  8
Layer1
 10
626.822
 20
281.951
  0
VERTEX
  8
Layer1
 10
626.481
 20
281.769
  0
VERTEX
  8
Layer1
 10
626.149
 20
281.572
  0
VERTEX
  8
Layer1
 10
625.827
 20
281.356
  0
VERTEX
  8
Layer1
 10
625.517
 20
281.121
  0
VERTEX
  8
Layer1
 10
625.217
 20
280.871
  0
VERTEX
  8
Layer1
 10
624.923
 20
280.61
  0
VERTEX
  8
Layer1
 10
624.64
 20
280.339
  0
VERTEX
  8
Layer1
 10
624.361
 20
280.063
  0
VERTEX
  8
Layer1
 10
624.087
 20
279.784
  0
VERTEX
  8
Layer1
 10
623.815
 20
279.506
  0
VERTEX
  8
Layer1
 10
623.544
 20
279.233
  0
VERTEX
  8
Layer1
 10
623.274
 20
278.967
  0
VERTEX
  8
Layer1
 10
623.005
 20
278.711
  0
VERTEX
  8
Layer1
 10
622.731
 20
278.469
  0
VERTEX
  8
Layer1
 10
622.452
 20
278.245
  0
VERTEX
  8
Layer1
 10
622.169
 20
278.04
  0
VERTEX
  8
Layer1
 10
621.88
 20
277.859
  0
VERTEX
  8
Layer1
 10
621.582
 20
277.705
  0
VERTEX
  8
Layer1
 10
621.274
 20
277.581
  0
VERTEX
  8
Layer1
 10
620.955
 20
277.49
  0
VERTEX
  8
Layer1
 10
620.623
 20
277.433
  0
VERTEX
  8
Layer1
 10
620.282
 20
277.408
  0
VERTEX
  8
Layer1
 10
619.928
 20
277.41
  0
VERTEX
  8
Layer1
 10
619.57
 20
277.433
  0
VERTEX
  8
Layer1
 10
619.202
 20
277.473
  0
VERTEX
  8
Layer1
 10
618.832
 20
277.527
  0
VERTEX
  8
Layer1
 10
618.456
 20
277.588
  0
VERTEX
  8
Layer1
 10
618.077
 20
277.654
  0
VERTEX
  8
Layer1
 10
617.697
 20
277.718
  0
VERTEX
  8
Layer1
 10
617.316
 20
277.777
  0
VERTEX
  8
Layer1
 10
616.938
 20
277.825
  0
VERTEX
  8
Layer1
 10
616.562
 20
277.859
  0
VERTEX
  8
Layer1
 10
616.188
 20
277.874
  0
VERTEX
  8
Layer1
 10
615.822
 20
277.864
  0
VERTEX
  8
Layer1
 10
615.464
 20
277.827
  0
VERTEX
  8
Layer1
 10
615.111
 20
277.763
  0
VERTEX
  8
Layer1
 10
614.763
 20
277.675
  0
VERTEX
  8
Layer1
 10
614.419
 20
277.565
  0
VERTEX
  8
Layer1
 10
614.082
 20
277.436
  0
VERTEX
  8
Layer1
 10
613.75
 20
277.289
  0
VERTEX
  8
Layer1
 10
613.418
 20
277.128
  0
VERTEX
  8
Layer1
 10
613.091
 20
276.955
  0
VERTEX
  8
Layer1
 10
612.765
 20
276.772
  0
VERTEX
  8
Layer1
 10
612.441
 20
276.582
  0
VERTEX
  8
Layer1
 10
612.118
 20
276.387
  0
VERTEX
  8
Layer1
 10
611.793
 20
276.191
  0
VERTEX
  8
Layer1
 10
611.471
 20
275.994
  0
VERTEX
  8
Layer1
 10
611.147
 20
275.8
  0
VERTEX
  8
Layer1
 10
610.821
 20
275.612
  0
VERTEX
  8
Layer1
 10
610.491
 20
275.431
  0
VERTEX
  8
Layer1
 10
610.159
 20
275.26
  0
VERTEX
  8
Layer1
 10
609.825
 20
275.102
  0
VERTEX
  8
Layer1
 10
609.486
 20
274.959
  0
VERTEX
  8
Layer1
 10
609.142
 20
274.833
  0
VERTEX
  8
Layer1
 10
608.793
 20
274.723
  0
VERTEX
  8
Layer1
 10
608.443
 20
274.629
  0
VERTEX
  8
Layer1
 10
608.085
 20
274.548
  0
VERTEX
  8
Layer1
 10
607.726
 20
274.48
  0
VERTEX
  8
Layer1
 10
607.363
 20
274.423
  0
VERTEX
  8
Layer1
 10
606.998
 20
274.375
  0
VERTEX
  8
Layer1
 10
606.63
 20
274.336
  0
VERTEX
  8
Layer1
 10
606.263
 20
274.304
  0
VERTEX
  8
Layer1
 10
605.89
 20
274.277
  0
VERTEX
  8
Layer1
 10
605.519
 20
274.254
  0
VERTEX
  8
Layer1
 10
605.147
 20
274.234
  0
VERTEX
  8
Layer1
 10
604.774
 20
274.215
  0
SEQEND
  0
LINE
  8
Layer1
  6
DASHED1
 62
7
 10
644.64
 20
292.249
 11
651.741
 21
292.249
  0
LINE
  8
Layer1
  6
DASHED1
 62
7
 10
644.64
 20
287.249
 11
651.741
 21
287.249
  0
LINE
  8
Layer1
  6
DASHED1
 62
7
 10
651.741
 20
292.249
 11
651.741
 21
287.249
  0
LINE
  8
Layer1
  6
DASHED1
 62
7
 10
651.741
 20
287.249
 11
651.741
 21
287.57
  0
LINE
  8
Layer1
  6
DASHED1
 62
7
 10
648.184
 20
286.749
 11
648.184
 21
287.874
  0
LINE
  8
Layer1
  6
CONTINUOUS
 62
7
 10
604.691
 20
248.249
 11
604.691
 21
296.249
  0
LINE
  8
Layer1
  6
CONTINUOUS
 62
7
 10
626.691
 20
247.249
 11
605.691
 21
247.249
  0
LINE
  8
Layer1
  6
CONTINUOUS
 62
7
 10
626.691
 20
297.249
 11
605.691
 21
297.249
  0
LINE
  8
Layer1
  6
CONTINUOUS
 62
7
 10
627.691
 20
296.249
 11
627.691
 21
292.749
  0
LINE
  8
Layer1
  6
CONTINUOUS
 62
7
 10
604.691
 20
296.249
 11
605.691
 21
297.249
  0
LINE
  8
Layer1
  6
CONTINUOUS
 62
7
 10
604.691
 20
248.249
 11
605.691
 21
247.249
  0
LINE
  8
Layer1
  6
CONTINUOUS
 62
7
 10
626.691
 20
247.249
 11
627.691
 21
248.249
  0
LINE
  8
Layer1
  6
CONTINUOUS
 62
7
 10
627.691
 20
248.249
 11
628.691
 21
247.249
  0
LINE
  8
Layer1
  6
CONTINUOUS
 62
7
 10
626.691
 20
297.249
 11
627.691
 21
296.249
  0
LINE
  8
Layer1
  6
CONTINUOUS
 62
7
 10
627.691
 20
296.249
 11
628.691
 21
297.249
  0
LINE
  8
Layer1
  6
CENTER1
 62
7
 10
658.254
 20
289.749
 11
597.755
 21
289.749
  0
LINE
  8
Layer1
  6
DASHED1
 62
7
 10
651.741
 20
292.249
 11
653.184
 21
289.749
  0
LINE
  8
Layer1
  6
DASHED1
 62
7
 10
653.184
 20
289.749
 11
651.741
 21
287.249
  0
LINE
  8
Layer1
  6
CONTINUOUS
 62
7
 10
605.691
 20
285.749
 11
605.691
 21
293.749
  0
LINE
  8
Layer1
  6
CONTINUOUS
 62
7
 10
606.691
 20
294.749
 11
611.691
 21
294.749
  0
LINE
  8
Layer1
  6
CONTINUOUS
 62
7
 10
606.691
 20
284.749
 11
611.691
 21
284.749
  0
LINE
  8
Layer1
  6
CONTINUOUS
 62
7
 10
611.691
 20
295.249
 11
611.691
 21
284.249
  0
LINE
  8
Layer1
  6
DASHED1
 62
7
 10
644.64
 20
292.749
 11
630.39
 21
292.749
  0
LINE
  8
Layer1
  6
DASHED1
 62
7
 10
644.64
 20
286.749
 11
630.658
 21
286.749
  0
LINE
  8
Layer1
  6
DASHED1
 62
7
 10
645.64
 20
287.749
 11
645.64
 21
291.749
  0
LINE
  8
Layer1
  6
CONTINUOUS
 62
7
 10
611.643
 20
292.249
 11
632.183
 21
292.249
  0
LINE
  8
Layer1
  6
CONTINUOUS
 62
7
 10
611.643
 20
287.249
 11
629.952
 21
287.249
  0
LINE
  8
Layer1
  6
DASHED1
 62
7
 10
644.64
 20
292.749
 11
644.64
 21
286.749
  0
LINE
  8
Layer1
  6
DASHED1
 62
7
 10
644.64
 20
292.749
 11
645.64
 21
291.749
  0
LINE
  8
Layer1
  6
DASHED1
 62
7
 10
645.64
 20
287.749
 11
644.64
 21
286.749
  0
LINE
  8
Layer1
  6
CONTINUOUS
 62
7
 10
605.691
 20
285.749
 11
606.691
 21
284.749
  0
LINE
  8
Layer1
  6
CONTINUOUS
 62
7
 10
611.691
 20
295.249
 11
604.691
 21
295.249
  0
LINE
  8
Layer1
  6
CONTINUOUS
 62
7
 10
611.691
 20
284.249
 11
604.691
 21
284.249
  0
LINE
  8
Layer1
  6
DASHED1
 62
7
 10
648.184
 20
292.749
 11
644.64
 21
292.749
  0
LINE
  8
Layer1
  6
DASHED1
 62
7
 10
648.184
 20
286.749
 11
644.64
 21
286.749
  0
LINE
  8
Layer1
  6
DASHED1
 62
7
 10
648.184
 20
292.749
 11
649.051
 21
292.249
  0
LINE
  8
Layer1
  6
DASHED1
 62
7
 10
648.184
 20
286.749
 11
649.051
 21
287.249
  0
LINE
  8
Layer1
  6
DASHED1
 62
7
 10
649.051
 20
292.249
 11
649.051
 21
287.249
  0
LINE
  8
Layer1
  6
CONTINUOUS
 62
7
 10
606.691
 20
294.749
 11
606.691
 21
284.749
  0
LINE
  8
Layer1
  6
CONTINUOUS
 62
7
 10
627.691
 20
286.749
 11
627.691
 21
248.249
  0
LINE
  8
Layer1
  6
CONTINUOUS
 62
7
 10
630.393
 20
292.749
 11
611.643
 21
292.749
  0
LINE
  8
Layer1
  6
DASHED1
 62
7
 10
632.179
 20
292.249
 11
645.14
 21
292.249
  0
LINE
  8
Layer1
  6
DASHED1
 62
7
 10
629.95
 20
287.249
 11
645.14
 21
287.249
  0
LINE
  8
Layer1
  6
CONTINUOUS
 62
7
 10
630.659
 20
286.749
 11
611.643
 21
286.749
  0
LINE
  8
Layer1
  6
CONTINUOUS
 62
7
 10
606.691
 20
294.749
 11
611.691
 21
294.749
  0
LINE
  8
Layer1
  6
CONTINUOUS
 62
7
 10
605.691
 20
293.749
 11
606.691
 21
294.749
  0
LINE
  8
Layer1
  6
CONTINUOUS
 62
7
 10
611.691
 20
294.749
 11
606.691
 21
294.749
  0
LINE
  8
Layer1
  6
CONTINUOUS
 62
7
 10
450.053
 20
312.055
 11
410.517
 21
312.055
  0
LINE
  8
Layer1
  6
CONTINUOUS
 62
7
 10
320.053
 20
312.055
 11
319.053
 21
311.055
  0
LINE
  8
Layer1
  6
CONTINUOUS
 62
7
 10
450.053
 20
312.055
 11
451.053
 21
311.055
  0
LINE
  8
Layer1
  6
CONTINUOUS
 62
7
 10
726.702
 20
227.249
 11
729.02
 21
227.249
  0
LINE
  8
Layer1
  6
CONTINUOUS
 62
7
 10
727.476
 20
245.249
 11
725.157
 21
245.249
  0
LINE
  8
Layer1
  6
CONTINUOUS
 62
7
 10
725.157
 20
240.755
 11
727.476
 21
240.755
  0
LINE
  8
Layer1
  6
CONTINUOUS
 62
7
 10
726.702
 20
231.767
 11
729.02
 21
231.767
  0
LINE
  8
Layer1
  6
CONTINUOUS
 62
7
 10
727.476
 20
245.249
 11
727.476
 21
240.755
  0
LINE
  8
Layer1
  6
CONTINUOUS
 62
7
 10
725.157
 20
245.249
 11
725.157
 21
240.755
  0
LINE
  8
Layer1
  6
CONTINUOUS
 62
7
 10
726.702
 20
231.767
 11
726.702
 21
227.249
  0
LINE
  8
Layer1
  6
CONTINUOUS
 62
7
 10
729.02
 20
231.767
 11
729.02
 21
227.249
  0
LINE
  8
Layer1
  6
CONTINUOUS
 62
7
 10
725.157
 20
240.755
 11
726.702
 21
231.767
  0
LINE
  8
Layer1
  6
CONTINUOUS
 62
7
 10
727.476
 20
240.755
 11
729.02
 21
231.767
  0
LINE
  8
Layer1
  6
CONTINUOUS
 62
7
 10
725.928
 20
236.261
 11
726.702
 21
227.249
  0
LINE
  8
Layer1
  6
CONTINUOUS
 62
7
 10
727.668
 20
245.249
 11
728.246
 21
236.261
  0
LINE
  8
Layer1
  6
CONTINUOUS
 62
7
 10
722.452
 20
227.249
 11
724.77
 21
227.249
  0
LINE
  8
Layer1
  6
CONTINUOUS
 62
7
 10
723.226
 20
245.249
 11
720.907
 21
245.249
  0
LINE
  8
Layer1
  6
CONTINUOUS
 62
7
 10
720.907
 20
240.755
 11
723.226
 21
240.755
  0
LINE
  8
Layer1
  6
CONTINUOUS
 62
7
 10
722.452
 20
231.767
 11
724.77
 21
231.767
  0
LINE
  8
Layer1
  6
CONTINUOUS
 62
7
 10
723.226
 20
245.249
 11
723.226
 21
240.755
  0
LINE
  8
Layer1
  6
CONTINUOUS
 62
7
 10
720.907
 20
245.249
 11
720.907
 21
240.755
  0
LINE
  8
Layer1
  6
CONTINUOUS
 62
7
 10
722.452
 20
231.767
 11
722.452
 21
227.249
  0
LINE
  8
Layer1
  6
CONTINUOUS
 62
7
 10
724.77
 20
231.767
 11
724.77
 21
227.249
  0
LINE
  8
Layer1
  6
CONTINUOUS
 62
7
 10
720.907
 20
240.755
 11
722.452
 21
231.767
  0
LINE
  8
Layer1
  6
CONTINUOUS
 62
7
 10
723.226
 20
240.755
 11
724.77
 21
231.767
  0
LINE
  8
Layer1
  6
CONTINUOUS
 62
7
 10
721.678
 20
236.261
 11
722.452
 21
227.249
  0
LINE
  8
Layer1
  6
CONTINUOUS
 62
7
 10
723.418
 20
245.249
 11
723.996
 21
236.261
  0
LINE
  8
Layer1
  6
CONTINUOUS
 62
7
 10
735.976
 20
227.249
 11
738.293
 21
227.249
  0
LINE
  8
Layer1
  6
CONTINUOUS
 62
7
 10
736.746
 20
245.249
 11
734.428
 21
245.249
  0
LINE
  8
Layer1
  6
CONTINUOUS
 62
7
 10
734.428
 20
240.755
 11
736.746
 21
240.755
  0
LINE
  8
Layer1
  6
CONTINUOUS
 62
7
 10
735.976
 20
231.767
 11
738.293
 21
231.767
  0
LINE
  8
Layer1
  6
CONTINUOUS
 62
7
 10
736.746
 20
245.249
 11
736.746
 21
240.755
  0
LINE
  8
Layer1
  6
CONTINUOUS
 62
7
 10
734.428
 20
245.249
 11
734.428
 21
240.755
  0
LINE
  8
Layer1
  6
CONTINUOUS
 62
7
 10
735.976
 20
231.767
 11
735.976
 21
227.249
  0
LINE
  8
Layer1
  6
CONTINUOUS
 62
7
 10
738.293
 20
231.767
 11
738.293
 21
227.249
  0
LINE
  8
Layer1
  6
CONTINUOUS
 62
7
 10
734.428
 20
240.755
 11
735.976
 21
231.767
  0
LINE
  8
Layer1
  6
CONTINUOUS
 62
7
 10
736.746
 20
240.755
 11
738.293
 21
231.767
  0
LINE
  8
Layer1
  6
CONTINUOUS
 62
7
 10
735.202
 20
236.261
 11
735.976
 21
227.249
  0
LINE
  8
Layer1
  6
CONTINUOUS
 62
7
 10
736.941
 20
245.249
 11
737.52
 21
236.261
  0
LINE
  8
Layer1
  6
CONTINUOUS
 62
7
 10
717.816
 20
227.249
 11
720.134
 21
227.249
  0
LINE
  8
Layer1
  6
CONTINUOUS
 62
7
 10
713.952
 20
245.249
 11
711.634
 21
245.249
  0
LINE
  8
Layer1
  6
CONTINUOUS
 62
7
 10
711.634
 20
240.755
 11
713.952
 21
240.755
  0
LINE
  8
Layer1
  6
CONTINUOUS
 62
7
 10
713.178
 20
231.767
 11
715.496
 21
231.767
  0
LINE
  8
Layer1
  6
CONTINUOUS
 62
7
 10
713.952
 20
245.249
 11
713.952
 21
240.755
  0
LINE
  8
Layer1
  6
CONTINUOUS
 62
7
 10
711.634
 20
245.249
 11
711.634
 21
240.755
  0
LINE
  8
Layer1
  6
CONTINUOUS
 62
7
 10
713.178
 20
231.767
 11
713.178
 21
230.669
  0
LINE
  8
Layer1
  6
CONTINUOUS
 62
7
 10
715.496
 20
231.767
 11
715.496
 21
229.508
  0
LINE
  8
Layer1
  6
CONTINUOUS
 62
7
 10
711.634
 20
240.755
 11
713.178
 21
231.767
  0
LINE
  8
Layer1
  6
CONTINUOUS
 62
7
 10
713.952
 20
240.755
 11
715.496
 21
231.767
  0
LINE
  8
Layer1
  6
CONTINUOUS
 62
7
 10
712.407
 20
236.261
 11
712.87
 21
230.863
  0
LINE
  8
Layer1
  6
CONTINUOUS
 62
7
 10
714.145
 20
245.249
 11
714.726
 21
236.261
  0
LINE
  8
Layer1
  6
CONTINUOUS
 62
7
 10
718.589
 20
245.249
 11
716.27
 21
245.249
  0
LINE
  8
Layer1
  6
CONTINUOUS
 62
7
 10
716.27
 20
240.755
 11
718.589
 21
240.755
  0
LINE
  8
Layer1
  6
CONTINUOUS
 62
7
 10
717.816
 20
231.767
 11
720.134
 21
231.767
  0
LINE
  8
Layer1
  6
CONTINUOUS
 62
7
 10
718.589
 20
245.249
 11
718.589
 21
240.755
  0
LINE
  8
Layer1
  6
CONTINUOUS
 62
7
 10
716.27
 20
245.249
 11
716.27
 21
240.755
  0
LINE
  8
Layer1
  6
CONTINUOUS
 62
7
 10
717.816
 20
231.767
 11
717.816
 21
228.756
  0
LINE
  8
Layer1
  6
CONTINUOUS
 62
7
 10
720.134
 20
231.767
 11
720.134
 21
228.162
  0
LINE
  8
Layer1
  6
CONTINUOUS
 62
7
 10
716.27
 20
240.755
 11
717.816
 21
231.767
  0
LINE
  8
Layer1
  6
CONTINUOUS
 62
7
 10
718.589
 20
240.755
 11
720.134
 21
231.767
  0
LINE
  8
Layer1
  6
CONTINUOUS
 62
7
 10
717.043
 20
236.261
 11
717.683
 21
228.794
  0
LINE
  8
Layer1
  6
CONTINUOUS
 62
7
 10
718.782
 20
245.249
 11
719.361
 21
236.261
  0
LINE
  8
Layer1
  6
CONTINUOUS
 62
7
 10
777.191
 20
267.948
 11
732.149
 21
321.628
  0
LINE
  8
Layer1
  6
CONTINUOUS
 62
7
 10
769.01
 20
310.379
 11
776.332
 21
301.654
  0
LINE
  8
Layer1
  6
CENTER1
 62
7
 10
769.226
 20
302.729
 11
751.168
 21
287.575
  0
LINE
  8
Layer1
  6
CENTER1
 62
7
 10
775.37
 20
292.278
 11
749.533
 21
270.597
  0
LINE
  8
Layer1
  6
DASHED1
 62
7
 10
777.157
 20
264.89
 11
750.004
 21
297.249
  0
LINE
  8
Layer1
  6
CONTINUOUS
 62
7
 10
768.667
 20
278.108
 11
776.332
 21
284.541
  0
LINE
  8
Layer1
  6
CONTINUOUS
 62
7
 10
776.332
 20
284.541
 11
776.332
 21
301.654
  0
LINE
  8
Layer1
  6
CONTINUOUS
 62
7
 10
761.41
 20
304.656
 11
768.306
 21
310.441
  0
LINE
  8
Layer1
  6
CONTINUOUS
 62
7
 10
761.351
 20
303.951
 11
768.037
 21
295.982
  0
LINE
  8
Layer1
  6
CONTINUOUS
 62
7
 10
764.948
 20
290.328
 11
771.697
 21
282.284
  0
LINE
  8
Layer1
  6
CONTINUOUS
 62
7
 10
776.332
 20
286.172
 11
771.697
 21
282.284
  0
LINE
  8
Layer1
  6
CONTINUOUS
 62
7
 10
776.332
 20
299.879
 11
764.948
 21
290.328
  0
LINE
  8
Layer1
  6
CONTINUOUS
 62
7
 10
766.236
 20
288.796
 11
762.399
 21
285.577
  0
LINE
  8
Layer1
  6
CONTINUOUS
 62
7
 10
770.413
 20
283.816
 11
766.577
 21
280.597
  0
LINE
  8
Layer1
  6
CONTINUOUS
 62
7
 10
768.306
 20
310.441
 11
769.01
 21
310.379
  0
LINE
  8
Layer1
  6
CONTINUOUS
 62
7
 10
751.453
 20
296.3
 11
751.39
 21
295.595
  0
LINE
  8
Layer1
  6
CONTINUOUS
 62
7
 10
767.524
 20
277.148
 11
766.818
 21
277.21
  0
LINE
  8
Layer1
  6
CONTINUOUS
 62
7
 10
761.41
 20
304.656
 11
761.351
 21
303.951
  0
LINE
  8
Layer1
  6
CONTINUOUS
 62
7
 10
761.41
 20
304.656
 11
752.604
 21
297.249
  0
POLYLINE
  8
Layer1
  6
CONTINUOUS
 62
7
 66
1
 10
0
 20
0
 30
0
  0
VERTEX
  8
Layer1
 10
775.034
 20
303.199
  0
VERTEX
  8
Layer1
 10
774.726
 20
303.101
  0
VERTEX
  8
Layer1
 10
774.417
 20
303.002
  0
VERTEX
  8
Layer1
 10
774.111
 20
302.901
  0
VERTEX
  8
Layer1
 10
773.807
 20
302.796
  0
VERTEX
  8
Layer1
 10
773.509
 20
302.687
  0
VERTEX
  8
Layer1
 10
773.217
 20
302.572
  0
VERTEX
  8
Layer1
 10
772.932
 20
302.45
  0
VERTEX
  8
Layer1
 10
772.657
 20
302.321
  0
VERTEX
  8
Layer1
 10
772.39
 20
302.182
  0
VERTEX
  8
Layer1
 10
772.133
 20
302.033
  0
VERTEX
  8
Layer1
 10
771.89
 20
301.873
  0
VERTEX
  8
Layer1
 10
771.659
 20
301.7
  0
VERTEX
  8
Layer1
 10
771.442
 20
301.514
  0
VERTEX
  8
Layer1
 10
771.241
 20
301.313
  0
VERTEX
  8
Layer1
 10
771.057
 20
301.096
  0
VERTEX
  8
Layer1
 10
770.89
 20
300.862
  0
VERTEX
  8
Layer1
 10
770.739
 20
300.615
  0
VERTEX
  8
Layer1
 10
770.601
 20
300.355
  0
VERTEX
  8
Layer1
 10
770.471
 20
300.085
  0
VERTEX
  8
Layer1
 10
770.351
 20
299.808
  0
VERTEX
  8
Layer1
 10
770.232
 20
299.526
  0
VERTEX
  8
Layer1
 10
770.118
 20
299.241
  0
VERTEX
  8
Layer1
 10
770.003
 20
298.955
  0
VERTEX
  8
Layer1
 10
769.883
 20
298.672
  0
VERTEX
  8
Layer1
 10
769.758
 20
298.393
  0
VERTEX
  8
Layer1
 10
769.624
 20
298.12
  0
VERTEX
  8
Layer1
 10
769.481
 20
297.855
  0
VERTEX
  8
Layer1
 10
769.326
 20
297.599
  0
VERTEX
  8
Layer1
 10
769.163
 20
297.35
  0
VERTEX
  8
Layer1
 10
768.991
 20
297.108
  0
VERTEX
  8
Layer1
 10
768.812
 20
296.872
  0
VERTEX
  8
Layer1
 10
768.624
 20
296.641
  0
VERTEX
  8
Layer1
 10
768.429
 20
296.415
  0
VERTEX
  8
Layer1
 10
768.232
 20
296.193
  0
VERTEX
  8
Layer1
 10
768.029
 20
295.973
  0
VERTEX
  8
Layer1
 10
767.822
 20
295.756
  0
VERTEX
  8
Layer1
 10
767.613
 20
295.541
  0
VERTEX
  8
Layer1
 10
767.4
 20
295.327
  0
VERTEX
  8
Layer1
 10
767.188
 20
295.113
  0
VERTEX
  8
Layer1
 10
766.976
 20
294.898
  0
VERTEX
  8
Layer1
 10
766.763
 20
294.682
  0
VERTEX
  8
Layer1
 10
766.551
 20
294.465
  0
VERTEX
  8
Layer1
 10
766.341
 20
294.244
  0
VERTEX
  8
Layer1
 10
766.133
 20
294.021
  0
VERTEX
  8
Layer1
 10
765.929
 20
293.793
  0
VERTEX
  8
Layer1
 10
765.731
 20
293.56
  0
VERTEX
  8
Layer1
 10
765.538
 20
293.322
  0
VERTEX
  8
Layer1
 10
765.351
 20
293.078
  0
VERTEX
  8
Layer1
 10
765.168
 20
292.829
  0
VERTEX
  8
Layer1
 10
764.99
 20
292.576
  0
VERTEX
  8
Layer1
 10
764.816
 20
292.32
  0
VERTEX
  8
Layer1
 10
764.644
 20
292.062
  0
VERTEX
  8
Layer1
 10
764.475
 20
291.803
  0
VERTEX
  8
Layer1
 10
764.303
 20
291.546
  0
VERTEX
  8
Layer1
 10
764.134
 20
291.29
  0
VERTEX
  8
Layer1
 10
763.962
 20
291.037
  0
VERTEX
  8
Layer1
 10
763.787
 20
290.789
  0
VERTEX
  8
Layer1
 10
763.611
 20
290.546
  0
VERTEX
  8
Layer1
 10
763.428
 20
290.31
  0
VERTEX
  8
Layer1
 10
763.24
 20
290.081
  0
VERTEX
  8
Layer1
 10
763.046
 20
289.862
  0
VERTEX
  8
Layer1
 10
762.845
 20
289.653
  0
VERTEX
  8
Layer1
 10
762.636
 20
289.456
  0
VERTEX
  8
Layer1
 10
762.418
 20
289.271
  0
VERTEX
  8
Layer1
 10
762.188
 20
289.1
  0
VERTEX
  8
Layer1
 10
761.948
 20
288.943
  0
VERTEX
  8
Layer1
 10
761.7
 20
288.799
  0
VERTEX
  8
Layer1
 10
761.442
 20
288.666
  0
VERTEX
  8
Layer1
 10
761.177
 20
288.546
  0
VERTEX
  8
Layer1
 10
760.902
 20
288.435
  0
VERTEX
  8
Layer1
 10
760.62
 20
288.333
  0
VERTEX
  8
Layer1
 10
760.333
 20
288.24
  0
VERTEX
  8
Layer1
 10
760.043
 20
288.155
  0
VERTEX
  8
Layer1
 10
759.745
 20
288.075
  0
VERTEX
  8
Layer1
 10
759.443
 20
288.002
  0
VERTEX
  8
Layer1
 10
759.14
 20
287.933
  0
VERTEX
  8
Layer1
 10
758.832
 20
287.867
  0
VERTEX
  8
Layer1
 10
758.522
 20
287.805
  0
VERTEX
  8
Layer1
 10
758.21
 20
287.744
  0
VERTEX
  8
Layer1
 10
757.899
 20
287.685
  0
SEQEND
  0
LINE
  8
Layer1
  6
CONTINUOUS
 62
7
 10
775.491
 20
287.098
 11
770.35
 21
293.227
  0
LINE
  8
Layer1
  6
DASHED1
 62
7
 10
754.288
 20
271.918
 11
751.717
 21
274.982
  0
LINE
  8
Layer1
  6
CONTINUOUS
 62
7
 10
768.94
 20
293.35
 11
765.111
 21
290.136
  0
LINE
  8
Layer1
  6
CONTINUOUS
 62
7
 10
775.369
 20
285.69
 11
771.538
 21
282.476
  0
LINE
  8
Layer1
  6
CONTINUOUS
 62
7
 10
765.111
 20
290.136
 11
771.538
 21
282.476
  0
LINE
  8
Layer1
  6
CONTINUOUS
 62
7
 10
766.717
 20
288.221
 11
761.354
 21
283.722
  0
LINE
  8
Layer1
  6
CONTINUOUS
 62
7
 10
769.931
 20
284.391
 11
766.095
 21
281.172
  0
LINE
  8
Layer1
  6
CONTINUOUS
 62
7
 10
775.491
 20
287.098
 11
775.369
 21
285.69
  0
LINE
  8
Layer1
  6
CONTINUOUS
 62
7
 10
768.94
 20
293.35
 11
775.369
 21
285.69
  0
LINE
  8
Layer1
  6
DASHED1
 62
7
 10
751.842
 20
276.391
 11
762.559
 21
285.385
  0
LINE
  8
Layer1
  6
DASHED1
 62
7
 10
755.697
 20
271.795
 11
766.417
 21
280.789
  0
LINE
  8
Layer1
  6
CONTINUOUS
 62
7
 10
768.94
 20
293.35
 11
765.111
 21
290.136
  0
LINE
  8
Layer1
  6
CONTINUOUS
 62
7
 10
770.35
 20
293.227
 11
768.94
 21
293.35
  0
LINE
  8
Layer1
  6
CONTINUOUS
 62
7
 10
765.111
 20
290.136
 11
768.94
 21
293.35
  0
LINE
  8
Layer1
  6
CONTINUOUS
 62
7
 10
765.623
 20
289.914
 11
769.071
 21
292.806
  0
LINE
  8
Layer1
  6
DASHED1
 62
7
 10
751.717
 20
274.982
 11
751.842
 21
276.391
  0
LINE
  8
Layer1
  6
DASHED1
 62
7
 10
754.288
 20
271.918
 11
755.697
 21
271.795
  0
LINE
  8
Layer1
  6
DASHED1
 62
7
 10
751.842
 20
276.391
 11
755.697
 21
271.795
  0
LINE
  8
Layer1
  6
CONTINUOUS
 62
7
 10
762.559
 20
285.385
 11
766.395
 21
288.604
  0
LINE
  8
Layer1
  6
DASHED1
 62
7
 10
762.88
 20
285.002
 11
751.779
 21
275.687
  0
LINE
  8
Layer1
  6
DASHED1
 62
7
 10
766.095
 20
281.172
 11
754.994
 21
271.856
  0
LINE
  8
Layer1
  6
CONTINUOUS
 62
7
 10
766.417
 20
280.789
 11
770.253
 21
284.008
  0
LINE
  8
Layer1
  6
DASHED1
 62
7
 10
743.39
 20
307.481
 11
751.418
 21
314.219
  0
LINE
  8
Layer1
  6
DASHED1
 62
7
 10
777.191
 20
267.948
 11
745.599
 21
305.599
  0
LINE
  8
Layer1
  6
DASHED1
 62
7
 10
751.418
 20
314.219
 11
732.149
 21
337.186
  0
LINE
  8
Layer1
  6
DASHED1
 62
7
 10
762.15
 20
320.098
 11
732.149
 21
355.854
  0
LINE
  8
Layer1
  6
CONTINUOUS
 62
7
 10
751.453
 20
296.3
 11
752.604
 21
297.249
  0
LINE
  8
Layer1
  6
CONTINUOUS
 62
7
 10
767.524
 20
277.148
 11
768.667
 21
278.108
  0
LINE
  8
Layer1
  6
CONTINUOUS
 62
7
 10
777.149
 20
310.249
 11
754.75
 21
310.249
  0
LINE
  8
Layer1
  6
CONTINUOUS
 62
7
 10
747.09
 20
303.822
 11
754.75
 21
310.249
  0
POLYLINE
  8
Layer1
  6
CONTINUOUS
 62
7
 66
1
 10
0
 20
0
 30
0
  0
VERTEX
  8
Layer1
 10
777.191
 20
324.194
  0
VERTEX
  8
Layer1
 10
776.772
 20
324.282
  0
VERTEX
  8
Layer1
 10
776.351
 20
324.369
  0
VERTEX
  8
Layer1
 10
775.934
 20
324.453
  0
VERTEX
  8
Layer1
 10
775.515
 20
324.534
  0
VERTEX
  8
Layer1
 10
775.101
 20
324.611
  0
VERTEX
  8
Layer1
 10
774.686
 20
324.682
  0
VERTEX
  8
Layer1
 10
774.273
 20
324.746
  0
VERTEX
  8
Layer1
 10
773.861
 20
324.801
  0
VERTEX
  8
Layer1
 10
773.452
 20
324.848
  0
VERTEX
  8
Layer1
 10
773.046
 20
324.884
  0
VERTEX
  8
Layer1
 10
772.643
 20
324.909
  0
VERTEX
  8
Layer1
 10
772.244
 20
324.921
  0
VERTEX
  8
Layer1
 10
771.847
 20
324.92
  0
VERTEX
  8
Layer1
 10
771.456
 20
324.903
  0
VERTEX
  8
Layer1
 10
771.066
 20
324.87
  0
VERTEX
  8
Layer1
 10
770.683
 20
324.82
  0
VERTEX
  8
Layer1
 10
770.303
 20
324.752
  0
VERTEX
  8
Layer1
 10
769.928
 20
324.664
  0
VERTEX
  8
Layer1
 10
769.561
 20
324.556
  0
VERTEX
  8
Layer1
 10
769.197
 20
324.426
  0
VERTEX
  8
Layer1
 10
768.84
 20
324.277
  0
VERTEX
  8
Layer1
 10
768.485
 20
324.11
  0
VERTEX
  8
Layer1
 10
768.134
 20
323.928
  0
VERTEX
  8
Layer1
 10
767.787
 20
323.732
  0
VERTEX
  8
Layer1
 10
767.443
 20
323.525
  0
VERTEX
  8
Layer1
 10
767.101
 20
323.308
  0
VERTEX
  8
Layer1
 10
766.76
 20
323.083
  0
VERTEX
  8
Layer1
 10
766.419
 20
322.853
  0
VERTEX
  8
Layer1
 10
766.082
 20
322.618
  0
VERTEX
  8
Layer1
 10
765.743
 20
322.383
  0
VERTEX
  8
Layer1
 10
765.4
 20
322.147
  0
VERTEX
  8
Layer1
 10
765.061
 20
321.914
  0
VERTEX
  8
Layer1
 10
764.717
 20
321.685
  0
VERTEX
  8
Layer1
 10
764.37
 20
321.462
  0
VERTEX
  8
Layer1
 10
764.024
 20
321.245
  0
VERTEX
  8
Layer1
 10
763.676
 20
321.033
  0
VERTEX
  8
Layer1
 10
763.327
 20
320.823
  0
VERTEX
  8
Layer1
 10
762.98
 20
320.614
  0
VERTEX
  8
Layer1
 10
762.635
 20
320.404
  0
VERTEX
  8
Layer1
 10
762.293
 20
320.191
  0
VERTEX
  8
Layer1
 10
761.957
 20
319.974
  0
VERTEX
  8
Layer1
 10
761.629
 20
319.749
  0
VERTEX
  8
Layer1
 10
761.304
 20
319.516
  0
VERTEX
  8
Layer1
 10
760.99
 20
319.273
  0
VERTEX
  8
Layer1
 10
760.686
 20
319.018
  0
VERTEX
  8
Layer1
 10
760.39
 20
318.749
  0
VERTEX
  8
Layer1
 10
760.105
 20
318.466
  0
VERTEX
  8
Layer1
 10
759.827
 20
318.174
  0
VERTEX
  8
Layer1
 10
759.556
 20
317.873
  0
VERTEX
  8
Layer1
 10
759.291
 20
317.566
  0
VERTEX
  8
Layer1
 10
759.025
 20
317.256
  0
VERTEX
  8
Layer1
 10
758.764
 20
316.945
  0
VERTEX
  8
Layer1
 10
758.5
 20
316.634
  0
VERTEX
  8
Layer1
 10
758.235
 20
316.328
  0
VERTEX
  8
Layer1
 10
757.964
 20
316.027
  0
VERTEX
  8
Layer1
 10
757.688
 20
315.734
  0
VERTEX
  8
Layer1
 10
757.404
 20
315.452
  0
VERTEX
  8
Layer1
 10
757.111
 20
315.183
  0
VERTEX
  8
Layer1
 10
756.806
 20
314.929
  0
VERTEX
  8
Layer1
 10
756.49
 20
314.692
  0
VERTEX
  8
Layer1
 10
756.159
 20
314.473
  0
VERTEX
  8
Layer1
 10
755.82
 20
314.27
  0
VERTEX
  8
Layer1
 10
755.467
 20
314.079
  0
VERTEX
  8
Layer1
 10
755.11
 20
313.9
  0
VERTEX
  8
Layer1
 10
754.744
 20
313.73
  0
VERTEX
  8
Layer1
 10
754.371
 20
313.568
  0
VERTEX
  8
Layer1
 10
753.995
 20
313.41
  0
VERTEX
  8
Layer1
 10
753.619
 20
313.256
  0
VERTEX
  8
Layer1
 10
753.24
 20
313.102
  0
VERTEX
  8
Layer1
 10
752.861
 20
312.947
  0
VERTEX
  8
Layer1
 10
752.486
 20
312.789
  0
VERTEX
  8
Layer1
 10
752.111
 20
312.626
  0
VERTEX
  8
Layer1
 10
751.743
 20
312.459
  0
VERTEX
  8
Layer1
 10
751.374
 20
312.287
  0
VERTEX
  8
Layer1
 10
751.01
 20
312.111
  0
VERTEX
  8
Layer1
 10
750.649
 20
311.931
  0
VERTEX
  8
Layer1
 10
750.288
 20
311.748
  0
VERTEX
  8
Layer1
 10
749.931
 20
311.561
  0
VERTEX
  8
Layer1
 10
749.576
 20
311.37
  0
VERTEX
  8
Layer1
 10
749.224
 20
311.176
  0
VERTEX
  8
Layer1
 10
748.871
 20
310.979
  0
VERTEX
  8
Layer1
 10
748.523
 20
310.78
  0
VERTEX
  8
Layer1
 10
748.176
 20
310.577
  0
VERTEX
  8
Layer1
 10
747.83
 20
310.372
  0
VERTEX
  8
Layer1
 10
747.486
 20
310.165
  0
VERTEX
  8
Layer1
 10
747.142
 20
309.956
  0
VERTEX
  8
Layer1
 10
746.801
 20
309.745
  0
VERTEX
  8
Layer1
 10
746.458
 20
309.532
  0
VERTEX
  8
Layer1
 10
746.12
 20
309.318
  0
VERTEX
  8
Layer1
 10
745.782
 20
309.102
  0
VERTEX
  8
Layer1
 10
745.443
 20
308.885
  0
VERTEX
  8
Layer1
 10
745.105
 20
308.667
  0
VERTEX
  8
Layer1
 10
744.768
 20
308.449
  0
VERTEX
  8
Layer1
 10
744.432
 20
308.23
  0
VERTEX
  8
Layer1
 10
744.095
 20
308.01
  0
VERTEX
  8
Layer1
 10
743.759
 20
307.791
  0
SEQEND
  0
LINE
  8
Layer1
  6
CONTINUOUS
 62
7
 10
754.75
 20
310.249
 11
752.583
 21
312.831
  0
LINE
  8
Layer1
  6
CONTINUOUS
 62
7
 10
770.416
 20
310.249
 11
762.15
 21
320.098
  0
LINE
  8
Layer1
  6
DASHED1
 62
7
 10
420.571
 20
310.055
 11
420.553
 21
310.039
  0
LINE
  8
Layer1
  6
CONTINUOUS
 62
7
 10
334.053
 20
297.055
 11
320.053
 21
297.055
  0
LINE
  8
Layer1
  6
DASHED1
 62
7
 10
433.053
 20
284.055
 11
433.053
 21
310.055
  0
LINE
  8
Layer1
  6
DASHED1
 62
7
 10
337.053
 20
284.055
 11
337.053
 21
310.055
  0
LINE
  8
Layer1
  6
DASHED1
 62
7
 10
404.053
 20
282.055
 11
431.053
 21
282.055
  0
LINE
  8
Layer1
  6
CONTINUOUS
 62
7
 10
451.053
 20
298.055
 11
451.053
 21
309.055
  0
LINE
  8
Layer1
  6
CONTINUOUS
 62
7
 10
319.053
 20
298.055
 11
319.053
 21
309.055
  0
LINE
  8
Layer1
  6
CONTINUOUS
 62
7
 10
319.053
 20
298.055
 11
320.053
 21
297.055
  0
LINE
  8
Layer1
  6
CONTINUOUS
 62
7
 10
451.053
 20
298.055
 11
450.053
 21
297.055
  0
LINE
  8
Layer1
  6
CONTINUOUS
 62
7
 10
449.852
 20
297.055
 11
334.053
 21
297.055
  0
LINE
  8
Layer1
  6
DASHED1
 62
7
 10
337.053
 20
284.055
 11
339.053
 21
282.055
  0
LINE
  8
Layer1
  6
DASHED1
 62
7
 10
431.053
 20
282.055
 11
433.053
 21
284.055
  0
LINE
  8
Layer1
  6
CONTINUOUS
 62
7
 10
402.053
 20
355.66
 11
402.053
 21
336.991
  0
LINE
  8
Layer1
  6
CONTINUOUS
 62
7
 10
368.053
 20
355.66
 11
368.053
 21
336.991
  0
LINE
  8
Layer1
  6
CONTINUOUS
 62
7
 10
374.053
 20
336.991
 11
374.032
 21
316.57
  0
LINE
  8
Layer1
  6
CONTINUOUS
 62
7
 10
396.053
 20
336.991
 11
396.053
 21
316.561
  0
LINE
  8
Layer1
  6
CONTINUOUS
 62
7
 10
402.053
 20
355.66
 11
368.053
 21
355.66
  0
LINE
  8
Layer1
  6
CONTINUOUS
 62
7
 10
402.053
 20
336.991
 11
396.053
 21
336.991
  0
LINE
  8
Layer1
  6
DASHED1
 62
7
 10
402.053
 20
284.055
 11
402.053
 21
336.991
  0
LINE
  8
Layer1
  6
DASHED1
 62
7
 10
368.053
 20
284.055
 11
368.053
 21
336.991
  0
LINE
  8
Layer1
  6
CONTINUOUS
 62
7
 10
401.053
 20
303.992
 11
369.053
 21
303.992
  0
LINE
  8
Layer1
  6
DASHED1
 62
7
 10
401.053
 20
295.945
 11
375.053
 21
295.945
  0
LINE
  8
Layer1
  6
DASHED1
 62
7
 10
395.053
 20
295.945
 11
395.053
 21
276.422
  0
LINE
  8
Layer1
  6
DASHED1
 62
7
 10
375.053
 20
295.945
 11
375.053
 21
276.422
  0
LINE
  8
Layer1
  6
CONTINUOUS
 62
7
 10
401.053
 20
303.992
 11
401.053
 21
297.055
  0
LINE
  8
Layer1
  6
CONTINUOUS
 62
7
 10
369.053
 20
303.992
 11
369.053
 21
297.055
  0
LINE
  8
Layer1
  6
DASHED1
 62
7
 10
375.053
 20
295.945
 11
369.053
 21
295.945
  0
LINE
  8
Layer1
  6
DASHED1
 62
7
 10
395.053
 20
276.422
 11
375.053
 21
276.422
  0
LINE
  8
Layer1
  6
DASHED1
 62
7
 10
401.053
 20
284.346
 11
395.053
 21
284.346
  0
LINE
  8
Layer1
  6
DASHED1
 62
7
 10
375.053
 20
284.346
 11
369.053
 21
284.346
  0
LINE
  8
Layer1
  6
CONTINUOUS
 62
7
 10
374.053
 20
336.991
 11
368.053
 21
336.991
  0
ARC
  8
Layer1
  6
CONTINUOUS
 62
7
 10
385.053
 20
303.627
 40
17
 50
22.0204
 51
49.6198
  0
ARC
  8
Layer1
  6
CONTINUOUS
 62
7
 10
385.053
 20
303.627
 40
17
 50
359.228
 51
22.0204
  0
ARC
  8
Layer1
  6
CONTINUOUS
 62
7
 10
385.053
 20
303.627
 40
17
 50
157.98
 51
180
  0
ARC
  8
Layer1
  6
CONTINUOUS
 62
7
 10
385.053
 20
303.627
 40
16.9973
 50
130.42
 51
157.782
  0
LINE
  8
Layer1
  6
DASHED1
 62
7
 10
366.053
 20
282.055
 11
339.053
 21
282.055
  0
LINE
  8
Layer1
  6
DASHED1
 62
7
 10
368.053
 20
284.055
 11
366.053
 21
282.055
  0
LINE
  8
Layer1
  6
DASHED1
 62
7
 10
402.053
 20
284.055
 11
404.053
 21
282.055
  0
LINE
  8
Layer1
  6
CONTINUOUS
 62
7
 10
365.351
 20
312.055
 11
320.053
 21
312.055
  0
LINE
  8
Layer1
  6
DASHED1
 62
7
 10
369.053
 20
297.055
 11
369.053
 21
284.346
  0
LINE
  8
Layer1
  6
DASHED1
 62
7
 10
401.053
 20
297.055
 11
401.053
 21
284.346
  0
LINE
  8
Layer1
  6
CONTINUOUS
 62
7
 10
402.053
 20
303.398
 11
402.053
 21
297.055
  0
LINE
  8
Layer1
  6
CONTINUOUS
 62
7
 10
368.053
 20
303.627
 11
368.053
 21
297.055
  0
POLYLINE
  8
Layer1
  6
CONTINUOUS
 62
7
 66
1
 10
0
 20
0
 30
0
  0
VERTEX
  8
Layer1
 10
364.879
 20
312.055
  0
VERTEX
  8
Layer1
 10
364.803
 20
311.725
  0
VERTEX
  8
Layer1
 10
364.726
 20
311.395
  0
VERTEX
  8
Layer1
 10
364.654
 20
311.065
  0
VERTEX
  8
Layer1
 10
364.582
 20
310.735
  0
VERTEX
  8
Layer1
 10
364.515
 20
310.406
  0
VERTEX
  8
Layer1
 10
364.452
 20
310.077
  0
VERTEX
  8
Layer1
 10
364.394
 20
309.749
  0
VERTEX
  8
Layer1
 10
364.346
 20
309.422
  0
VERTEX
  8
Layer1
 10
364.302
 20
309.096
  0
VERTEX
  8
Layer1
 10
364.265
 20
308.77
  0
VERTEX
  8
Layer1
 10
364.241
 20
308.446
  0
VERTEX
  8
Layer1
 10
364.226
 20
308.123
  0
VERTEX
  8
Layer1
 10
364.221
 20
307.801
  0
VERTEX
  8
Layer1
 10
364.226
 20
307.48
  0
VERTEX
  8
Layer1
 10
364.246
 20
307.161
  0
VERTEX
  8
Layer1
 10
364.282
 20
306.843
  0
VERTEX
  8
Layer1
 10
364.331
 20
306.528
  0
VERTEX
  8
Layer1
 10
364.394
 20
306.214
  0
VERTEX
  8
Layer1
 10
364.475
 20
305.901
  0
VERTEX
  8
Layer1
 10
364.572
 20
305.591
  0
VERTEX
  8
Layer1
 10
364.683
 20
305.283
  0
VERTEX
  8
Layer1
 10
364.803
 20
304.976
  0
VERTEX
  8
Layer1
 10
364.923
 20
304.671
  0
VERTEX
  8
Layer1
 10
365.039
 20
304.366
  0
VERTEX
  8
Layer1
 10
365.144
 20
304.062
  0
VERTEX
  8
Layer1
 10
365.231
 20
303.758
  0
VERTEX
  8
Layer1
 10
365.293
 20
303.455
  0
VERTEX
  8
Layer1
 10
365.336
 20
303.151
  0
VERTEX
  8
Layer1
 10
365.351
 20
302.847
  0
VERTEX
  8
Layer1
 10
365.346
 20
302.542
  0
VERTEX
  8
Layer1
 10
365.322
 20
302.238
  0
VERTEX
  8
Layer1
 10
365.277
 20
301.934
  0
VERTEX
  8
Layer1
 10
365.215
 20
301.629
  0
VERTEX
  8
Layer1
 10
365.134
 20
301.325
  0
VERTEX
  8
Layer1
 10
365.038
 20
301.02
  0
VERTEX
  8
Layer1
 10
364.926
 20
300.715
  0
VERTEX
  8
Layer1
 10
364.801
 20
300.411
  0
VERTEX
  8
Layer1
 10
364.663
 20
300.106
  0
VERTEX
  8
Layer1
 10
364.514
 20
299.801
  0
VERTEX
  8
Layer1
 10
364.352
 20
299.496
  0
VERTEX
  8
Layer1
 10
364.183
 20
299.191
  0
VERTEX
  8
Layer1
 10
364.006
 20
298.886
  0
VERTEX
  8
Layer1
 10
363.822
 20
298.581
  0
VERTEX
  8
Layer1
 10
363.634
 20
298.276
  0
VERTEX
  8
Layer1
 10
363.439
 20
297.971
  0
VERTEX
  8
Layer1
 10
363.241
 20
297.665
  0
VERTEX
  8
Layer1
 10
363.041
 20
297.36
  0
VERTEX
  8
Layer1
 10
362.841
 20
297.055
  0
SEQEND
  0
POLYLINE
  8
Layer1
  6
CONTINUOUS
 62
7
 66
1
 10
0
 20
0
 30
0
  0
VERTEX
  8
Layer1
 10
410.517
 20
312.055
  0
VERTEX
  8
Layer1
 10
410.467
 20
311.759
  0
VERTEX
  8
Layer1
 10
410.418
 20
311.463
  0
VERTEX
  8
Layer1
 10
410.365
 20
311.168
  0
VERTEX
  8
Layer1
 10
410.311
 20
310.875
  0
VERTEX
  8
Layer1
 10
410.253
 20
310.585
  0
VERTEX
  8
Layer1
 10
410.19
 20
310.298
  0
VERTEX
  8
Layer1
 10
410.125
 20
310.015
  0
VERTEX
  8
Layer1
 10
410.053
 20
309.737
  0
VERTEX
  8
Layer1
 10
409.975
 20
309.463
  0
VERTEX
  8
Layer1
 10
409.89
 20
309.196
  0
VERTEX
  8
Layer1
 10
409.798
 20
308.935
  0
VERTEX
  8
Layer1
 10
409.696
 20
308.68
  0
VERTEX
  8
Layer1
 10
409.586
 20
308.434
  0
VERTEX
  8
Layer1
 10
409.465
 20
308.196
  0
VERTEX
  8
Layer1
 10
409.332
 20
307.967
  0
VERTEX
  8
Layer1
 10
409.188
 20
307.747
  0
VERTEX
  8
Layer1
 10
409.034
 20
307.538
  0
VERTEX
  8
Layer1
 10
408.865
 20
307.34
  0
VERTEX
  8
Layer1
 10
408.682
 20
307.153
  0
VERTEX
  8
Layer1
 10
408.484
 20
306.979
  0
VERTEX
  8
Layer1
 10
408.269
 20
306.817
  0
VERTEX
  8
Layer1
 10
408.039
 20
306.669
  0
VERTEX
  8
Layer1
 10
407.793
 20
306.535
  0
VERTEX
  8
Layer1
 10
407.534
 20
306.413
  0
VERTEX
  8
Layer1
 10
407.264
 20
306.3
  0
VERTEX
  8
Layer1
 10
406.988
 20
306.193
  0
VERTEX
  8
Layer1
 10
406.717
 20
306.088
  0
VERTEX
  8
Layer1
 10
406.448
 20
305.982
  0
VERTEX
  8
Layer1
 10
406.193
 20
305.872
  0
VERTEX
  8
Layer1
 10
405.956
 20
305.754
  0
VERTEX
  8
Layer1
 10
405.74
 20
305.625
  0
VERTEX
  8
Layer1
 10
405.548
 20
305.482
  0
VERTEX
  8
Layer1
 10
405.392
 20
305.321
  0
VERTEX
  8
Layer1
 10
405.27
 20
305.139
  0
VERTEX
  8
Layer1
 10
405.186
 20
304.938
  0
VERTEX
  8
Layer1
 10
405.13
 20
304.718
  0
VERTEX
  8
Layer1
 10
405.106
 20
304.481
  0
VERTEX
  8
Layer1
 10
405.104
 20
304.23
  0
VERTEX
  8
Layer1
 10
405.123
 20
303.967
  0
VERTEX
  8
Layer1
 10
405.159
 20
303.692
  0
VERTEX
  8
Layer1
 10
405.212
 20
303.408
  0
VERTEX
  8
Layer1
 10
405.273
 20
303.116
  0
VERTEX
  8
Layer1
 10
405.341
 20
302.819
  0
VERTEX
  8
Layer1
 10
405.41
 20
302.519
  0
VERTEX
  8
Layer1
 10
405.481
 20
302.216
  0
VERTEX
  8
Layer1
 10
405.548
 20
301.914
  0
VERTEX
  8
Layer1
 10
405.609
 20
301.613
  0
VERTEX
  8
Layer1
 10
405.657
 20
301.316
  0
VERTEX
  8
Layer1
 10
405.692
 20
301.024
  0
VERTEX
  8
Layer1
 10
405.712
 20
300.736
  0
VERTEX
  8
Layer1
 10
405.719
 20
300.454
  0
VERTEX
  8
Layer1
 10
405.717
 20
300.176
  0
VERTEX
  8
Layer1
 10
405.702
 20
299.902
  0
VERTEX
  8
Layer1
 10
405.678
 20
299.631
  0
VERTEX
  8
Layer1
 10
405.644
 20
299.364
  0
VERTEX
  8
Layer1
 10
405.601
 20
299.1
  0
VERTEX
  8
Layer1
 10
405.553
 20
298.838
  0
VERTEX
  8
Layer1
 10
405.496
 20
298.579
  0
VERTEX
  8
Layer1
 10
405.437
 20
298.322
  0
VERTEX
  8
Layer1
 10
405.37
 20
298.067
  0
VERTEX
  8
Layer1
 10
405.303
 20
297.813
  0
VERTEX
  8
Layer1
 10
405.231
 20
297.56
  0
VERTEX
  8
Layer1
 10
405.158
 20
297.307
  0
VERTEX
  8
Layer1
 10
405.082
 20
297.055
  0
SEQEND
  0
LINE
  8
Layer1
  6
DASHED1
 62
7
 10
410.517
 20
312.055
 11
364.879
 21
312.055
  0
LINE
  8
Layer1
  6
CONTINUOUS
 62
7
 10
777.241
 20
600.784
 11
778.241
 21
599.784
  0
LINE
  8
Layer1
  6
CONTINUOUS
 62
7
 10
778.241
 20
431.784
 11
777.241
 21
430.784
  0
LINE
  8
Layer1
  6
CENTER1
 62
7
 10
755.741
 20
579.468
 11
755.741
 21
567.038
  0
CIRCLE
  8
Layer1
  6
CONTINUOUS
 62
7
 10
755.741
 20
573.284
 40
4
  0
LINE
  8
Layer1
  6
CENTER1
 62
7
 10
755.741
 20
452.099
 11
755.741
 21
464.529
  0
CIRCLE
  8
Layer1
  6
CONTINUOUS
 62
7
 10
755.741
 20
458.284
 40
4
  0
TEXT
  8
Layer1
 62
7
 10
755.876
 20
326.509
 72
1
 11
755.876
 21
326.509
 40
4
 41
1
 50
20
  1
 40°
  0
ARC
  8
Layer1
  6
CONTINUOUS
 62
7
 10
777.191
 20
267.948
 40
62.3192
 50
90
 51
130
  0
TEXT
  8
Layer1
 62
7
 10
616.191
 20
322.306
 72
1
 11
616.191
 21
322.306
 40
4
 41
1
  1
 23 
  0
LINE
  8
Layer1
  6
CONTINUOUS
 62
7
 10
604.691
 20
296.249
 11
604.691
 21
323.306
  0
LINE
  8
Layer1
  6
CONTINUOUS
 62
7
 10
627.691
 20
296.249
 11
627.691
 21
323.306
  0
POLYLINE
  8
Layer1
  6
CONTINUOUS
 62
7
 66
1
 10
0
 20
0
 30
0
  0
VERTEX
  8
Layer1
 10
604.691
 20
322.306
  0
VERTEX
  8
Layer1
 10
627.691
 20
322.306
  0
SEQEND
  0
POLYLINE
  8
Layer1
  6
CONTINUOUS
 62
7
 66
1
 10
0
 20
0
 30
0
  0
VERTEX
  8
Layer1
 10
606.621
 20
321.788
  0
VERTEX
  8
Layer1
 10
604.691
 20
322.306
  0
VERTEX
  8
Layer1
 10
606.621
 20
322.824
  0
SEQEND
  0
POLYLINE
  8
Layer1
  6
CONTINUOUS
 62
7
 66
1
 10
0
 20
0
 30
0
  0
VERTEX
  8
Layer1
 10
625.76
 20
322.824
  0
VERTEX
  8
Layer1
 10
627.691
 20
322.306
  0
VERTEX
  8
Layer1
 10
625.76
 20
321.788
  0
SEQEND
  0
TEXT
  8
Layer1
 62
7
 10
641.375
 20
322.306
 72
1
 11
641.375
 21
322.306
 40
4
 41
1
  1
 4.5 
  0
LINE
  8
Layer1
  6
CONTINUOUS
 62
7
 10
632.191
 20
296.249
 11
632.191
 21
323.306
  0
POLYLINE
  8
Layer1
  6
CONTINUOUS
 62
7
 66
1
 10
0
 20
0
 30
0
  0
VERTEX
  8
Layer1
 10
622.691
 20
322.306
  0
VERTEX
  8
Layer1
 10
627.691
 20
322.306
  0
SEQEND
  0
POLYLINE
  8
Layer1
  6
CONTINUOUS
 62
7
 66
1
 10
0
 20
0
 30
0
  0
VERTEX
  8
Layer1
 10
625.76
 20
322.824
  0
VERTEX
  8
Layer1
 10
627.691
 20
322.306
  0
VERTEX
  8
Layer1
 10
625.76
 20
321.788
  0
SEQEND
  0
POLYLINE
  8
Layer1
  6
CONTINUOUS
 62
7
 66
1
 10
0
 20
0
 30
0
  0
VERTEX
  8
Layer1
 10
646.375
 20
322.306
  0
VERTEX
  8
Layer1
 10
632.191
 20
322.306
  0
SEQEND
  0
POLYLINE
  8
Layer1
  6
CONTINUOUS
 62
7
 66
1
 10
0
 20
0
 30
0
  0
VERTEX
  8
Layer1
 10
634.121
 20
321.788
  0
VERTEX
  8
Layer1
 10
632.191
 20
322.306
  0
VERTEX
  8
Layer1
 10
634.121
 20
322.824
  0
SEQEND
  0
LINE
  8
Layer1
  6
CONTINUOUS
 62
7
 10
627.691
 20
322.306
 11
632.191
 21
322.306
  0
LINE
  8
Layer1
  6
CONTINUOUS
 62
7
 10
631.191
 20
297.249
 11
632.191
 21
296.249
  0
LINE
  8
Layer1
  6
CONTINUOUS
 62
7
 10
633.191
 20
297.249
 11
752.649
 21
297.249
  0
TEXT
  8
Layer1
 62
7
 10
834.49
 20
277.532
 72
1
 11
834.49
 21
277.532
 40
4
 41
1
 50
90
  1
 115.2 
  0
LINE
  8
Layer1
  6
CONTINUOUS
 62
7
 10
776.191
 20
342.449
 11
835.49
 21
342.449
  0
LINE
  8
Layer1
  6
CONTINUOUS
 62
7
 10
776.188
 20
227.249
 11
835.49
 21
227.249
  0
POLYLINE
  8
Layer1
  6
CONTINUOUS
 62
7
 66
1
 10
0
 20
0
 30
0
  0
VERTEX
  8
Layer1
 10
834.49
 20
342.449
  0
VERTEX
  8
Layer1
 10
834.49
 20
227.249
  0
SEQEND
  0
POLYLINE
  8
Layer1
  6
CONTINUOUS
 62
7
 66
1
 10
0
 20
0
 30
0
  0
VERTEX
  8
Layer1
 10
833.972
 20
340.518
  0
VERTEX
  8
Layer1
 10
834.49
 20
342.449
  0
VERTEX
  8
Layer1
 10
835.008
 20
340.518
  0
SEQEND
  0
POLYLINE
  8
Layer1
  6
CONTINUOUS
 62
7
 66
1
 10
0
 20
0
 30
0
  0
VERTEX
  8
Layer1
 10
835.008
 20
229.181
  0
VERTEX
  8
Layer1
 10
834.49
 20
227.249
  0
VERTEX
  8
Layer1
 10
833.972
 20
229.181
  0
SEQEND
  0
TEXT
  8
Layer1
 62
7
 10
849.594
 20
299.749
 72
1
 11
849.594
 21
299.749
 40
4
 41
1
 50
90
  1
 145 
  0
LINE
  8
Layer1
  6
CONTINUOUS
 62
7
 10
776.191
 20
372.249
 11
850.594
 21
372.249
  0
LINE
  8
Layer1
  6
CONTINUOUS
 62
7
 10
834.49
 20
227.249
 11
850.594
 21
227.249
  0
POLYLINE
  8
Layer1
  6
CONTINUOUS
 62
7
 66
1
 10
0
 20
0
 30
0
  0
VERTEX
  8
Layer1
 10
849.594
 20
372.249
  0
VERTEX
  8
Layer1
 10
849.594
 20
227.249
  0
SEQEND
  0
POLYLINE
  8
Layer1
  6
CONTINUOUS
 62
7
 66
1
 10
0
 20
0
 30
0
  0
VERTEX
  8
Layer1
 10
849.076
 20
370.318
  0
VERTEX
  8
Layer1
 10
849.594
 20
372.249
  0
VERTEX
  8
Layer1
 10
850.111
 20
370.318
  0
SEQEND
  0
POLYLINE
  8
Layer1
  6
CONTINUOUS
 62
7
 66
1
 10
0
 20
0
 30
0
  0
VERTEX
  8
Layer1
 10
850.111
 20
229.181
  0
VERTEX
  8
Layer1
 10
849.594
 20
227.249
  0
VERTEX
  8
Layer1
 10
849.076
 20
229.181
  0
SEQEND
  0
TEXT
  8
Layer1
 62
7
 10
385.053
 20
211.675
 72
1
 11
385.053
 21
211.675
 40
4
 41
1
  1
 85 
  0
LINE
  8
Layer1
  6
CONTINUOUS
 62
7
 10
342.553
 20
242.32
 11
342.553
 21
210.675
  0
LINE
  8
Layer1
  6
CONTINUOUS
 62
7
 10
427.553
 20
242.857
 11
427.553
 21
210.675
  0
POLYLINE
  8
Layer1
  6
CONTINUOUS
 62
7
 66
1
 10
0
 20
0
 30
0
  0
VERTEX
  8
Layer1
 10
342.553
 20
211.675
  0
VERTEX
  8
Layer1
 10
427.553
 20
211.675
  0
SEQEND
  0
POLYLINE
  8
Layer1
  6
CONTINUOUS
 62
7
 66
1
 10
0
 20
0
 30
0
  0
VERTEX
  8
Layer1
 10
344.486
 20
211.157
  0
VERTEX
  8
Layer1
 10
342.553
 20
211.675
  0
VERTEX
  8
Layer1
 10
344.486
 20
212.192
  0
SEQEND
  0
POLYLINE
  8
Layer1
  6
CONTINUOUS
 62
7
 66
1
 10
0
 20
0
 30
0
  0
VERTEX
  8
Layer1
 10
425.621
 20
212.192
  0
VERTEX
  8
Layer1
 10
427.553
 20
211.675
  0
VERTEX
  8
Layer1
 10
425.621
 20
211.157
  0
SEQEND
  0
TEXT
  8
Layer1
 62
7
 10
385.053
 20
200.78
 72
1
 11
385.053
 21
200.78
 40
4
 41
1
  1
 100 
  0
LINE
  8
Layer1
  6
CONTINUOUS
 62
7
 10
335.053
 20
248.055
 11
335.053
 21
199.78
  0
LINE
  8
Layer1
  6
CONTINUOUS
 62
7
 10
435.053
 20
248.055
 11
435.053
 21
199.78
  0
POLYLINE
  8
Layer1
  6
CONTINUOUS
 62
7
 66
1
 10
0
 20
0
 30
0
  0
VERTEX
  8
Layer1
 10
335.053
 20
200.78
  0
VERTEX
  8
Layer1
 10
435.053
 20
200.78
  0
SEQEND
  0
POLYLINE
  8
Layer1
  6
CONTINUOUS
 62
7
 66
1
 10
0
 20
0
 30
0
  0
VERTEX
  8
Layer1
 10
336.986
 20
200.262
  0
VERTEX
  8
Layer1
 10
335.053
 20
200.78
  0
VERTEX
  8
Layer1
 10
336.986
 20
201.298
  0
SEQEND
  0
POLYLINE
  8
Layer1
  6
CONTINUOUS
 62
7
 66
1
 10
0
 20
0
 30
0
  0
VERTEX
  8
Layer1
 10
433.121
 20
201.298
  0
VERTEX
  8
Layer1
 10
435.053
 20
200.78
  0
VERTEX
  8
Layer1
 10
433.121
 20
200.262
  0
SEQEND
  0
TEXT
  8
Layer1
 62
7
 10
348.803
 20
274.564
 72
1
 11
348.803
 21
274.564
 40
4
 41
1
  1
 12.5 
  0
LINE
  8
Layer1
  6
CONTINUOUS
 62
7
 10
342.553
 20
283.109
 11
342.553
 21
273.564
  0
LINE
  8
Layer1
  6
CONTINUOUS
 62
7
 10
355.053
 20
286.72
 11
355.053
 21
273.564
  0
POLYLINE
  8
Layer1
  6
CONTINUOUS
 62
7
 66
1
 10
0
 20
0
 30
0
  0
VERTEX
  8
Layer1
 10
342.553
 20
274.564
  0
VERTEX
  8
Layer1
 10
355.053
 20
274.564
  0
SEQEND
  0
POLYLINE
  8
Layer1
  6
CONTINUOUS
 62
7
 66
1
 10
0
 20
0
 30
0
  0
VERTEX
  8
Layer1
 10
344.486
 20
274.046
  0
VERTEX
  8
Layer1
 10
342.553
 20
274.564
  0
VERTEX
  8
Layer1
 10
344.486
 20
275.082
  0
SEQEND
  0
POLYLINE
  8
Layer1
  6
CONTINUOUS
 62
7
 66
1
 10
0
 20
0
 30
0
  0
VERTEX
  8
Layer1
 10
353.122
 20
275.082
  0
VERTEX
  8
Layer1
 10
355.053
 20
274.564
  0
VERTEX
  8
Layer1
 10
353.122
 20
274.046
  0
SEQEND
  0
TEXT
  8
Layer1
 62
7
 10
503.908
 20
249.555
 72
1
 11
503.908
 21
249.555
 40
4
 41
1
 50
90
  1
 45 
  0
LINE
  8
Layer1
  6
CONTINUOUS
 62
7
 10
438.115
 20
272.055
 11
504.908
 21
272.055
  0
LINE
  8
Layer1
  6
CONTINUOUS
 62
7
 10
469.053
 20
227.055
 11
504.908
 21
227.055
  0
POLYLINE
  8
Layer1
  6
CONTINUOUS
 62
7
 66
1
 10
0
 20
0
 30
0
  0
VERTEX
  8
Layer1
 10
503.908
 20
272.055
  0
VERTEX
  8
Layer1
 10
503.908
 20
227.055
  0
SEQEND
  0
POLYLINE
  8
Layer1
  6
CONTINUOUS
 62
7
 66
1
 10
0
 20
0
 30
0
  0
VERTEX
  8
Layer1
 10
503.39
 20
270.123
  0
VERTEX
  8
Layer1
 10
503.908
 20
272.055
  0
VERTEX
  8
Layer1
 10
504.426
 20
270.123
  0
SEQEND
  0
POLYLINE
  8
Layer1
  6
CONTINUOUS
 62
7
 66
1
 10
0
 20
0
 30
0
  0
VERTEX
  8
Layer1
 10
504.426
 20
228.987
  0
VERTEX
  8
Layer1
 10
503.908
 20
227.055
  0
VERTEX
  8
Layer1
 10
503.39
 20
228.987
  0
SEQEND
  0
TEXT
  8
Layer1
 62
7
 10
516.217
 20
272.055
 72
1
 11
516.217
 21
272.055
 40
4
 41
1
 50
90
  1
 35 
  0
LINE
  8
Layer1
  6
CONTINUOUS
 62
7
 10
435.053
 20
254.555
 11
517.217
 21
254.555
  0
LINE
  8
Layer1
  6
CONTINUOUS
 62
7
 10
433.053
 20
289.555
 11
517.217
 21
289.555
  0
POLYLINE
  8
Layer1
  6
CONTINUOUS
 62
7
 66
1
 10
0
 20
0
 30
0
  0
VERTEX
  8
Layer1
 10
516.217
 20
254.555
  0
VERTEX
  8
Layer1
 10
516.217
 20
289.555
  0
SEQEND
  0
POLYLINE
  8
Layer1
  6
CONTINUOUS
 62
7
 66
1
 10
0
 20
0
 30
0
  0
VERTEX
  8
Layer1
 10
516.735
 20
256.487
  0
VERTEX
  8
Layer1
 10
516.217
 20
254.555
  0
VERTEX
  8
Layer1
 10
515.698
 20
256.487
  0
SEQEND
  0
POLYLINE
  8
Layer1
  6
CONTINUOUS
 62
7
 66
1
 10
0
 20
0
 30
0
  0
VERTEX
  8
Layer1
 10
515.698
 20
287.623
  0
VERTEX
  8
Layer1
 10
516.217
 20
289.555
  0
VERTEX
  8
Layer1
 10
516.735
 20
287.623
  0
SEQEND
  0
TEXT
  8
Layer1
 62
7
 10
527.131
 20
272.055
 72
1
 11
527.131
 21
272.055
 40
4
 41
1
 50
90
  1
 50 
  0
LINE
  8
Layer1
  6
CONTINUOUS
 62
7
 10
449.852
 20
297.055
 11
528.131
 21
297.055
  0
LINE
  8
Layer1
  6
CONTINUOUS
 62
7
 10
434.053
 20
247.055
 11
528.131
 21
247.055
  0
POLYLINE
  8
Layer1
  6
CONTINUOUS
 62
7
 66
1
 10
0
 20
0
 30
0
  0
VERTEX
  8
Layer1
 10
527.131
 20
297.055
  0
VERTEX
  8
Layer1
 10
527.131
 20
247.055
  0
SEQEND
  0
POLYLINE
  8
Layer1
  6
CONTINUOUS
 62
7
 66
1
 10
0
 20
0
 30
0
  0
VERTEX
  8
Layer1
 10
526.616
 20
295.123
  0
VERTEX
  8
Layer1
 10
527.131
 20
297.055
  0
VERTEX
  8
Layer1
 10
527.649
 20
295.123
  0
SEQEND
  0
POLYLINE
  8
Layer1
  6
CONTINUOUS
 62
7
 66
1
 10
0
 20
0
 30
0
  0
VERTEX
  8
Layer1
 10
527.649
 20
248.987
  0
VERTEX
  8
Layer1
 10
527.131
 20
247.055
  0
VERTEX
  8
Layer1
 10
526.616
 20
248.987
  0
SEQEND
  0
TEXT
  8
Layer1
 62
7
 10
540.37
 20
269.555
 72
1
 11
540.37
 21
269.555
 40
4
 41
1
 50
90
  1
 85 
  0
LINE
  8
Layer1
  6
CONTINUOUS
 62
7
 10
450.053
 20
312.055
 11
541.37
 21
312.055
  0
LINE
  8
Layer1
  6
CONTINUOUS
 62
7
 10
503.908
 20
227.055
 11
541.37
 21
227.055
  0
POLYLINE
  8
Layer1
  6
CONTINUOUS
 62
7
 66
1
 10
0
 20
0
 30
0
  0
VERTEX
  8
Layer1
 10
540.37
 20
312.055
  0
VERTEX
  8
Layer1
 10
540.37
 20
227.055
  0
SEQEND
  0
POLYLINE
  8
Layer1
  6
CONTINUOUS
 62
7
 66
1
 10
0
 20
0
 30
0
  0
VERTEX
  8
Layer1
 10
539.852
 20
310.123
  0
VERTEX
  8
Layer1
 10
540.37
 20
312.055
  0
VERTEX
  8
Layer1
 10
540.889
 20
310.123
  0
SEQEND
  0
POLYLINE
  8
Layer1
  6
CONTINUOUS
 62
7
 66
1
 10
0
 20
0
 30
0
  0
VERTEX
  8
Layer1
 10
540.889
 20
228.987
  0
VERTEX
  8
Layer1
 10
540.37
 20
227.055
  0
VERTEX
  8
Layer1
 10
539.852
 20
228.987
  0
SEQEND
  0
TEXT
  8
Layer1
 62
7
 10
766.991
 20
415.889
 72
1
 11
766.991
 21
415.889
 40
4
 41
1
  1
 22.5 
  0
LINE
  8
Layer1
  6
CONTINUOUS
 62
7
 10
755.741
 20
452.099
 11
755.741
 21
414.889
  0
LINE
  8
Layer1
  6
CONTINUOUS
 62
7
 10
778.241
 20
431.784
 11
778.241
 21
414.889
  0
POLYLINE
  8
Layer1
  6
CONTINUOUS
 62
7
 66
1
 10
0
 20
0
 30
0
  0
VERTEX
  8
Layer1
 10
755.741
 20
415.889
  0
VERTEX
  8
Layer1
 10
778.241
 20
415.889
  0
SEQEND
  0
POLYLINE
  8
Layer1
  6
CONTINUOUS
 62
7
 66
1
 10
0
 20
0
 30
0
  0
VERTEX
  8
Layer1
 10
757.673
 20
415.371
  0
VERTEX
  8
Layer1
 10
755.741
 20
415.889
  0
VERTEX
  8
Layer1
 10
757.673
 20
416.406
  0
SEQEND
  0
POLYLINE
  8
Layer1
  6
CONTINUOUS
 62
7
 66
1
 10
0
 20
0
 30
0
  0
VERTEX
  8
Layer1
 10
776.311
 20
416.406
  0
VERTEX
  8
Layer1
 10
778.241
 20
415.889
  0
VERTEX
  8
Layer1
 10
776.311
 20
415.371
  0
SEQEND
  0
TEXT
  8
Layer1
 62
7
 10
786.556
 20
403.579
 72
1
 11
786.556
 21
403.579
 40
4
 41
1
  1
 10 
  0
LINE
  8
Layer1
  6
CONTINUOUS
 62
7
 10
768.241
 20
449.784
 11
768.241
 21
402.579
  0
LINE
  8
Layer1
  6
CONTINUOUS
 62
7
 10
778.241
 20
415.889
 11
778.241
 21
402.579
  0
POLYLINE
  8
Layer1
  6
CONTINUOUS
 62
7
 66
1
 10
0
 20
0
 30
0
  0
VERTEX
  8
Layer1
 10
763.241
 20
403.579
  0
VERTEX
  8
Layer1
 10
768.241
 20
403.579
  0
SEQEND
  0
POLYLINE
  8
Layer1
  6
CONTINUOUS
 62
7
 66
1
 10
0
 20
0
 30
0
  0
VERTEX
  8
Layer1
 10
766.311
 20
404.097
  0
VERTEX
  8
Layer1
 10
768.241
 20
403.579
  0
VERTEX
  8
Layer1
 10
766.311
 20
403.062
  0
SEQEND
  0
POLYLINE
  8
Layer1
  6
CONTINUOUS
 62
7
 66
1
 10
0
 20
0
 30
0
  0
VERTEX
  8
Layer1
 10
790.556
 20
403.579
  0
VERTEX
  8
Layer1
 10
778.241
 20
403.579
  0
SEQEND
  0
POLYLINE
  8
Layer1
  6
CONTINUOUS
 62
7
 66
1
 10
0
 20
0
 30
0
  0
VERTEX
  8
Layer1
 10
780.173
 20
403.062
  0
VERTEX
  8
Layer1
 10
778.241
 20
403.579
  0
VERTEX
  8
Layer1
 10
780.173
 20
404.097
  0
SEQEND
  0
LINE
  8
Layer1
  6
CONTINUOUS
 62
7
 10
768.241
 20
403.579
 11
778.241
 21
403.579
  0
TEXT
  8
Layer1
 62
7
 10
755.741
 20
403.579
 72
1
 11
755.741
 21
403.579
 40
4
 41
1
  1
 25 
  0
LINE
  8
Layer1
  6
CONTINUOUS
 62
7
 10
743.241
 20
446.588
 11
743.241
 21
402.579
  0
POLYLINE
  8
Layer1
  6
CONTINUOUS
 62
7
 66
1
 10
0
 20
0
 30
0
  0
VERTEX
  8
Layer1
 10
768.241
 20
403.579
  0
VERTEX
  8
Layer1
 10
743.241
 20
403.579
  0
SEQEND
  0
POLYLINE
  8
Layer1
  6
CONTINUOUS
 62
7
 66
1
 10
0
 20
0
 30
0
  0
VERTEX
  8
Layer1
 10
766.311
 20
404.097
  0
VERTEX
  8
Layer1
 10
768.241
 20
403.579
  0
VERTEX
  8
Layer1
 10
766.311
 20
403.062
  0
SEQEND
  0
POLYLINE
  8
Layer1
  6
CONTINUOUS
 62
7
 66
1
 10
0
 20
0
 30
0
  0
VERTEX
  8
Layer1
 10
745.173
 20
403.062
  0
VERTEX
  8
Layer1
 10
743.241
 20
403.579
  0
VERTEX
  8
Layer1
 10
745.173
 20
404.097
  0
SEQEND
  0
TEXT
  8
Layer1
 62
7
 10
755.741
 20
392.199
 72
1
 11
755.741
 21
392.199
 40
4
 41
1
  1
 45 
  0
LINE
  8
Layer1
  6
CONTINUOUS
 62
7
 10
778.241
 20
403.579
 11
778.241
 21
391.199
  0
LINE
  8
Layer1
  6
CONTINUOUS
 62
7
 10
733.241
 20
450.784
 11
733.241
 21
391.199
  0
POLYLINE
  8
Layer1
  6
CONTINUOUS
 62
7
 66
1
 10
0
 20
0
 30
0
  0
VERTEX
  8
Layer1
 10
778.241
 20
392.199
  0
VERTEX
  8
Layer1
 10
733.241
 20
392.199
  0
SEQEND
  0
POLYLINE
  8
Layer1
  6
CONTINUOUS
 62
7
 66
1
 10
0
 20
0
 30
0
  0
VERTEX
  8
Layer1
 10
776.311
 20
392.717
  0
VERTEX
  8
Layer1
 10
778.241
 20
392.199
  0
VERTEX
  8
Layer1
 10
776.311
 20
391.681
  0
SEQEND
  0
POLYLINE
  8
Layer1
  6
CONTINUOUS
 62
7
 66
1
 10
0
 20
0
 30
0
  0
VERTEX
  8
Layer1
 10
735.173
 20
391.681
  0
VERTEX
  8
Layer1
 10
733.241
 20
392.199
  0
VERTEX
  8
Layer1
 10
735.173
 20
392.717
  0
SEQEND
  0
TEXT
  8
Layer1
 62
7
 10
826.58
 20
515.784
 72
1
 11
826.58
 21
515.784
 40
4
 41
1
 50
90
  1
 115 
  0
LINE
  8
Layer1
  6
CONTINUOUS
 62
7
 10
800.741
 20
573.283
 11
827.58
 21
573.283
  0
LINE
  8
Layer1
  6
CONTINUOUS
 62
7
 10
800.741
 20
458.283
 11
827.58
 21
458.283
  0
POLYLINE
  8
Layer1
  6
CONTINUOUS
 62
7
 66
1
 10
0
 20
0
 30
0
  0
VERTEX
  8
Layer1
 10
826.58
 20
573.284
  0
VERTEX
  8
Layer1
 10
826.58
 20
458.284
  0
SEQEND
  0
POLYLINE
  8
Layer1
  6
CONTINUOUS
 62
7
 66
1
 10
0
 20
0
 30
0
  0
VERTEX
  8
Layer1
 10
826.062
 20
571.352
  0
VERTEX
  8
Layer1
 10
826.58
 20
573.284
  0
VERTEX
  8
Layer1
 10
827.096
 20
571.352
  0
SEQEND
  0
POLYLINE
  8
Layer1
  6
CONTINUOUS
 62
7
 66
1
 10
0
 20
0
 30
0
  0
VERTEX
  8
Layer1
 10
827.096
 20
460.215
  0
VERTEX
  8
Layer1
 10
826.58
 20
458.284
  0
VERTEX
  8
Layer1
 10
826.062
 20
460.215
  0
SEQEND
  0
TEXT
  8
Layer1
 62
7
 10
850.633
 20
515.784
 72
1
 11
850.633
 21
515.784
 40
4
 41
1
 50
90
  1
 150 
  0
LINE
  8
Layer1
  6
CONTINUOUS
 62
7
 10
775.736
 20
590.784
 11
851.633
 21
590.784
  0
LINE
  8
Layer1
  6
CONTINUOUS
 62
7
 10
775.287
 20
440.784
 11
851.633
 21
440.784
  0
POLYLINE
  8
Layer1
  6
CONTINUOUS
 62
7
 66
1
 10
0
 20
0
 30
0
  0
VERTEX
  8
Layer1
 10
850.633
 20
590.784
  0
VERTEX
  8
Layer1
 10
850.633
 20
440.784
  0
SEQEND
  0
POLYLINE
  8
Layer1
  6
CONTINUOUS
 62
7
 66
1
 10
0
 20
0
 30
0
  0
VERTEX
  8
Layer1
 10
850.116
 20
588.852
  0
VERTEX
  8
Layer1
 10
850.633
 20
590.784
  0
VERTEX
  8
Layer1
 10
851.15
 20
588.852
  0
SEQEND
  0
POLYLINE
  8
Layer1
  6
CONTINUOUS
 62
7
 66
1
 10
0
 20
0
 30
0
  0
VERTEX
  8
Layer1
 10
851.15
 20
442.715
  0
VERTEX
  8
Layer1
 10
850.633
 20
440.784
  0
VERTEX
  8
Layer1
 10
850.116
 20
442.715
  0
SEQEND
  0
TEXT
  8
Layer1
 62
7
 10
863.59
 20
515.784
 72
1
 11
863.59
 21
515.784
 40
4
 41
1
 50
90
  1
 170 
  0
LINE
  8
Layer1
  6
CONTINUOUS
 62
7
 10
777.241
 20
600.784
 11
864.59
 21
600.784
  0
LINE
  8
Layer1
  6
CONTINUOUS
 62
7
 10
777.241
 20
430.784
 11
864.59
 21
430.784
  0
POLYLINE
  8
Layer1
  6
CONTINUOUS
 62
7
 66
1
 10
0
 20
0
 30
0
  0
VERTEX
  8
Layer1
 10
863.59
 20
600.784
  0
VERTEX
  8
Layer1
 10
863.59
 20
430.784
  0
SEQEND
  0
POLYLINE
  8
Layer1
  6
CONTINUOUS
 62
7
 66
1
 10
0
 20
0
 30
0
  0
VERTEX
  8
Layer1
 10
863.07
 20
598.852
  0
VERTEX
  8
Layer1
 10
863.59
 20
600.784
  0
VERTEX
  8
Layer1
 10
864.1
 20
598.852
  0
SEQEND
  0
POLYLINE
  8
Layer1
  6
CONTINUOUS
 62
7
 66
1
 10
0
 20
0
 30
0
  0
VERTEX
  8
Layer1
 10
864.1
 20
432.715
  0
VERTEX
  8
Layer1
 10
863.59
 20
430.784
  0
VERTEX
  8
Layer1
 10
863.07
 20
432.715
  0
SEQEND
  0
TEXT
  8
Layer1
 62
7
 10
675.743
 20
624.576
 72
1
 11
675.743
 21
624.576
 40
4
 41
1
  1
 60 
  0
LINE
  8
Layer1
  6
CONTINUOUS
 62
7
 10
645.743
 20
602.811
 11
645.743
 21
625.576
  0
LINE
  8
Layer1
  6
CONTINUOUS
 62
7
 10
705.743
 20
599.569
 11
705.743
 21
625.576
  0
POLYLINE
  8
Layer1
  6
CONTINUOUS
 62
7
 66
1
 10
0
 20
0
 30
0
  0
VERTEX
  8
Layer1
 10
645.743
 20
624.576
  0
VERTEX
  8
Layer1
 10
705.743
 20
624.576
  0
SEQEND
  0
POLYLINE
  8
Layer1
  6
CONTINUOUS
 62
7
 66
1
 10
0
 20
0
 30
0
  0
VERTEX
  8
Layer1
 10
647.673
 20
624.059
  0
VERTEX
  8
Layer1
 10
645.743
 20
624.576
  0
VERTEX
  8
Layer1
 10
647.673
 20
625.094
  0
SEQEND
  0
POLYLINE
  8
Layer1
  6
CONTINUOUS
 62
7
 66
1
 10
0
 20
0
 30
0
  0
VERTEX
  8
Layer1
 10
703.811
 20
625.094
  0
VERTEX
  8
Layer1
 10
705.743
 20
624.576
  0
VERTEX
  8
Layer1
 10
703.811
 20
624.059
  0
SEQEND
  0
TEXT
  8
Layer1
 62
7
 10
735.743
 20
624.576
 72
1
 11
735.743
 21
624.576
 40
4
 41
1
  1
 60 
  0
LINE
  8
Layer1
  6
CONTINUOUS
 62
7
 10
765.743
 20
598.319
 11
765.743
 21
625.576
  0
POLYLINE
  8
Layer1
  6
CONTINUOUS
 62
7
 66
1
 10
0
 20
0
 30
0
  0
VERTEX
  8
Layer1
 10
705.743
 20
624.576
  0
VERTEX
  8
Layer1
 10
765.743
 20
624.576
  0
SEQEND
  0
POLYLINE
  8
Layer1
  6
CONTINUOUS
 62
7
 66
1
 10
0
 20
0
 30
0
  0
VERTEX
  8
Layer1
 10
707.673
 20
624.059
  0
VERTEX
  8
Layer1
 10
705.743
 20
624.576
  0
VERTEX
  8
Layer1
 10
707.673
 20
625.094
  0
SEQEND
  0
POLYLINE
  8
Layer1
  6
CONTINUOUS
 62
7
 66
1
 10
0
 20
0
 30
0
  0
VERTEX
  8
Layer1
 10
763.811
 20
625.094
  0
VERTEX
  8
Layer1
 10
765.743
 20
624.576
  0
VERTEX
  8
Layer1
 10
763.811
 20
624.059
  0
SEQEND
  0
TEXT
  8
Layer1
 62
7
 10
705.741
 20
637.22
 72
1
 11
705.741
 21
637.22
 40
4
 41
1
  1
 145 
  0
LINE
  8
Layer1
  6
CONTINUOUS
 62
7
 10
633.243
 20
599.784
 11
633.243
 21
638.22
  0
LINE
  8
Layer1
  6
CONTINUOUS
 62
7
 10
778.241
 20
599.784
 11
778.241
 21
638.22
  0
POLYLINE
  8
Layer1
  6
CONTINUOUS
 62
7
 66
1
 10
0
 20
0
 30
0
  0
VERTEX
  8
Layer1
 10
633.243
 20
637.22
  0
VERTEX
  8
Layer1
 10
778.241
 20
637.22
  0
SEQEND
  0
POLYLINE
  8
Layer1
  6
CONTINUOUS
 62
7
 66
1
 10
0
 20
0
 30
0
  0
VERTEX
  8
Layer1
 10
635.173
 20
636.703
  0
VERTEX
  8
Layer1
 10
633.243
 20
637.22
  0
VERTEX
  8
Layer1
 10
635.173
 20
637.738
  0
SEQEND
  0
POLYLINE
  8
Layer1
  6
CONTINUOUS
 62
7
 66
1
 10
0
 20
0
 30
0
  0
VERTEX
  8
Layer1
 10
776.311
 20
637.738
  0
VERTEX
  8
Layer1
 10
778.241
 20
637.22
  0
VERTEX
  8
Layer1
 10
776.311
 20
636.703
  0
SEQEND
  0
TEXT
  8
Layer1
 62
7
 10
592.077
 20
227.556
 72
1
 11
592.077
 21
227.556
 40
4
 41
1
  1
25
  0
LINE
  8
Layer1
  6
CENTER1
 62
7
 10
754.691
 20
376.39
 11
754.691
 21
287.58
  0
LINE
  8
Layer1
  6
CENTER1
 62
7
 10
675.741
 20
584.049
 11
675.741
 21
597.398
  0
CIRCLE
  8
Layer1
  6
CONTINUOUS
 62
7
 10
675.741
 20
590.784
 40
4
  0
LINE
  8
Layer1
  6
CENTER1
 62
7
 10
675.741
 20
447.313
 11
675.741
 21
433.963
  0
CIRCLE
  8
Layer1
  6
CONTINUOUS
 62
7
 10
675.741
 20
440.784
 40
4
  0
TEXT
  8
Layer1
 62
7
 10
726.991
 20
615.633
 72
1
 11
726.991
 21
615.633
 40
4
 41
1
  1
 102.5 
  0
LINE
  8
Layer1
  6
CONTINUOUS
 62
7
 10
675.741
 20
598.554
 11
675.741
 21
616.868
  0
LINE
  8
Layer1
  6
CONTINUOUS
 62
7
 10
778.241
 20
614.599
 11
778.241
 21
616.633
  0
POLYLINE
  8
Layer1
  6
CONTINUOUS
 62
7
 66
1
 10
0
 20
0
 30
0
  0
VERTEX
  8
Layer1
 10
675.743
 20
615.633
  0
VERTEX
  8
Layer1
 10
778.241
 20
615.633
  0
SEQEND
  0
POLYLINE
  8
Layer1
  6
CONTINUOUS
 62
7
 66
1
 10
0
 20
0
 30
0
  0
VERTEX
  8
Layer1
 10
677.673
 20
615.115
  0
VERTEX
  8
Layer1
 10
675.743
 20
615.633
  0
VERTEX
  8
Layer1
 10
677.673
 20
616.15
  0
SEQEND
  0
POLYLINE
  8
Layer1
  6
CONTINUOUS
 62
7
 66
1
 10
0
 20
0
 30
0
  0
VERTEX
  8
Layer1
 10
776.311
 20
616.15
  0
VERTEX
  8
Layer1
 10
778.241
 20
615.633
  0
VERTEX
  8
Layer1
 10
776.311
 20
615.115
  0
SEQEND
  0
TEXT
  8
Layer1
 62
7
 10
771.991
 20
624.576
 72
1
 11
771.991
 21
624.576
 40
4
 41
1
  1
 12.5 
  0
LINE
  8
Layer1
  6
CONTINUOUS
 62
7
 10
778.241
 20
623.806
 11
778.241
 21
625.576
  0
POLYLINE
  8
Layer1
  6
CONTINUOUS
 62
7
 66
1
 10
0
 20
0
 30
0
  0
VERTEX
  8
Layer1
 10
765.743
 20
624.576
  0
VERTEX
  8
Layer1
 10
778.241
 20
624.576
  0
SEQEND
  0
POLYLINE
  8
Layer1
  6
CONTINUOUS
 62
7
 66
1
 10
0
 20
0
 30
0
  0
VERTEX
  8
Layer1
 10
767.673
 20
624.059
  0
VERTEX
  8
Layer1
 10
765.743
 20
624.576
  0
VERTEX
  8
Layer1
 10
767.673
 20
625.094
  0
SEQEND
  0
POLYLINE
  8
Layer1
  6
CONTINUOUS
 62
7
 66
1
 10
0
 20
0
 30
0
  0
VERTEX
  8
Layer1
 10
776.311
 20
625.094
  0
VERTEX
  8
Layer1
 10
778.241
 20
624.576
  0
VERTEX
  8
Layer1
 10
776.311
 20
624.059
  0
SEQEND
  0
POLYLINE
  8
Layer1
  6
CONTINUOUS
 62
7
 66
1
 10
0
 20
0
 30
0
 70
1
  0
VERTEX
  8
Layer1
 10
644.243
 20
576.714
  0
VERTEX
  8
Layer1
 10
641.272
 20
574.999
  0
VERTEX
  8
Layer1
 10
641.272
 20
571.569
  0
VERTEX
  8
Layer1
 10
644.243
 20
569.854
  0
VERTEX
  8
Layer1
 10
647.212
 20
571.569
  0
VERTEX
  8
Layer1
 10
647.212
 20
574.999
  0
SEQEND
  0
POLYLINE
  8
Layer1
  6
CONTINUOUS
 62
7
 66
1
 10
0
 20
0
 30
0
 70
1
  0
VERTEX
  8
Layer1
 10
682.243
 20
576.714
  0
VERTEX
  8
Layer1
 10
679.272
 20
574.999
  0
VERTEX
  8
Layer1
 10
679.272
 20
571.569
  0
VERTEX
  8
Layer1
 10
682.243
 20
569.854
  0
VERTEX
  8
Layer1
 10
685.212
 20
571.569
  0
VERTEX
  8
Layer1
 10
685.212
 20
574.999
  0
SEQEND
  0
POLYLINE
  8
Layer1
  6
CONTINUOUS
 62
7
 66
1
 10
0
 20
0
 30
0
 70
1
  0
VERTEX
  8
Layer1
 10
720.243
 20
576.714
  0
VERTEX
  8
Layer1
 10
717.272
 20
574.999
  0
VERTEX
  8
Layer1
 10
717.272
 20
571.569
  0
VERTEX
  8
Layer1
 10
720.243
 20
569.854
  0
VERTEX
  8
Layer1
 10
723.212
 20
571.569
  0
VERTEX
  8
Layer1
 10
723.212
 20
574.999
  0
SEQEND
  0
POLYLINE
  8
Layer1
  6
CONTINUOUS
 62
7
 66
1
 10
0
 20
0
 30
0
 70
1
  0
VERTEX
  8
Layer1
 10
644.188
 20
461.714
  0
VERTEX
  8
Layer1
 10
641.217
 20
459.999
  0
VERTEX
  8
Layer1
 10
641.217
 20
456.569
  0
VERTEX
  8
Layer1
 10
644.188
 20
454.854
  0
VERTEX
  8
Layer1
 10
647.159
 20
456.569
  0
VERTEX
  8
Layer1
 10
647.159
 20
459.999
  0
SEQEND
  0
POLYLINE
  8
Layer1
  6
CONTINUOUS
 62
7
 66
1
 10
0
 20
0
 30
0
 70
1
  0
VERTEX
  8
Layer1
 10
682.188
 20
461.714
  0
VERTEX
  8
Layer1
 10
679.217
 20
459.999
  0
VERTEX
  8
Layer1
 10
679.217
 20
456.569
  0
VERTEX
  8
Layer1
 10
682.188
 20
454.854
  0
VERTEX
  8
Layer1
 10
685.159
 20
456.569
  0
VERTEX
  8
Layer1
 10
685.159
 20
459.999
  0
SEQEND
  0
POLYLINE
  8
Layer1
  6
CONTINUOUS
 62
7
 66
1
 10
0
 20
0
 30
0
 70
1
  0
VERTEX
  8
Layer1
 10
720.188
 20
461.714
  0
VERTEX
  8
Layer1
 10
717.217
 20
459.999
  0
VERTEX
  8
Layer1
 10
717.217
 20
456.569
  0
VERTEX
  8
Layer1
 10
720.188
 20
454.854
  0
VERTEX
  8
Layer1
 10
723.159
 20
456.569
  0
VERTEX
  8
Layer1
 10
723.159
 20
459.999
  0
SEQEND
  0
POLYLINE
  8
Layer1
  6
CONTINUOUS
 62
7
 66
1
 10
0
 20
0
 30
0
  0
VERTEX
  8
Layer1
 10
673.006
 20
437.864
  0
VERTEX
  8
Layer1
 10
643.774
 20
406.382
  0
SEQEND
  0
POLYLINE
  8
Layer1
  6
CONTINUOUS
 62
7
 66
1
 10
0
 20
0
 30
0
  0
VERTEX
  8
Layer1
 10
671.313
 20
436.801
  0
VERTEX
  8
Layer1
 10
673.006
 20
437.864
  0
VERTEX
  8
Layer1
 10
672.072
 20
436.096
  0
SEQEND
  0
LINE
  8
Layer1
  6
CONTINUOUS
 62
7
 10
643.774
 20
406.382
 11
591.774
 21
406.382
  0
TEXT
  8
Layer1
 62
7
 10
591.774
 20
406.382
 40
8
 41
1
  1
2-φ8ノック穴
  0
POLYLINE
  8
Layer1
  6
CONTINUOUS
 62
7
 66
1
 10
0
 20
0
 30
0
  0
VERTEX
  8
Layer1
 10
758.66
 20
455.58
  0
VERTEX
  8
Layer1
 10
837.248
 20
411.104
  0
SEQEND
  0
POLYLINE
  8
Layer1
  6
CONTINUOUS
 62
7
 66
1
 10
0
 20
0
 30
0
  0
VERTEX
  8
Layer1
 10
760.087
 20
454.178
  0
VERTEX
  8
Layer1
 10
758.66
 20
455.58
  0
VERTEX
  8
Layer1
 10
760.597
 20
455.079
  0
SEQEND
  0
LINE
  8
Layer1
  6
CONTINUOUS
 62
7
 10
837.248
 20
411.104
 11
889.25
 21
411.104
  0
TEXT
  8
Layer1
 62
7
 10
889.25
 20
411.104
 72
2
 11
889.25
 21
411.104
 40
8
 41
1
  1
2-φ8ノック穴
  0
TEXT
  8
Layer1
 62
7
 10
820.4
 20
519.829
 73
3
 11
820.4
 21
519.829
 40
4
 41
1
 50
90
  1
±0.02(ノック穴)
  0
TEXT
  8
Layer1
 62
7
 10
844.524
 20
519.829
 73
3
 11
844.524
 21
519.829
 40
4
 41
1
 50
90
  1
±0.02(ノック穴)
  0
TEXT
  8
Layer1
 62
7
 10
734.278
 20
620.33
 73
3
 11
734.278
 21
620.33
 40
4
 41
1
 50
2.03555e-013
  1
±0.02(ノック穴)
  0
TEXT
  8
Layer1
 62
7
 10
771.383
 20
422.114
 73
3
 11
771.383
 21
422.114
 40
4
 41
1
 50
2.03555e-013
  1
±0.02(ノック穴)
  0
LINE
  8
Layer1
  6
CONTINUOUS
 62
7
 10
684.743
 20
304.228
 11
684.743
 21
303.212
  0
LINE
  8
Layer1
  6
CONTINUOUS
 62
7
 10
679.743
 20
304.172
 11
679.743
 21
303.212
  0
LINE
  8
Layer1
  6
CONTINUOUS
 62
7
 10
679.243
 20
311.412
 11
685.2
 21
311.412
  0
LINE
  8
Layer1
  6
CENTER1
 62
7
 10
682.243
 20
508.095
 11
682.243
 21
525.786
  0
TEXT
  8
Layer1
 62
7
 10
350.796
 20
508.872
 73
3
 11
350.796
 21
508.872
 40
10
 41
1
  1
N-EMCR-50-100-25
  0
LINE
  8
Layer1
  6
CONTINUOUS
 62
7
 10
343.791
 20
512.764
 11
343.791
 21
495.324
  0
LINE
  8
Layer1
  6
CONTINUOUS
 62
7
 10
343.791
 20
495.324
 11
437.962
 21
495.324
  0
LINE
  8
Layer1
  6
CONTINUOUS
 62
7
 10
437.962
 20
512.764
 11
437.962
 21
495.324
  0
LINE
  8
Layer1
  6
CONTINUOUS
 62
7
 10
343.791
 20
512.764
 11
437.962
 21
512.764
  0
LINE
  8
Layer1
  6
CONTINUOUS
 62
7
 10
374.038
 20
321.577
 11
337.053
 21
321.577
  0
ENDSEC
  0
EOF
