  0
SECTION
  2
HEADER
  9
$EXTMIN
 10
0
 20
0
  9
$EXTMAX
 10
1189
 20
841
  9
$LTSCALE
 40
1
  9
$LIMMIN
 10
0
 20
0
  9
$LIMMAX
 10
1189
 20
841
  9
$DIMSCALE
 40
1
  0
ENDSEC
  0
SECTION
  2
TABLES
  0
TABLE
  2
LTYPE
 70
9
  0
LTYPE
  2
CONTINUOUS
 70
64
  3
----------
 72
65
 73
0
 40
0
  0
LTYPE
  2
DASHED1
 70
64
  3
--  --  --  --  --  --  --  --  
 72
65
 73
2
 40
2.5
 49
1.25
 49
-1.25
  0
LTYPE
  2
DASHED2
 70
64
  3
----    ----    ----    ----    
 72
65
 73
2
 40
5
 49
2.5
 49
-2.5
  0
LTYPE
  2
DASHED3
 70
64
  3
------  ------  ------  ------  
 72
65
 73
2
 40
5
 49
3.75
 49
-1.25
  0
LTYPE
  2
CENTER1
 70
64
  3
----- - ----- - ----- - ----- - 
 72
65
 73
4
 40
7.5
 49
3.75
 49
-1.25
 49
1.25
 49
-1.25
  0
LTYPE
  2
CENTER2
 70
64
  3
----------  --  ----------  --  
 72
65
 73
4
 40
13.75
 49
6.25
 49
-2.5
 49
2.5
 49
-2.5
  0
LTYPE
  2
PHANTOM1
 70
64
  3
--- - - --- - - --- - - --- - - 
 72
65
 73
6
 40
9.5
 49
3.25
 49
-1.25
 49
1.25
 49
-1.25
 49
1.25
 49
-1.25
  0
LTYPE
  2
PHANTOM2
 70
64
  3
--------  -  -  --------  -  -  
 72
65
 73
6
 40
18
 49
8
 49
-2.5
 49
1.25
 49
-2.5
 49
1.25
 49
-2.5
  0
LTYPE
  2
DOT
 70
64
  3
-   -   -   -   -   -   -   -   
 72
65
 73
2
 40
2.5
 49
0.625
 49
-1.875
  0
LTYPE
  2
HOJO
 70
64
  3
-   -   -   -   -   -   -   -   
 72
65
 73
2
 40
2.5
 49
0.625
 49
-1.875
  0
ENDTAB
  0
TABLE
  2
STYLE
 70
2
  0
STYLE
  2
STANDARD
 70
64
 40
0
 41
1
 42
0
 50
0
 71
0
  3
TXT
  4
BIGFONT
  0
STYLE
  2
TATEGAKI
 70
68
 40
0
 41
1
 42
0
 50
0
 71
0
  3
TXT
  4
EXTFONT
  0
ENDTAB
  0
TABLE
  2
LAYER
 70
1
  0
LAYER
  2
Layer2
 70
64
 62
7
  6
CONTINUOUS
  0
ENDTAB
  0
ENDSEC
  0
SECTION
  2
ENTITIES
  0
LINE
  8
Layer2
  6
CONTINUOUS
 62
7
 10
440.232
 20
223.878
 11
304.232
 21
223.878
  0
LINE
  8
Layer2
  6
CONTINUOUS
 62
7
 10
304.232
 20
246.878
 11
321.732
 21
246.878
  0
LINE
  8
Layer2
  6
CENTER1
 62
7
 10
339.429
 20
283.878
 11
405.273
 21
283.878
  0
LINE
  8
Layer2
  6
CONTINUOUS
 62
7
 10
325.732
 20
321.378
 11
418.732
 21
321.378
  0
LINE
  8
Layer2
  6
CONTINUOUS
 62
7
 10
418.732
 20
337.378
 11
325.732
 21
337.378
  0
LINE
  8
Layer2
  6
CONTINUOUS
 62
7
 10
441.232
 20
245.878
 11
441.232
 21
224.878
  0
LINE
  8
Layer2
  6
CONTINUOUS
 62
7
 10
303.232
 20
224.878
 11
303.232
 21
245.878
  0
LINE
  8
Layer2
  6
CENTER1
 62
7
 10
372.232
 20
218.066
 11
372.232
 21
419.309
  0
LINE
  8
Layer2
  6
CONTINUOUS
 62
7
 10
324.732
 20
322.378
 11
324.732
 21
336.378
  0
LINE
  8
Layer2
  6
CONTINUOUS
 62
7
 10
419.732
 20
322.378
 11
419.732
 21
336.378
  0
LINE
  8
Layer2
  6
CONTINUOUS
 62
7
 10
397.232
 20
246.378
 11
397.232
 21
320.378
  0
LINE
  8
Layer2
  6
CONTINUOUS
 62
7
 10
347.232
 20
246.378
 11
347.232
 21
320.378
  0
LINE
  8
Layer2
  6
CONTINUOUS
 62
7
 10
324.732
 20
320.378
 11
324.732
 21
249.878
  0
LINE
  8
Layer2
  6
CONTINUOUS
 62
7
 10
419.732
 20
320.378
 11
419.732
 21
249.878
  0
LINE
  8
Layer2
  6
CONTINUOUS
 62
7
 10
347.232
 20
246.378
 11
397.232
 21
246.378
  0
LINE
  8
Layer2
  6
CONTINUOUS
 62
7
 10
440.232
 20
246.878
 11
422.732
 21
246.878
  0
ARC
  8
Layer2
  6
CONTINUOUS
 62
7
 10
321.732
 20
249.878
 40
3
 50
270
 51
2.03555e-013
  0
ARC
  8
Layer2
  6
CONTINUOUS
 62
7
 10
422.732
 20
249.878
 40
3
 50
180
 51
270
  0
LINE
  8
Layer2
  6
CONTINUOUS
 62
7
 10
324.732
 20
336.378
 11
325.732
 21
337.378
  0
LINE
  8
Layer2
  6
CONTINUOUS
 62
7
 10
418.732
 20
337.378
 11
419.732
 21
336.378
  0
LINE
  8
Layer2
  6
CONTINUOUS
 62
7
 10
419.732
 20
322.378
 11
418.732
 21
321.378
  0
LINE
  8
Layer2
  6
CONTINUOUS
 62
7
 10
418.732
 20
321.378
 11
419.732
 21
320.378
  0
LINE
  8
Layer2
  6
CONTINUOUS
 62
7
 10
398.232
 20
321.378
 11
397.232
 21
320.378
  0
LINE
  8
Layer2
  6
CONTINUOUS
 62
7
 10
325.732
 20
321.378
 11
324.732
 21
320.378
  0
LINE
  8
Layer2
  6
CONTINUOUS
 62
7
 10
346.232
 20
321.378
 11
347.232
 21
320.378
  0
LINE
  8
Layer2
  6
CONTINUOUS
 62
7
 10
396.232
 20
321.378
 11
397.232
 21
320.378
  0
LINE
  8
Layer2
  6
CONTINUOUS
 62
7
 10
347.232
 20
320.378
 11
348.232
 21
321.378
  0
LINE
  8
Layer2
  6
CONTINUOUS
 62
7
 10
325.732
 20
321.378
 11
324.732
 21
322.378
  0
LINE
  8
Layer2
  6
CONTINUOUS
 62
7
 10
304.232
 20
246.878
 11
303.232
 21
245.878
  0
LINE
  8
Layer2
  6
CONTINUOUS
 62
7
 10
303.232
 20
224.878
 11
304.232
 21
223.878
  0
LINE
  8
Layer2
  6
CONTINUOUS
 62
7
 10
440.232
 20
223.878
 11
441.232
 21
224.878
  0
LINE
  8
Layer2
  6
CONTINUOUS
 62
7
 10
441.232
 20
245.878
 11
440.232
 21
246.878
  0
LINE
  8
Layer2
  6
CONTINUOUS
 62
7
 10
396.232
 20
246.378
 11
397.232
 21
247.378
  0
LINE
  8
Layer2
  6
CONTINUOUS
 62
7
 10
348.232
 20
246.378
 11
347.232
 21
247.378
  0
LINE
  8
Layer2
  6
CENTER1
 62
7
 10
408.232
 20
419.369
 11
408.232
 21
393.984
  0
LINE
  8
Layer2
  6
CENTER1
 62
7
 10
336.232
 20
418.176
 11
336.232
 21
394.169
  0
LINE
  8
Layer2
  6
CONTINUOUS
 62
7
 10
418.732
 20
414.478
 11
325.732
 21
414.478
  0
LINE
  8
Layer2
  6
CONTINUOUS
 62
7
 10
325.732
 20
398.478
 11
344.232
 21
398.478
  0
LINE
  8
Layer2
  6
DASHED1
 62
7
 10
349.232
 20
299.478
 11
363.232
 21
299.478
  0
LINE
  8
Layer2
  6
CONTINUOUS
 62
7
 10
419.732
 20
399.478
 11
419.732
 21
413.478
  0
LINE
  8
Layer2
  6
CONTINUOUS
 62
7
 10
324.732
 20
399.478
 11
324.732
 21
413.478
  0
LINE
  8
Layer2
  6
CONTINUOUS
 62
7
 10
324.732
 20
413.478
 11
325.732
 21
414.478
  0
LINE
  8
Layer2
  6
CONTINUOUS
 62
7
 10
418.732
 20
414.478
 11
419.732
 21
413.478
  0
LINE
  8
Layer2
  6
CONTINUOUS
 62
7
 10
419.732
 20
399.478
 11
418.732
 21
398.478
  0
LINE
  8
Layer2
  6
CONTINUOUS
 62
7
 10
324.732
 20
399.478
 11
325.732
 21
398.478
  0
LINE
  8
Layer2
  6
DASHED1
 62
7
 10
397.232
 20
301.478
 11
397.232
 21
337.378
  0
LINE
  8
Layer2
  6
DASHED1
 62
7
 10
347.232
 20
301.478
 11
347.232
 21
337.378
  0
LINE
  8
Layer2
  6
CONTINUOUS
 62
7
 10
400.232
 20
398.478
 11
418.732
 21
398.478
  0
ARC
  8
Layer2
  6
CONTINUOUS
 62
7
 10
344.232
 20
395.478
 40
3
 50
0
 51
90
  0
ARC
  8
Layer2
  6
CONTINUOUS
 62
7
 10
400.232
 20
395.478
 40
3
 50
90
 51
180
  0
LINE
  8
Layer2
  6
CONTINUOUS
 62
7
 10
347.232
 20
337.378
 11
347.232
 21
395.478
  0
LINE
  8
Layer2
  6
CONTINUOUS
 62
7
 10
397.232
 20
337.378
 11
397.232
 21
395.478
  0
LINE
  8
Layer2
  6
DASHED1
 62
7
 10
397.232
 20
301.478
 11
395.232
 21
299.478
  0
LINE
  8
Layer2
  6
DASHED1
 62
7
 10
349.232
 20
299.478
 11
347.232
 21
301.478
  0
LINE
  8
Layer2
  6
CONTINUOUS
 62
7
 10
664.684
 20
337.378
 11
664.684
 21
331.193
  0
LINE
  8
Layer2
  6
CONTINUOUS
 62
7
 10
659.684
 20
337.378
 11
659.684
 21
331.138
  0
LINE
  8
Layer2
  6
CONTINUOUS
 62
7
 10
659.143
 20
337.378
 11
659.143
 21
331.506
  0
LINE
  8
Layer2
  6
CONTINUOUS
 62
7
 10
665.184
 20
337.378
 11
665.184
 21
331.506
  0
LINE
  8
Layer2
  6
CONTINUOUS
 62
7
 10
368.289
 20
344.145
 11
376.134
 21
344.145
  0
LINE
  8
Layer2
  6
CONTINUOUS
 62
7
 10
367.961
 20
343.542
 11
376.435
 21
343.542
  0
LINE
  8
Layer2
  6
CONTINUOUS
 62
7
 10
367.866
 20
340.162
 11
376.315
 21
340.162
  0
LINE
  8
Layer2
  6
CONTINUOUS
 62
7
 10
377.039
 20
339.438
 11
367.142
 21
339.438
  0
LINE
  8
Layer2
  6
CONTINUOUS
 62
7
 10
377.039
 20
339.438
 11
377.039
 21
337.567
  0
LINE
  8
Layer2
  6
CONTINUOUS
 62
7
 10
367.142
 20
339.438
 11
367.142
 21
337.567
  0
POLYLINE
  8
Layer2
  6
CONTINUOUS
 62
7
 66
1
 10
0
 20
0
 30
0
  0
VERTEX
  8
Layer2
 10
372.084
 20
341.359
  0
VERTEX
  8
Layer2
 10
372.018
 20
341.416
  0
VERTEX
  8
Layer2
 10
371.952
 20
341.471
  0
VERTEX
  8
Layer2
 10
371.883
 20
341.524
  0
VERTEX
  8
Layer2
 10
371.814
 20
341.576
  0
VERTEX
  8
Layer2
 10
371.743
 20
341.626
  0
VERTEX
  8
Layer2
 10
371.671
 20
341.674
  0
VERTEX
  8
Layer2
 10
371.598
 20
341.721
  0
VERTEX
  8
Layer2
 10
371.523
 20
341.765
  0
VERTEX
  8
Layer2
 10
371.447
 20
341.807
  0
VERTEX
  8
Layer2
 10
371.371
 20
341.848
  0
VERTEX
  8
Layer2
 10
371.293
 20
341.886
  0
VERTEX
  8
Layer2
 10
371.214
 20
341.923
  0
VERTEX
  8
Layer2
 10
371.135
 20
341.957
  0
VERTEX
  8
Layer2
 10
371.054
 20
341.989
  0
VERTEX
  8
Layer2
 10
370.973
 20
342.019
  0
VERTEX
  8
Layer2
 10
370.891
 20
342.047
  0
VERTEX
  8
Layer2
 10
370.808
 20
342.073
  0
VERTEX
  8
Layer2
 10
370.725
 20
342.097
  0
VERTEX
  8
Layer2
 10
370.641
 20
342.119
  0
VERTEX
  8
Layer2
 10
370.556
 20
342.138
  0
VERTEX
  8
Layer2
 10
370.471
 20
342.156
  0
VERTEX
  8
Layer2
 10
370.386
 20
342.171
  0
VERTEX
  8
Layer2
 10
370.3
 20
342.183
  0
VERTEX
  8
Layer2
 10
370.214
 20
342.194
  0
VERTEX
  8
Layer2
 10
370.128
 20
342.202
  0
VERTEX
  8
Layer2
 10
370.041
 20
342.209
  0
VERTEX
  8
Layer2
 10
369.955
 20
342.212
  0
VERTEX
  8
Layer2
 10
369.868
 20
342.214
  0
VERTEX
  8
Layer2
 10
369.781
 20
342.214
  0
VERTEX
  8
Layer2
 10
369.694
 20
342.211
  0
VERTEX
  8
Layer2
 10
369.608
 20
342.206
  0
VERTEX
  8
Layer2
 10
369.521
 20
342.198
  0
VERTEX
  8
Layer2
 10
369.435
 20
342.189
  0
VERTEX
  8
Layer2
 10
369.349
 20
342.177
  0
VERTEX
  8
Layer2
 10
369.264
 20
342.163
  0
VERTEX
  8
Layer2
 10
369.179
 20
342.147
  0
VERTEX
  8
Layer2
 10
369.094
 20
342.129
  0
VERTEX
  8
Layer2
 10
369.01
 20
342.108
  0
VERTEX
  8
Layer2
 10
368.926
 20
342.085
  0
VERTEX
  8
Layer2
 10
368.843
 20
342.06
  0
VERTEX
  8
Layer2
 10
368.761
 20
342.033
  0
VERTEX
  8
Layer2
 10
368.679
 20
342.004
  0
VERTEX
  8
Layer2
 10
368.598
 20
341.973
  0
VERTEX
  8
Layer2
 10
368.518
 20
341.94
  0
VERTEX
  8
Layer2
 10
368.439
 20
341.904
  0
VERTEX
  8
Layer2
 10
368.361
 20
341.867
  0
VERTEX
  8
Layer2
 10
368.283
 20
341.827
  0
VERTEX
  8
Layer2
 10
368.207
 20
341.786
  0
SEQEND
  0
POLYLINE
  8
Layer2
  6
CONTINUOUS
 62
7
 66
1
 10
0
 20
0
 30
0
  0
VERTEX
  8
Layer2
 10
376.436
 20
341.731
  0
VERTEX
  8
Layer2
 10
376.349
 20
341.767
  0
VERTEX
  8
Layer2
 10
376.26
 20
341.8
  0
VERTEX
  8
Layer2
 10
376.172
 20
341.833
  0
VERTEX
  8
Layer2
 10
376.082
 20
341.863
  0
VERTEX
  8
Layer2
 10
375.992
 20
341.891
  0
VERTEX
  8
Layer2
 10
375.902
 20
341.918
  0
VERTEX
  8
Layer2
 10
375.81
 20
341.943
  0
VERTEX
  8
Layer2
 10
375.719
 20
341.966
  0
VERTEX
  8
Layer2
 10
375.627
 20
341.987
  0
VERTEX
  8
Layer2
 10
375.534
 20
342.006
  0
VERTEX
  8
Layer2
 10
375.442
 20
342.024
  0
VERTEX
  8
Layer2
 10
375.348
 20
342.039
  0
VERTEX
  8
Layer2
 10
375.255
 20
342.053
  0
VERTEX
  8
Layer2
 10
375.161
 20
342.065
  0
VERTEX
  8
Layer2
 10
375.067
 20
342.075
  0
VERTEX
  8
Layer2
 10
374.973
 20
342.083
  0
VERTEX
  8
Layer2
 10
374.879
 20
342.089
  0
VERTEX
  8
Layer2
 10
374.785
 20
342.094
  0
VERTEX
  8
Layer2
 10
374.69
 20
342.096
  0
VERTEX
  8
Layer2
 10
374.596
 20
342.097
  0
VERTEX
  8
Layer2
 10
374.502
 20
342.095
  0
VERTEX
  8
Layer2
 10
374.407
 20
342.092
  0
VERTEX
  8
Layer2
 10
374.313
 20
342.087
  0
VERTEX
  8
Layer2
 10
374.219
 20
342.08
  0
VERTEX
  8
Layer2
 10
374.125
 20
342.071
  0
VERTEX
  8
Layer2
 10
374.031
 20
342.061
  0
VERTEX
  8
Layer2
 10
373.937
 20
342.048
  0
VERTEX
  8
Layer2
 10
373.844
 20
342.034
  0
VERTEX
  8
Layer2
 10
373.751
 20
342.017
  0
VERTEX
  8
Layer2
 10
373.658
 20
341.999
  0
VERTEX
  8
Layer2
 10
373.566
 20
341.979
  0
VERTEX
  8
Layer2
 10
373.474
 20
341.957
  0
VERTEX
  8
Layer2
 10
373.383
 20
341.933
  0
VERTEX
  8
Layer2
 10
373.292
 20
341.908
  0
VERTEX
  8
Layer2
 10
373.201
 20
341.881
  0
VERTEX
  8
Layer2
 10
373.112
 20
341.851
  0
VERTEX
  8
Layer2
 10
373.022
 20
341.821
  0
VERTEX
  8
Layer2
 10
372.934
 20
341.788
  0
VERTEX
  8
Layer2
 10
372.846
 20
341.753
  0
VERTEX
  8
Layer2
 10
372.759
 20
341.717
  0
VERTEX
  8
Layer2
 10
372.672
 20
341.679
  0
VERTEX
  8
Layer2
 10
372.586
 20
341.639
  0
VERTEX
  8
Layer2
 10
372.502
 20
341.598
  0
VERTEX
  8
Layer2
 10
372.418
 20
341.555
  0
VERTEX
  8
Layer2
 10
372.334
 20
341.51
  0
VERTEX
  8
Layer2
 10
372.252
 20
341.464
  0
VERTEX
  8
Layer2
 10
372.171
 20
341.416
  0
VERTEX
  8
Layer2
 10
372.091
 20
341.366
  0
SEQEND
  0
LINE
  8
Layer2
  6
CONTINUOUS
 62
7
 10
368.553
 20
341.955
 11
368.219
 21
341.765
  0
LINE
  8
Layer2
  6
CONTINUOUS
 62
7
 10
368.289
 20
344.145
 11
367.429
 21
342.562
  0
LINE
  8
Layer2
  6
CONTINUOUS
 62
7
 10
376.134
 20
344.145
 11
377.021
 21
342.33
  0
LINE
  8
Layer2
  6
CONTINUOUS
 62
7
 10
375.952
 20
341.875
 11
376.436
 21
341.731
  0
POLYLINE
  8
Layer2
  6
CONTINUOUS
 62
7
 66
1
 10
0
 20
0
 30
0
  0
VERTEX
  8
Layer2
 10
367.429
 20
342.562
  0
VERTEX
  8
Layer2
 10
367.414
 20
342.534
  0
VERTEX
  8
Layer2
 10
367.401
 20
342.505
  0
VERTEX
  8
Layer2
 10
367.389
 20
342.476
  0
VERTEX
  8
Layer2
 10
367.378
 20
342.446
  0
VERTEX
  8
Layer2
 10
367.37
 20
342.416
  0
VERTEX
  8
Layer2
 10
367.362
 20
342.385
  0
VERTEX
  8
Layer2
 10
367.357
 20
342.354
  0
VERTEX
  8
Layer2
 10
367.353
 20
342.322
  0
VERTEX
  8
Layer2
 10
367.351
 20
342.291
  0
VERTEX
  8
Layer2
 10
367.351
 20
342.259
  0
VERTEX
  8
Layer2
 10
367.352
 20
342.228
  0
VERTEX
  8
Layer2
 10
367.356
 20
342.196
  0
VERTEX
  8
Layer2
 10
367.36
 20
342.165
  0
VERTEX
  8
Layer2
 10
367.367
 20
342.134
  0
VERTEX
  8
Layer2
 10
367.375
 20
342.103
  0
VERTEX
  8
Layer2
 10
367.385
 20
342.073
  0
VERTEX
  8
Layer2
 10
367.397
 20
342.044
  0
VERTEX
  8
Layer2
 10
367.41
 20
342.015
  0
VERTEX
  8
Layer2
 10
367.424
 20
341.987
  0
VERTEX
  8
Layer2
 10
367.441
 20
341.96
  0
VERTEX
  8
Layer2
 10
367.458
 20
341.933
  0
VERTEX
  8
Layer2
 10
367.477
 20
341.908
  0
VERTEX
  8
Layer2
 10
367.498
 20
341.884
  0
VERTEX
  8
Layer2
 10
367.519
 20
341.861
  0
VERTEX
  8
Layer2
 10
367.542
 20
341.839
  0
VERTEX
  8
Layer2
 10
367.566
 20
341.818
  0
VERTEX
  8
Layer2
 10
367.591
 20
341.799
  0
VERTEX
  8
Layer2
 10
367.617
 20
341.781
  0
VERTEX
  8
Layer2
 10
367.644
 20
341.765
  0
VERTEX
  8
Layer2
 10
367.672
 20
341.75
  0
VERTEX
  8
Layer2
 10
367.701
 20
341.737
  0
VERTEX
  8
Layer2
 10
367.73
 20
341.725
  0
VERTEX
  8
Layer2
 10
367.76
 20
341.715
  0
VERTEX
  8
Layer2
 10
367.791
 20
341.706
  0
VERTEX
  8
Layer2
 10
367.822
 20
341.699
  0
VERTEX
  8
Layer2
 10
367.853
 20
341.694
  0
VERTEX
  8
Layer2
 10
367.884
 20
341.691
  0
VERTEX
  8
Layer2
 10
367.916
 20
341.689
  0
VERTEX
  8
Layer2
 10
367.947
 20
341.689
  0
VERTEX
  8
Layer2
 10
367.979
 20
341.691
  0
VERTEX
  8
Layer2
 10
368.01
 20
341.694
  0
VERTEX
  8
Layer2
 10
368.042
 20
341.699
  0
VERTEX
  8
Layer2
 10
368.073
 20
341.706
  0
VERTEX
  8
Layer2
 10
368.103
 20
341.715
  0
VERTEX
  8
Layer2
 10
368.133
 20
341.725
  0
VERTEX
  8
Layer2
 10
368.162
 20
341.736
  0
VERTEX
  8
Layer2
 10
368.191
 20
341.75
  0
VERTEX
  8
Layer2
 10
368.219
 20
341.765
  0
SEQEND
  0
POLYLINE
  8
Layer2
  6
CONTINUOUS
 62
7
 66
1
 10
0
 20
0
 30
0
  0
VERTEX
  8
Layer2
 10
376.436
 20
341.731
  0
VERTEX
  8
Layer2
 10
376.457
 20
341.725
  0
VERTEX
  8
Layer2
 10
376.478
 20
341.721
  0
VERTEX
  8
Layer2
 10
376.499
 20
341.717
  0
VERTEX
  8
Layer2
 10
376.52
 20
341.714
  0
VERTEX
  8
Layer2
 10
376.541
 20
341.712
  0
VERTEX
  8
Layer2
 10
376.563
 20
341.712
  0
VERTEX
  8
Layer2
 10
376.584
 20
341.712
  0
VERTEX
  8
Layer2
 10
376.605
 20
341.713
  0
VERTEX
  8
Layer2
 10
376.627
 20
341.715
  0
VERTEX
  8
Layer2
 10
376.648
 20
341.718
  0
VERTEX
  8
Layer2
 10
376.669
 20
341.722
  0
VERTEX
  8
Layer2
 10
376.69
 20
341.727
  0
VERTEX
  8
Layer2
 10
376.71
 20
341.733
  0
VERTEX
  8
Layer2
 10
376.731
 20
341.739
  0
VERTEX
  8
Layer2
 10
376.751
 20
341.747
  0
VERTEX
  8
Layer2
 10
376.77
 20
341.756
  0
VERTEX
  8
Layer2
 10
376.789
 20
341.765
  0
VERTEX
  8
Layer2
 10
376.808
 20
341.775
  0
VERTEX
  8
Layer2
 10
376.826
 20
341.787
  0
VERTEX
  8
Layer2
 10
376.844
 20
341.798
  0
VERTEX
  8
Layer2
 10
376.861
 20
341.811
  0
VERTEX
  8
Layer2
 10
376.878
 20
341.825
  0
VERTEX
  8
Layer2
 10
376.894
 20
341.839
  0
VERTEX
  8
Layer2
 10
376.909
 20
341.854
  0
VERTEX
  8
Layer2
 10
376.924
 20
341.87
  0
VERTEX
  8
Layer2
 10
376.938
 20
341.886
  0
VERTEX
  8
Layer2
 10
376.951
 20
341.903
  0
VERTEX
  8
Layer2
 10
376.963
 20
341.92
  0
VERTEX
  8
Layer2
 10
376.975
 20
341.938
  0
VERTEX
  8
Layer2
 10
376.986
 20
341.957
  0
VERTEX
  8
Layer2
 10
376.995
 20
341.976
  0
VERTEX
  8
Layer2
 10
377.004
 20
341.995
  0
VERTEX
  8
Layer2
 10
377.013
 20
342.015
  0
VERTEX
  8
Layer2
 10
377.02
 20
342.035
  0
VERTEX
  8
Layer2
 10
377.026
 20
342.056
  0
VERTEX
  8
Layer2
 10
377.031
 20
342.076
  0
VERTEX
  8
Layer2
 10
377.036
 20
342.097
  0
VERTEX
  8
Layer2
 10
377.039
 20
342.118
  0
VERTEX
  8
Layer2
 10
377.042
 20
342.14
  0
VERTEX
  8
Layer2
 10
377.043
 20
342.161
  0
VERTEX
  8
Layer2
 10
377.044
 20
342.182
  0
VERTEX
  8
Layer2
 10
377.044
 20
342.204
  0
VERTEX
  8
Layer2
 10
377.042
 20
342.225
  0
VERTEX
  8
Layer2
 10
377.04
 20
342.246
  0
VERTEX
  8
Layer2
 10
377.037
 20
342.268
  0
VERTEX
  8
Layer2
 10
377.032
 20
342.289
  0
VERTEX
  8
Layer2
 10
377.027
 20
342.309
  0
VERTEX
  8
Layer2
 10
377.021
 20
342.33
  0
SEQEND
  0
LINE
  8
Layer2
  6
CONTINUOUS
 62
7
 10
375.158
 20
342.065
 11
375.158
 21
340.162
  0
LINE
  8
Layer2
  6
CONTINUOUS
 62
7
 10
369.013
 20
342.109
 11
369.013
 21
340.162
  0
LINE
  8
Layer2
  6
CONTINUOUS
 62
7
 10
367.866
 20
340.162
 11
367.142
 21
339.438
  0
LINE
  8
Layer2
  6
CONTINUOUS
 62
7
 10
376.315
 20
340.162
 11
377.039
 21
339.438
  0
LINE
  8
Layer2
  6
CONTINUOUS
 62
7
 10
657.822
 20
346.548
 11
666.725
 21
346.548
  0
LINE
  8
Layer2
  6
CONTINUOUS
 62
7
 10
657.822
 20
344.233
 11
665.656
 21
344.233
  0
LINE
  8
Layer2
  6
CONTINUOUS
 62
7
 10
666.725
 20
346.548
 11
668.149
 21
344.886
  0
LINE
  8
Layer2
  6
CONTINUOUS
 62
7
 10
668.149
 20
344.233
 11
668.149
 21
344.886
  0
POLYLINE
  8
Layer2
  6
CONTINUOUS
 62
7
 66
1
 10
0
 20
0
 30
0
  0
VERTEX
  8
Layer2
 10
665.656
 20
344.233
  0
VERTEX
  8
Layer2
 10
665.658
 20
344.151
  0
VERTEX
  8
Layer2
 10
665.665
 20
344.069
  0
VERTEX
  8
Layer2
 10
665.678
 20
343.988
  0
VERTEX
  8
Layer2
 10
665.696
 20
343.908
  0
VERTEX
  8
Layer2
 10
665.719
 20
343.829
  0
VERTEX
  8
Layer2
 10
665.748
 20
343.752
  0
VERTEX
  8
Layer2
 10
665.781
 20
343.677
  0
VERTEX
  8
Layer2
 10
665.819
 20
343.604
  0
VERTEX
  8
Layer2
 10
665.862
 20
343.534
  0
VERTEX
  8
Layer2
 10
665.909
 20
343.467
  0
VERTEX
  8
Layer2
 10
665.961
 20
343.403
  0
VERTEX
  8
Layer2
 10
666.017
 20
343.343
  0
VERTEX
  8
Layer2
 10
666.077
 20
343.287
  0
VERTEX
  8
Layer2
 10
666.14
 20
343.234
  0
VERTEX
  8
Layer2
 10
666.206
 20
343.186
  0
VERTEX
  8
Layer2
 10
666.276
 20
343.143
  0
VERTEX
  8
Layer2
 10
666.348
 20
343.104
  0
VERTEX
  8
Layer2
 10
666.423
 20
343.07
  0
VERTEX
  8
Layer2
 10
666.5
 20
343.041
  0
VERTEX
  8
Layer2
 10
666.578
 20
343.017
  0
VERTEX
  8
Layer2
 10
666.658
 20
342.998
  0
VERTEX
  8
Layer2
 10
666.739
 20
342.984
  0
VERTEX
  8
Layer2
 10
666.821
 20
342.976
  0
VERTEX
  8
Layer2
 10
666.903
 20
342.974
  0
VERTEX
  8
Layer2
 10
666.985
 20
342.976
  0
VERTEX
  8
Layer2
 10
667.066
 20
342.984
  0
VERTEX
  8
Layer2
 10
667.147
 20
342.998
  0
VERTEX
  8
Layer2
 10
667.227
 20
343.017
  0
VERTEX
  8
Layer2
 10
667.306
 20
343.041
  0
VERTEX
  8
Layer2
 10
667.383
 20
343.07
  0
VERTEX
  8
Layer2
 10
667.457
 20
343.104
  0
VERTEX
  8
Layer2
 10
667.53
 20
343.143
  0
VERTEX
  8
Layer2
 10
667.599
 20
343.186
  0
VERTEX
  8
Layer2
 10
667.666
 20
343.234
  0
VERTEX
  8
Layer2
 10
667.729
 20
343.287
  0
VERTEX
  8
Layer2
 10
667.789
 20
343.343
  0
VERTEX
  8
Layer2
 10
667.844
 20
343.403
  0
VERTEX
  8
Layer2
 10
667.896
 20
343.467
  0
VERTEX
  8
Layer2
 10
667.944
 20
343.534
  0
VERTEX
  8
Layer2
 10
667.986
 20
343.604
  0
VERTEX
  8
Layer2
 10
668.025
 20
343.677
  0
VERTEX
  8
Layer2
 10
668.058
 20
343.752
  0
VERTEX
  8
Layer2
 10
668.086
 20
343.829
  0
VERTEX
  8
Layer2
 10
668.109
 20
343.908
  0
VERTEX
  8
Layer2
 10
668.127
 20
343.988
  0
VERTEX
  8
Layer2
 10
668.14
 20
344.069
  0
VERTEX
  8
Layer2
 10
668.147
 20
344.151
  0
VERTEX
  8
Layer2
 10
668.149
 20
344.233
  0
SEQEND
  0
LINE
  8
Layer2
  6
CONTINUOUS
 62
7
 10
657.822
 20
346.548
 11
655.408
 21
344.019
  0
LINE
  8
Layer2
  6
CONTINUOUS
 62
7
 10
657.822
 20
344.233
 11
656.397
 21
342.986
  0
POLYLINE
  8
Layer2
  6
CONTINUOUS
 62
7
 66
1
 10
0
 20
0
 30
0
  0
VERTEX
  8
Layer2
 10
655.408
 20
344.019
  0
VERTEX
  8
Layer2
 10
655.378
 20
343.985
  0
VERTEX
  8
Layer2
 10
655.35
 20
343.95
  0
VERTEX
  8
Layer2
 10
655.324
 20
343.912
  0
VERTEX
  8
Layer2
 10
655.301
 20
343.873
  0
VERTEX
  8
Layer2
 10
655.28
 20
343.833
  0
VERTEX
  8
Layer2
 10
655.262
 20
343.791
  0
VERTEX
  8
Layer2
 10
655.246
 20
343.748
  0
VERTEX
  8
Layer2
 10
655.233
 20
343.705
  0
VERTEX
  8
Layer2
 10
655.223
 20
343.66
  0
VERTEX
  8
Layer2
 10
655.216
 20
343.615
  0
VERTEX
  8
Layer2
 10
655.212
 20
343.57
  0
VERTEX
  8
Layer2
 10
655.211
 20
343.524
  0
VERTEX
  8
Layer2
 10
655.212
 20
343.479
  0
VERTEX
  8
Layer2
 10
655.216
 20
343.434
  0
VERTEX
  8
Layer2
 10
655.224
 20
343.389
  0
VERTEX
  8
Layer2
 10
655.234
 20
343.344
  0
VERTEX
  8
Layer2
 10
655.247
 20
343.301
  0
VERTEX
  8
Layer2
 10
655.262
 20
343.258
  0
VERTEX
  8
Layer2
 10
655.28
 20
343.216
  0
VERTEX
  8
Layer2
 10
655.301
 20
343.176
  0
VERTEX
  8
Layer2
 10
655.325
 20
343.137
  0
VERTEX
  8
Layer2
 10
655.351
 20
343.1
  0
VERTEX
  8
Layer2
 10
655.379
 20
343.064
  0
VERTEX
  8
Layer2
 10
655.409
 20
343.03
  0
VERTEX
  8
Layer2
 10
655.442
 20
342.998
  0
VERTEX
  8
Layer2
 10
655.476
 20
342.969
  0
VERTEX
  8
Layer2
 10
655.512
 20
342.941
  0
VERTEX
  8
Layer2
 10
655.55
 20
342.916
  0
VERTEX
  8
Layer2
 10
655.59
 20
342.893
  0
VERTEX
  8
Layer2
 10
655.631
 20
342.873
  0
VERTEX
  8
Layer2
 10
655.673
 20
342.856
  0
VERTEX
  8
Layer2
 10
655.716
 20
342.841
  0
VERTEX
  8
Layer2
 10
655.76
 20
342.829
  0
VERTEX
  8
Layer2
 10
655.804
 20
342.82
  0
VERTEX
  8
Layer2
 10
655.849
 20
342.814
  0
VERTEX
  8
Layer2
 10
655.895
 20
342.81
  0
VERTEX
  8
Layer2
 10
655.94
 20
342.81
  0
VERTEX
  8
Layer2
 10
655.986
 20
342.812
  0
VERTEX
  8
Layer2
 10
656.031
 20
342.817
  0
VERTEX
  8
Layer2
 10
656.076
 20
342.825
  0
VERTEX
  8
Layer2
 10
656.12
 20
342.836
  0
VERTEX
  8
Layer2
 10
656.163
 20
342.85
  0
VERTEX
  8
Layer2
 10
656.206
 20
342.866
  0
VERTEX
  8
Layer2
 10
656.247
 20
342.885
  0
VERTEX
  8
Layer2
 10
656.287
 20
342.907
  0
VERTEX
  8
Layer2
 10
656.325
 20
342.931
  0
VERTEX
  8
Layer2
 10
656.362
 20
342.958
  0
VERTEX
  8
Layer2
 10
656.397
 20
342.986
  0
SEQEND
  0
LINE
  8
Layer2
  6
CONTINUOUS
 62
7
 10
659.143
 20
344.233
 11
659.143
 21
341.11
  0
LINE
  8
Layer2
  6
CONTINUOUS
 62
7
 10
665.053
 20
344.233
 11
665.053
 21
341.11
  0
LINE
  8
Layer2
  6
CONTINUOUS
 62
7
 10
659.949
 20
330.957
 11
664.337
 21
330.957
  0
LINE
  8
Layer2
  6
CONTINUOUS
 62
7
 10
659.143
 20
331.506
 11
665.143
 21
331.506
  0
LINE
  8
Layer2
  6
CONTINUOUS
 62
7
 10
659.949
 20
330.957
 11
659.143
 21
331.506
  0
LINE
  8
Layer2
  6
CONTINUOUS
 62
7
 10
664.337
 20
330.957
 11
665.143
 21
331.506
  0
LINE
  8
Layer2
  6
CONTINUOUS
 62
7
 10
667.254
 20
337.378
 11
667.254
 21
340.465
  0
LINE
  8
Layer2
  6
CONTINUOUS
 62
7
 10
667.254
 20
340.465
 11
666.135
 21
341.11
  0
LINE
  8
Layer2
  6
CONTINUOUS
 62
7
 10
666.135
 20
341.11
 11
658.233
 21
341.11
  0
LINE
  8
Layer2
  6
CONTINUOUS
 62
7
 10
658.233
 20
341.11
 11
657.115
 21
340.465
  0
LINE
  8
Layer2
  6
CONTINUOUS
 62
7
 10
657.115
 20
340.465
 11
657.115
 21
337.378
  0
LINE
  8
Layer2
  6
CONTINUOUS
 62
7
 10
664.719
 20
337.378
 11
664.719
 21
340.465
  0
LINE
  8
Layer2
  6
CONTINUOUS
 62
7
 10
659.65
 20
337.378
 11
659.65
 21
340.465
  0
POLYLINE
  8
Layer2
  6
CONTINUOUS
 62
7
 66
1
 10
0
 20
0
 30
0
  0
VERTEX
  8
Layer2
 10
664.719
 20
340.464
  0
VERTEX
  8
Layer2
 10
664.617
 20
340.496
  0
VERTEX
  8
Layer2
 10
664.514
 20
340.526
  0
VERTEX
  8
Layer2
 10
664.41
 20
340.556
  0
VERTEX
  8
Layer2
 10
664.307
 20
340.583
  0
VERTEX
  8
Layer2
 10
664.203
 20
340.61
  0
VERTEX
  8
Layer2
 10
664.099
 20
340.635
  0
VERTEX
  8
Layer2
 10
663.994
 20
340.659
  0
VERTEX
  8
Layer2
 10
663.889
 20
340.681
  0
VERTEX
  8
Layer2
 10
663.784
 20
340.702
  0
VERTEX
  8
Layer2
 10
663.678
 20
340.722
  0
VERTEX
  8
Layer2
 10
663.573
 20
340.741
  0
VERTEX
  8
Layer2
 10
663.467
 20
340.758
  0
VERTEX
  8
Layer2
 10
663.361
 20
340.773
  0
VERTEX
  8
Layer2
 10
663.254
 20
340.788
  0
VERTEX
  8
Layer2
 10
663.148
 20
340.801
  0
VERTEX
  8
Layer2
 10
663.041
 20
340.812
  0
VERTEX
  8
Layer2
 10
662.934
 20
340.823
  0
VERTEX
  8
Layer2
 10
662.827
 20
340.832
  0
VERTEX
  8
Layer2
 10
662.72
 20
340.839
  0
VERTEX
  8
Layer2
 10
662.613
 20
340.845
  0
VERTEX
  8
Layer2
 10
662.506
 20
340.85
  0
VERTEX
  8
Layer2
 10
662.399
 20
340.854
  0
VERTEX
  8
Layer2
 10
662.292
 20
340.856
  0
VERTEX
  8
Layer2
 10
662.184
 20
340.856
  0
VERTEX
  8
Layer2
 10
662.077
 20
340.856
  0
VERTEX
  8
Layer2
 10
661.97
 20
340.854
  0
VERTEX
  8
Layer2
 10
661.862
 20
340.85
  0
VERTEX
  8
Layer2
 10
661.755
 20
340.845
  0
VERTEX
  8
Layer2
 10
661.648
 20
340.839
  0
VERTEX
  8
Layer2
 10
661.541
 20
340.832
  0
VERTEX
  8
Layer2
 10
661.434
 20
340.823
  0
VERTEX
  8
Layer2
 10
661.327
 20
340.812
  0
VERTEX
  8
Layer2
 10
661.221
 20
340.801
  0
VERTEX
  8
Layer2
 10
661.114
 20
340.788
  0
VERTEX
  8
Layer2
 10
661.008
 20
340.773
  0
VERTEX
  8
Layer2
 10
660.902
 20
340.758
  0
VERTEX
  8
Layer2
 10
660.796
 20
340.741
  0
VERTEX
  8
Layer2
 10
660.69
 20
340.722
  0
VERTEX
  8
Layer2
 10
660.585
 20
340.702
  0
VERTEX
  8
Layer2
 10
660.48
 20
340.681
  0
VERTEX
  8
Layer2
 10
660.375
 20
340.659
  0
VERTEX
  8
Layer2
 10
660.27
 20
340.635
  0
VERTEX
  8
Layer2
 10
660.166
 20
340.61
  0
VERTEX
  8
Layer2
 10
660.062
 20
340.583
  0
VERTEX
  8
Layer2
 10
659.958
 20
340.556
  0
VERTEX
  8
Layer2
 10
659.855
 20
340.526
  0
VERTEX
  8
Layer2
 10
659.752
 20
340.496
  0
VERTEX
  8
Layer2
 10
659.649
 20
340.464
  0
SEQEND
  0
POLYLINE
  8
Layer2
  6
CONTINUOUS
 62
7
 66
1
 10
0
 20
0
 30
0
  0
VERTEX
  8
Layer2
 10
667.254
 20
340.464
  0
VERTEX
  8
Layer2
 10
667.207
 20
340.495
  0
VERTEX
  8
Layer2
 10
667.16
 20
340.525
  0
VERTEX
  8
Layer2
 10
667.111
 20
340.554
  0
VERTEX
  8
Layer2
 10
667.062
 20
340.582
  0
VERTEX
  8
Layer2
 10
667.013
 20
340.608
  0
VERTEX
  8
Layer2
 10
666.963
 20
340.633
  0
VERTEX
  8
Layer2
 10
666.912
 20
340.657
  0
VERTEX
  8
Layer2
 10
666.86
 20
340.679
  0
VERTEX
  8
Layer2
 10
666.808
 20
340.7
  0
VERTEX
  8
Layer2
 10
666.756
 20
340.72
  0
VERTEX
  8
Layer2
 10
666.703
 20
340.739
  0
VERTEX
  8
Layer2
 10
666.65
 20
340.756
  0
VERTEX
  8
Layer2
 10
666.596
 20
340.772
  0
VERTEX
  8
Layer2
 10
666.542
 20
340.787
  0
VERTEX
  8
Layer2
 10
666.487
 20
340.8
  0
VERTEX
  8
Layer2
 10
666.432
 20
340.812
  0
VERTEX
  8
Layer2
 10
666.377
 20
340.822
  0
VERTEX
  8
Layer2
 10
666.322
 20
340.831
  0
VERTEX
  8
Layer2
 10
666.266
 20
340.839
  0
VERTEX
  8
Layer2
 10
666.21
 20
340.845
  0
VERTEX
  8
Layer2
 10
666.154
 20
340.85
  0
VERTEX
  8
Layer2
 10
666.098
 20
340.854
  0
VERTEX
  8
Layer2
 10
666.042
 20
340.856
  0
VERTEX
  8
Layer2
 10
665.986
 20
340.856
  0
VERTEX
  8
Layer2
 10
665.93
 20
340.856
  0
VERTEX
  8
Layer2
 10
665.874
 20
340.854
  0
VERTEX
  8
Layer2
 10
665.818
 20
340.85
  0
VERTEX
  8
Layer2
 10
665.762
 20
340.845
  0
VERTEX
  8
Layer2
 10
665.706
 20
340.839
  0
VERTEX
  8
Layer2
 10
665.651
 20
340.831
  0
VERTEX
  8
Layer2
 10
665.595
 20
340.822
  0
VERTEX
  8
Layer2
 10
665.54
 20
340.812
  0
VERTEX
  8
Layer2
 10
665.485
 20
340.8
  0
VERTEX
  8
Layer2
 10
665.431
 20
340.787
  0
VERTEX
  8
Layer2
 10
665.377
 20
340.772
  0
VERTEX
  8
Layer2
 10
665.323
 20
340.756
  0
VERTEX
  8
Layer2
 10
665.269
 20
340.739
  0
VERTEX
  8
Layer2
 10
665.216
 20
340.72
  0
VERTEX
  8
Layer2
 10
665.164
 20
340.7
  0
VERTEX
  8
Layer2
 10
665.112
 20
340.679
  0
VERTEX
  8
Layer2
 10
665.061
 20
340.657
  0
VERTEX
  8
Layer2
 10
665.01
 20
340.633
  0
VERTEX
  8
Layer2
 10
664.96
 20
340.608
  0
VERTEX
  8
Layer2
 10
664.91
 20
340.582
  0
VERTEX
  8
Layer2
 10
664.861
 20
340.554
  0
VERTEX
  8
Layer2
 10
664.813
 20
340.525
  0
VERTEX
  8
Layer2
 10
664.765
 20
340.495
  0
VERTEX
  8
Layer2
 10
664.719
 20
340.464
  0
SEQEND
  0
POLYLINE
  8
Layer2
  6
CONTINUOUS
 62
7
 66
1
 10
0
 20
0
 30
0
  0
VERTEX
  8
Layer2
 10
659.65
 20
340.464
  0
VERTEX
  8
Layer2
 10
659.603
 20
340.495
  0
VERTEX
  8
Layer2
 10
659.556
 20
340.525
  0
VERTEX
  8
Layer2
 10
659.508
 20
340.554
  0
VERTEX
  8
Layer2
 10
659.459
 20
340.582
  0
VERTEX
  8
Layer2
 10
659.409
 20
340.608
  0
VERTEX
  8
Layer2
 10
659.359
 20
340.633
  0
VERTEX
  8
Layer2
 10
659.308
 20
340.657
  0
VERTEX
  8
Layer2
 10
659.257
 20
340.679
  0
VERTEX
  8
Layer2
 10
659.205
 20
340.7
  0
VERTEX
  8
Layer2
 10
659.152
 20
340.72
  0
VERTEX
  8
Layer2
 10
659.099
 20
340.739
  0
VERTEX
  8
Layer2
 10
659.046
 20
340.756
  0
VERTEX
  8
Layer2
 10
658.992
 20
340.772
  0
VERTEX
  8
Layer2
 10
658.938
 20
340.787
  0
VERTEX
  8
Layer2
 10
658.883
 20
340.8
  0
VERTEX
  8
Layer2
 10
658.828
 20
340.812
  0
VERTEX
  8
Layer2
 10
658.773
 20
340.822
  0
VERTEX
  8
Layer2
 10
658.718
 20
340.831
  0
VERTEX
  8
Layer2
 10
658.662
 20
340.839
  0
VERTEX
  8
Layer2
 10
658.606
 20
340.845
  0
VERTEX
  8
Layer2
 10
658.551
 20
340.85
  0
VERTEX
  8
Layer2
 10
658.495
 20
340.854
  0
VERTEX
  8
Layer2
 10
658.438
 20
340.856
  0
VERTEX
  8
Layer2
 10
658.382
 20
340.856
  0
VERTEX
  8
Layer2
 10
658.326
 20
340.856
  0
VERTEX
  8
Layer2
 10
658.27
 20
340.854
  0
VERTEX
  8
Layer2
 10
658.214
 20
340.85
  0
VERTEX
  8
Layer2
 10
658.158
 20
340.845
  0
VERTEX
  8
Layer2
 10
658.102
 20
340.839
  0
VERTEX
  8
Layer2
 10
658.047
 20
340.831
  0
VERTEX
  8
Layer2
 10
657.991
 20
340.822
  0
VERTEX
  8
Layer2
 10
657.936
 20
340.812
  0
VERTEX
  8
Layer2
 10
657.882
 20
340.8
  0
VERTEX
  8
Layer2
 10
657.827
 20
340.787
  0
VERTEX
  8
Layer2
 10
657.773
 20
340.772
  0
VERTEX
  8
Layer2
 10
657.719
 20
340.756
  0
VERTEX
  8
Layer2
 10
657.666
 20
340.739
  0
VERTEX
  8
Layer2
 10
657.613
 20
340.72
  0
VERTEX
  8
Layer2
 10
657.56
 20
340.7
  0
VERTEX
  8
Layer2
 10
657.508
 20
340.679
  0
VERTEX
  8
Layer2
 10
657.457
 20
340.657
  0
VERTEX
  8
Layer2
 10
657.406
 20
340.633
  0
VERTEX
  8
Layer2
 10
657.356
 20
340.608
  0
VERTEX
  8
Layer2
 10
657.306
 20
340.582
  0
VERTEX
  8
Layer2
 10
657.257
 20
340.554
  0
VERTEX
  8
Layer2
 10
657.209
 20
340.525
  0
VERTEX
  8
Layer2
 10
657.162
 20
340.495
  0
VERTEX
  8
Layer2
 10
657.115
 20
340.464
  0
SEQEND
  0
POLYLINE
  8
Layer2
  6
CONTINUOUS
 62
7
 66
1
 10
0
 20
0
 30
0
 70
1
  0
VERTEX
  8
Layer2
 10
667.449
 20
344.22
  0
VERTEX
  8
Layer2
 10
667.444
 20
344.291
  0
VERTEX
  8
Layer2
 10
667.43
 20
344.361
  0
VERTEX
  8
Layer2
 10
667.407
 20
344.429
  0
VERTEX
  8
Layer2
 10
667.376
 20
344.493
  0
VERTEX
  8
Layer2
 10
667.336
 20
344.553
  0
VERTEX
  8
Layer2
 10
667.289
 20
344.606
  0
VERTEX
  8
Layer2
 10
667.235
 20
344.653
  0
VERTEX
  8
Layer2
 10
667.176
 20
344.693
  0
VERTEX
  8
Layer2
 10
667.112
 20
344.725
  0
VERTEX
  8
Layer2
 10
667.044
 20
344.748
  0
VERTEX
  8
Layer2
 10
666.974
 20
344.761
  0
VERTEX
  8
Layer2
 10
666.903
 20
344.766
  0
VERTEX
  8
Layer2
 10
666.831
 20
344.761
  0
VERTEX
  8
Layer2
 10
666.761
 20
344.748
  0
VERTEX
  8
Layer2
 10
666.694
 20
344.725
  0
VERTEX
  8
Layer2
 10
666.63
 20
344.693
  0
VERTEX
  8
Layer2
 10
666.57
 20
344.653
  0
VERTEX
  8
Layer2
 10
666.517
 20
344.606
  0
VERTEX
  8
Layer2
 10
666.47
 20
344.553
  0
VERTEX
  8
Layer2
 10
666.43
 20
344.493
  0
VERTEX
  8
Layer2
 10
666.398
 20
344.429
  0
VERTEX
  8
Layer2
 10
666.375
 20
344.361
  0
VERTEX
  8
Layer2
 10
666.361
 20
344.291
  0
VERTEX
  8
Layer2
 10
666.357
 20
344.22
  0
VERTEX
  8
Layer2
 10
666.361
 20
344.149
  0
VERTEX
  8
Layer2
 10
666.375
 20
344.079
  0
VERTEX
  8
Layer2
 10
666.398
 20
344.011
  0
VERTEX
  8
Layer2
 10
666.43
 20
343.947
  0
VERTEX
  8
Layer2
 10
666.47
 20
343.888
  0
VERTEX
  8
Layer2
 10
666.517
 20
343.834
  0
VERTEX
  8
Layer2
 10
666.57
 20
343.787
  0
VERTEX
  8
Layer2
 10
666.63
 20
343.747
  0
VERTEX
  8
Layer2
 10
666.694
 20
343.716
  0
VERTEX
  8
Layer2
 10
666.761
 20
343.693
  0
VERTEX
  8
Layer2
 10
666.831
 20
343.679
  0
VERTEX
  8
Layer2
 10
666.903
 20
343.674
  0
VERTEX
  8
Layer2
 10
666.974
 20
343.679
  0
VERTEX
  8
Layer2
 10
667.044
 20
343.693
  0
VERTEX
  8
Layer2
 10
667.112
 20
343.716
  0
VERTEX
  8
Layer2
 10
667.176
 20
343.747
  0
VERTEX
  8
Layer2
 10
667.235
 20
343.787
  0
VERTEX
  8
Layer2
 10
667.289
 20
343.834
  0
VERTEX
  8
Layer2
 10
667.336
 20
343.888
  0
VERTEX
  8
Layer2
 10
667.376
 20
343.947
  0
VERTEX
  8
Layer2
 10
667.407
 20
344.011
  0
VERTEX
  8
Layer2
 10
667.43
 20
344.079
  0
VERTEX
  8
Layer2
 10
667.444
 20
344.149
  0
SEQEND
  0
LINE
  8
Layer2
  6
CONTINUOUS
 62
7
 10
657.115
 20
337.378
 11
667.254
 21
337.378
  0
LINE
  8
Layer2
  6
CONTINUOUS
 62
7
 10
675.684
 20
327.378
 11
648.684
 21
327.378
  0
LINE
  8
Layer2
  6
CONTINUOUS
 62
7
 10
677.184
 20
322.378
 11
677.184
 21
325.878
  0
LINE
  8
Layer2
  6
CONTINUOUS
 62
7
 10
647.184
 20
322.378
 11
647.184
 21
325.878
  0
ARC
  8
Layer2
  6
CONTINUOUS
 62
7
 10
675.684
 20
325.878
 40
1.5
 50
2.03555e-013
 51
90
  0
ARC
  8
Layer2
  6
CONTINUOUS
 62
7
 10
648.684
 20
325.878
 40
1.5
 50
90
 51
180
  0
LINE
  8
Layer2
  6
CONTINUOUS
 62
7
 10
678.184
 20
321.378
 11
683.054
 21
321.378
  0
LINE
  8
Layer2
  6
CONTINUOUS
 62
7
 10
646.184
 20
321.378
 11
643.473
 21
321.378
  0
ARC
  8
Layer2
  6
CONTINUOUS
 62
7
 10
678.184
 20
322.378
 40
1
 50
180
 51
270
  0
ARC
  8
Layer2
  6
CONTINUOUS
 62
7
 10
646.184
 20
322.378
 40
1
 50
270
 51
2.03555e-013
  0
LINE
  8
Layer2
  6
CONTINUOUS
 62
7
 10
664.684
 20
331.193
 11
664.684
 21
327.378
  0
LINE
  8
Layer2
  6
CONTINUOUS
 62
7
 10
659.684
 20
331.138
 11
659.684
 21
327.378
  0
LINE
  8
Layer2
  6
CONTINUOUS
 62
7
 10
665.184
 20
336.378
 11
659.184
 21
336.378
  0
LINE
  8
Layer2
  6
CONTINUOUS
 62
7
 10
659.184
 20
336.378
 11
658.184
 21
337.378
  0
LINE
  8
Layer2
  6
CONTINUOUS
 62
7
 10
662.184
 20
336.378
 11
662.184
 21
335.765
  0
POLYLINE
  8
Layer2
  6
CONTINUOUS
 62
7
 66
1
 10
0
 20
0
 30
0
  0
VERTEX
  8
Layer2
 10
641.665
 20
337.378
  0
VERTEX
  8
Layer2
 10
641.69
 20
337.176
  0
VERTEX
  8
Layer2
 10
641.715
 20
336.975
  0
VERTEX
  8
Layer2
 10
641.741
 20
336.774
  0
VERTEX
  8
Layer2
 10
641.767
 20
336.573
  0
VERTEX
  8
Layer2
 10
641.794
 20
336.372
  0
VERTEX
  8
Layer2
 10
641.822
 20
336.171
  0
VERTEX
  8
Layer2
 10
641.851
 20
335.97
  0
VERTEX
  8
Layer2
 10
641.881
 20
335.769
  0
VERTEX
  8
Layer2
 10
641.913
 20
335.569
  0
VERTEX
  8
Layer2
 10
641.946
 20
335.369
  0
VERTEX
  8
Layer2
 10
641.981
 20
335.169
  0
VERTEX
  8
Layer2
 10
642.017
 20
334.97
  0
VERTEX
  8
Layer2
 10
642.056
 20
334.77
  0
VERTEX
  8
Layer2
 10
642.097
 20
334.571
  0
VERTEX
  8
Layer2
 10
642.141
 20
334.373
  0
VERTEX
  8
Layer2
 10
642.187
 20
334.175
  0
VERTEX
  8
Layer2
 10
642.236
 20
333.977
  0
VERTEX
  8
Layer2
 10
642.288
 20
333.78
  0
VERTEX
  8
Layer2
 10
642.343
 20
333.583
  0
VERTEX
  8
Layer2
 10
642.401
 20
333.387
  0
VERTEX
  8
Layer2
 10
642.463
 20
333.191
  0
VERTEX
  8
Layer2
 10
642.527
 20
332.996
  0
VERTEX
  8
Layer2
 10
642.594
 20
332.801
  0
VERTEX
  8
Layer2
 10
642.662
 20
332.607
  0
VERTEX
  8
Layer2
 10
642.732
 20
332.413
  0
VERTEX
  8
Layer2
 10
642.801
 20
332.219
  0
VERTEX
  8
Layer2
 10
642.87
 20
332.025
  0
VERTEX
  8
Layer2
 10
642.938
 20
331.831
  0
VERTEX
  8
Layer2
 10
643.004
 20
331.637
  0
VERTEX
  8
Layer2
 10
643.068
 20
331.443
  0
VERTEX
  8
Layer2
 10
643.129
 20
331.248
  0
VERTEX
  8
Layer2
 10
643.187
 20
331.054
  0
VERTEX
  8
Layer2
 10
643.24
 20
330.859
  0
VERTEX
  8
Layer2
 10
643.288
 20
330.663
  0
VERTEX
  8
Layer2
 10
643.331
 20
330.467
  0
VERTEX
  8
Layer2
 10
643.368
 20
330.271
  0
VERTEX
  8
Layer2
 10
643.397
 20
330.074
  0
VERTEX
  8
Layer2
 10
643.42
 20
329.876
  0
VERTEX
  8
Layer2
 10
643.434
 20
329.678
  0
VERTEX
  8
Layer2
 10
643.44
 20
329.478
  0
VERTEX
  8
Layer2
 10
643.439
 20
329.278
  0
VERTEX
  8
Layer2
 10
643.432
 20
329.078
  0
VERTEX
  8
Layer2
 10
643.42
 20
328.876
  0
VERTEX
  8
Layer2
 10
643.403
 20
328.675
  0
VERTEX
  8
Layer2
 10
643.383
 20
328.472
  0
VERTEX
  8
Layer2
 10
643.359
 20
328.27
  0
VERTEX
  8
Layer2
 10
643.334
 20
328.067
  0
VERTEX
  8
Layer2
 10
643.308
 20
327.863
  0
VERTEX
  8
Layer2
 10
643.282
 20
327.66
  0
VERTEX
  8
Layer2
 10
643.257
 20
327.456
  0
VERTEX
  8
Layer2
 10
643.233
 20
327.253
  0
VERTEX
  8
Layer2
 10
643.211
 20
327.049
  0
VERTEX
  8
Layer2
 10
643.193
 20
326.846
  0
VERTEX
  8
Layer2
 10
643.179
 20
326.642
  0
VERTEX
  8
Layer2
 10
643.171
 20
326.439
  0
VERTEX
  8
Layer2
 10
643.167
 20
326.236
  0
VERTEX
  8
Layer2
 10
643.169
 20
326.033
  0
VERTEX
  8
Layer2
 10
643.176
 20
325.83
  0
VERTEX
  8
Layer2
 10
643.186
 20
325.628
  0
VERTEX
  8
Layer2
 10
643.201
 20
325.425
  0
VERTEX
  8
Layer2
 10
643.218
 20
325.223
  0
VERTEX
  8
Layer2
 10
643.238
 20
325.021
  0
VERTEX
  8
Layer2
 10
643.259
 20
324.819
  0
VERTEX
  8
Layer2
 10
643.282
 20
324.617
  0
VERTEX
  8
Layer2
 10
643.306
 20
324.415
  0
VERTEX
  8
Layer2
 10
643.33
 20
324.213
  0
VERTEX
  8
Layer2
 10
643.354
 20
324.011
  0
VERTEX
  8
Layer2
 10
643.377
 20
323.809
  0
VERTEX
  8
Layer2
 10
643.399
 20
323.607
  0
VERTEX
  8
Layer2
 10
643.418
 20
323.405
  0
VERTEX
  8
Layer2
 10
643.436
 20
323.203
  0
VERTEX
  8
Layer2
 10
643.45
 20
323.001
  0
VERTEX
  8
Layer2
 10
643.461
 20
322.798
  0
VERTEX
  8
Layer2
 10
643.468
 20
322.595
  0
VERTEX
  8
Layer2
 10
643.472
 20
322.393
  0
VERTEX
  8
Layer2
 10
643.473
 20
322.19
  0
VERTEX
  8
Layer2
 10
643.471
 20
321.987
  0
VERTEX
  8
Layer2
 10
643.468
 20
321.784
  0
VERTEX
  8
Layer2
 10
643.464
 20
321.581
  0
VERTEX
  8
Layer2
 10
643.46
 20
321.378
  0
SEQEND
  0
LINE
  8
Layer2
  6
CENTER1
 62
7
 10
344.203
 20
254.878
 11
364.862
 21
254.878
  0
LINE
  8
Layer2
  6
CENTER1
 62
7
 10
380.131
 20
312.878
 11
402.811
 21
312.878
  0
LINE
  8
Layer2
  6
CENTER1
 62
7
 10
379.682
 20
254.878
 11
399.443
 21
254.878
  0
LINE
  8
Layer2
  6
CENTER1
 62
7
 10
355.732
 20
263.469
 11
355.732
 21
243.259
  0
LINE
  8
Layer2
  6
CENTER1
 62
7
 10
388.732
 20
264.367
 11
388.732
 21
243.259
  0
LINE
  8
Layer2
  6
CENTER1
 62
7
 10
344.652
 20
312.878
 11
365.311
 21
312.878
  0
LINE
  8
Layer2
  6
CENTER1
 62
7
 10
355.732
 20
323.2
 11
355.732
 21
304.786
  0
LINE
  8
Layer2
  6
CENTER1
 62
7
 10
388.732
 20
323.2
 11
388.732
 21
304.786
  0
LINE
  8
Layer2
  6
CONTINUOUS
 62
7
 10
792.184
 20
414.478
 11
714.184
 21
414.478
  0
LINE
  8
Layer2
  6
CONTINUOUS
 62
7
 10
710.184
 20
337.378
 11
614.184
 21
337.378
  0
LINE
  8
Layer2
  6
CONTINUOUS
 62
7
 10
769.184
 20
299.478
 11
788.184
 21
299.478
  0
LINE
  8
Layer2
  6
CONTINUOUS
 62
7
 10
606.184
 20
246.378
 11
585.184
 21
246.378
  0
LINE
  8
Layer2
  6
CONTINUOUS
 62
7
 10
614.184
 20
223.878
 11
792.184
 21
223.878
  0
LINE
  8
Layer2
  6
CONTINUOUS
 62
7
 10
793.184
 20
330.878
 11
793.184
 21
244.878
  0
LINE
  8
Layer2
  6
CONTINUOUS
 62
7
 10
808.184
 20
244.878
 11
808.184
 21
330.878
  0
LINE
  8
Layer2
  6
CONTINUOUS
 62
7
 10
611.684
 20
247.53
 11
611.684
 21
320.378
  0
LINE
  8
Layer2
  6
CONTINUOUS
 62
7
 10
607.184
 20
309.348
 11
607.184
 21
247.378
  0
LINE
  8
Layer2
  6
CONTINUOUS
 62
7
 10
584.184
 20
247.378
 11
584.184
 21
320.378
  0
LINE
  8
Layer2
  6
PHANTOM1
 62
7
 10
713.184
 20
366.878
 11
793.184
 21
366.878
  0
LINE
  8
Layer2
  6
CONTINUOUS
 62
7
 10
713.184
 20
399.478
 11
713.184
 21
413.478
  0
LINE
  8
Layer2
  6
CONTINUOUS
 62
7
 10
612.684
 20
321.378
 11
750.808
 21
321.378
  0
LINE
  8
Layer2
  6
CONTINUOUS
 62
7
 10
792.184
 20
398.478
 11
714.184
 21
398.478
  0
LINE
  8
Layer2
  6
PHANTOM1
 62
7
 10
713.184
 20
350.878
 11
793.184
 21
350.878
  0
LINE
  8
Layer2
  6
CENTER1
 62
7
 10
581.574
 20
312.878
 11
629.654
 21
312.878
  0
LINE
  8
Layer2
  6
CONTINUOUS
 62
7
 10
613.184
 20
322.378
 11
613.184
 21
336.378
  0
LINE
  8
Layer2
  6
CONTINUOUS
 62
7
 10
613.184
 20
336.378
 11
614.184
 21
337.378
  0
LINE
  8
Layer2
  6
CONTINUOUS
 62
7
 10
614.184
 20
321.378
 11
613.184
 21
322.378
  0
LINE
  8
Layer2
  6
CONTINUOUS
 62
7
 10
610.684
 20
321.378
 11
608.184
 21
321.378
  0
LINE
  8
Layer2
  6
CONTINUOUS
 62
7
 10
585.184
 20
321.378
 11
606.184
 21
321.378
  0
LINE
  8
Layer2
  6
CONTINUOUS
 62
7
 10
607.184
 20
320.378
 11
606.184
 21
321.378
  0
LINE
  8
Layer2
  6
CONTINUOUS
 62
7
 10
584.184
 20
247.378
 11
585.184
 21
246.378
  0
LINE
  8
Layer2
  6
CONTINUOUS
 62
7
 10
610.532
 20
246.378
 11
608.184
 21
246.378
  0
LINE
  8
Layer2
  6
CONTINUOUS
 62
7
 10
607.184
 20
247.378
 11
606.184
 21
246.378
  0
LINE
  8
Layer2
  6
CONTINUOUS
 62
7
 10
607.184
 20
247.378
 11
608.184
 21
246.378
  0
LINE
  8
Layer2
  6
CONTINUOUS
 62
7
 10
612.684
 20
246.878
 11
681.591
 21
246.878
  0
POLYLINE
  8
Layer2
  6
CONTINUOUS
 62
7
 66
1
 10
0
 20
0
 30
0
  0
VERTEX
  8
Layer2
 10
643.46
 20
321.378
  0
VERTEX
  8
Layer2
 10
645.116
 20
320.205
  0
VERTEX
  8
Layer2
 10
646.756
 20
319.031
  0
VERTEX
  8
Layer2
 10
648.358
 20
317.851
  0
VERTEX
  8
Layer2
 10
649.912
 20
316.666
  0
VERTEX
  8
Layer2
 10
651.397
 20
315.474
  0
VERTEX
  8
Layer2
 10
652.794
 20
314.271
  0
VERTEX
  8
Layer2
 10
654.09
 20
313.057
  0
VERTEX
  8
Layer2
 10
655.278
 20
311.83
  0
VERTEX
  8
Layer2
 10
656.374
 20
310.592
  0
VERTEX
  8
Layer2
 10
657.396
 20
309.344
  0
VERTEX
  8
Layer2
 10
658.361
 20
308.087
  0
VERTEX
  8
Layer2
 10
659.285
 20
306.822
  0
VERTEX
  8
Layer2
 10
660.187
 20
305.553
  0
VERTEX
  8
Layer2
 10
661.084
 20
304.278
  0
VERTEX
  8
Layer2
 10
661.993
 20
303
  0
VERTEX
  8
Layer2
 10
662.929
 20
301.721
  0
VERTEX
  8
Layer2
 10
663.914
 20
300.441
  0
VERTEX
  8
Layer2
 10
664.963
 20
299.162
  0
VERTEX
  8
Layer2
 10
666.095
 20
297.887
  0
VERTEX
  8
Layer2
 10
667.323
 20
296.614
  0
VERTEX
  8
Layer2
 10
668.668
 20
295.347
  0
VERTEX
  8
Layer2
 10
670.148
 20
294.086
  0
VERTEX
  8
Layer2
 10
671.771
 20
292.833
  0
VERTEX
  8
Layer2
 10
673.52
 20
291.588
  0
VERTEX
  8
Layer2
 10
675.375
 20
290.348
  0
VERTEX
  8
Layer2
 10
677.319
 20
289.117
  0
VERTEX
  8
Layer2
 10
679.328
 20
287.89
  0
VERTEX
  8
Layer2
 10
681.379
 20
286.67
  0
VERTEX
  8
Layer2
 10
683.455
 20
285.454
  0
VERTEX
  8
Layer2
 10
685.533
 20
284.243
  0
VERTEX
  8
Layer2
 10
687.594
 20
283.035
  0
VERTEX
  8
Layer2
 10
689.613
 20
281.833
  0
VERTEX
  8
Layer2
 10
691.573
 20
280.632
  0
VERTEX
  8
Layer2
 10
693.453
 20
279.435
  0
VERTEX
  8
Layer2
 10
695.229
 20
278.239
  0
VERTEX
  8
Layer2
 10
696.881
 20
277.046
  0
VERTEX
  8
Layer2
 10
698.393
 20
275.853
  0
VERTEX
  8
Layer2
 10
699.736
 20
274.662
  0
VERTEX
  8
Layer2
 10
700.895
 20
273.471
  0
VERTEX
  8
Layer2
 10
701.848
 20
272.28
  0
VERTEX
  8
Layer2
 10
702.574
 20
271.088
  0
VERTEX
  8
Layer2
 10
703.049
 20
269.896
  0
VERTEX
  8
Layer2
 10
703.257
 20
268.701
  0
VERTEX
  8
Layer2
 10
703.174
 20
267.504
  0
VERTEX
  8
Layer2
 10
702.78
 20
266.306
  0
VERTEX
  8
Layer2
 10
702.066
 20
265.104
  0
VERTEX
  8
Layer2
 10
701.067
 20
263.9
  0
VERTEX
  8
Layer2
 10
699.829
 20
262.692
  0
VERTEX
  8
Layer2
 10
698.393
 20
261.484
  0
VERTEX
  8
Layer2
 10
696.803
 20
260.273
  0
VERTEX
  8
Layer2
 10
695.102
 20
259.061
  0
VERTEX
  8
Layer2
 10
693.338
 20
257.847
  0
VERTEX
  8
Layer2
 10
691.549
 20
256.631
  0
VERTEX
  8
Layer2
 10
689.782
 20
255.415
  0
VERTEX
  8
Layer2
 10
688.081
 20
254.198
  0
VERTEX
  8
Layer2
 10
686.488
 20
252.981
  0
VERTEX
  8
Layer2
 10
685.048
 20
251.764
  0
VERTEX
  8
Layer2
 10
683.803
 20
250.547
  0
VERTEX
  8
Layer2
 10
682.798
 20
249.33
  0
VERTEX
  8
Layer2
 10
682.077
 20
248.113
  0
VERTEX
  8
Layer2
 10
681.656
 20
246.897
  0
VERTEX
  8
Layer2
 10
681.521
 20
245.682
  0
VERTEX
  8
Layer2
 10
681.661
 20
244.468
  0
VERTEX
  8
Layer2
 10
682.055
 20
243.254
  0
VERTEX
  8
Layer2
 10
682.693
 20
242.04
  0
VERTEX
  8
Layer2
 10
683.558
 20
240.826
  0
VERTEX
  8
Layer2
 10
684.631
 20
239.614
  0
VERTEX
  8
Layer2
 10
685.905
 20
238.402
  0
VERTEX
  8
Layer2
 10
687.358
 20
237.191
  0
VERTEX
  8
Layer2
 10
688.978
 20
235.979
  0
VERTEX
  8
Layer2
 10
690.75
 20
234.768
  0
VERTEX
  8
Layer2
 10
692.656
 20
233.557
  0
VERTEX
  8
Layer2
 10
694.683
 20
232.347
  0
VERTEX
  8
Layer2
 10
696.817
 20
231.137
  0
VERTEX
  8
Layer2
 10
699.042
 20
229.926
  0
VERTEX
  8
Layer2
 10
701.344
 20
228.716
  0
VERTEX
  8
Layer2
 10
703.703
 20
227.507
  0
VERTEX
  8
Layer2
 10
706.11
 20
226.297
  0
VERTEX
  8
Layer2
 10
708.546
 20
225.087
  0
VERTEX
  8
Layer2
 10
710.999
 20
223.878
  0
SEQEND
  0
LINE
  8
Layer2
  6
CONTINUOUS
 62
7
 10
792.184
 20
246.378
 11
767.184
 21
246.378
  0
LINE
  8
Layer2
  6
CONTINUOUS
 62
7
 10
713.184
 20
399.478
 11
713.184
 21
366.216
  0
LINE
  8
Layer2
  6
CONTINUOUS
 62
7
 10
793.184
 20
413.478
 11
793.184
 21
399.478
  0
LINE
  8
Layer2
  6
CONTINUOUS
 62
7
 10
713.184
 20
413.478
 11
714.184
 21
414.478
  0
LINE
  8
Layer2
  6
CONTINUOUS
 62
7
 10
713.184
 20
399.478
 11
714.184
 21
398.478
  0
LINE
  8
Layer2
  6
CONTINUOUS
 62
7
 10
792.184
 20
398.478
 11
793.184
 21
399.478
  0
LINE
  8
Layer2
  6
CONTINUOUS
 62
7
 10
793.184
 20
413.478
 11
792.184
 21
414.478
  0
LINE
  8
Layer2
  6
CONTINUOUS
 62
7
 10
793.184
 20
270.876
 11
713.184
 21
366.216
  0
LINE
  8
Layer2
  6
PHANTOM1
 62
7
 10
713.184
 20
366.216
 11
713.184
 21
321.378
  0
LINE
  8
Layer2
  6
CONTINUOUS
 62
7
 10
794.184
 20
243.878
 11
807.184
 21
243.878
  0
LINE
  8
Layer2
  6
CONTINUOUS
 62
7
 10
794.184
 20
331.878
 11
807.184
 21
331.878
  0
LINE
  8
Layer2
  6
CONTINUOUS
 62
7
 10
807.184
 20
331.878
 11
808.184
 21
330.878
  0
LINE
  8
Layer2
  6
CONTINUOUS
 62
7
 10
808.184
 20
244.878
 11
807.184
 21
243.878
  0
LINE
  8
Layer2
  6
CONTINUOUS
 62
7
 10
794.184
 20
243.878
 11
793.184
 21
244.878
  0
LINE
  8
Layer2
  6
CONTINUOUS
 62
7
 10
793.184
 20
330.878
 11
794.184
 21
331.878
  0
LINE
  8
Layer2
  6
CONTINUOUS
 62
7
 10
793.184
 20
245.378
 11
793.184
 21
224.878
  0
LINE
  8
Layer2
  6
CONTINUOUS
 62
7
 10
793.184
 20
224.878
 11
792.184
 21
223.878
  0
LINE
  8
Layer2
  6
CONTINUOUS
 62
7
 10
613.184
 20
224.878
 11
614.184
 21
223.878
  0
LINE
  8
Layer2
  6
CONTINUOUS
 62
7
 10
614.184
 20
246.878
 11
613.184
 21
245.878
  0
LINE
  8
Layer2
  6
CONTINUOUS
 62
7
 10
793.184
 20
304.478
 11
793.184
 21
399.478
  0
LINE
  8
Layer2
  6
PHANTOM1
 62
7
 10
753.184
 20
270.876
 11
710.808
 21
321.378
  0
LINE
  8
Layer2
  6
PHANTOM1
 62
7
 10
753.184
 20
270.876
 11
753.184
 21
246.378
  0
LINE
  8
Layer2
  6
CONTINUOUS
 62
7
 10
755.184
 20
246.378
 11
755.184
 21
249.378
  0
LINE
  8
Layer2
  6
CONTINUOUS
 62
7
 10
767.184
 20
249.378
 11
767.184
 21
246.378
  0
LINE
  8
Layer2
  6
CONTINUOUS
 62
7
 10
755.184
 20
249.378
 11
767.184
 21
249.378
  0
LINE
  8
Layer2
  6
CONTINUOUS
 62
7
 10
755.184
 20
246.378
 11
681.852
 21
246.378
  0
LINE
  8
Layer2
  6
CONTINUOUS
 62
7
 10
608.184
 20
321.378
 11
607.184
 21
320.378
  0
LINE
  8
Layer2
  6
CONTINUOUS
 62
7
 10
611.684
 20
320.378
 11
612.684
 21
321.378
  0
LINE
  8
Layer2
  6
CENTER1
 62
7
 10
576.204
 20
254.878
 11
618.286
 21
254.878
  0
LINE
  8
Layer2
  6
CENTER1
 62
7
 10
761.184
 20
221.424
 11
761.184
 21
268.811
  0
LINE
  8
Layer2
  6
CONTINUOUS
 62
7
 10
767.184
 20
227.378
 11
767.184
 21
249.378
  0
LINE
  8
Layer2
  6
CONTINUOUS
 62
7
 10
755.184
 20
227.378
 11
755.184
 21
249.378
  0
LINE
  8
Layer2
  6
CONTINUOUS
 62
7
 10
755.184
 20
249.378
 11
767.184
 21
249.378
  0
LINE
  8
Layer2
  6
DASHED1
 62
7
 10
758.184
 20
239.988
 11
758.184
 21
261.378
  0
LINE
  8
Layer2
  6
DASHED1
 62
7
 10
764.184
 20
250.378
 11
764.184
 21
261.378
  0
LINE
  8
Layer2
  6
DASHED1
 62
7
 10
758.184
 20
261.378
 11
764.184
 21
261.378
  0
LINE
  8
Layer2
  6
DASHED1
 62
7
 10
758.684
 20
240.004
 11
758.684
 21
264.934
  0
LINE
  8
Layer2
  6
DASHED1
 62
7
 10
763.684
 20
240.364
 11
763.684
 21
264.934
  0
LINE
  8
Layer2
  6
CONTINUOUS
 62
7
 10
761.184
 20
266.378
 11
763.684
 21
264.934
  0
LINE
  8
Layer2
  6
CONTINUOUS
 62
7
 10
761.184
 20
266.378
 11
758.684
 21
264.934
  0
LINE
  8
Layer2
  6
DASHED1
 62
7
 10
758.684
 20
264.934
 11
763.684
 21
264.934
  0
LINE
  8
Layer2
  6
CONTINUOUS
 62
7
 10
763.684
 20
264.934
 11
763.364
 21
264.934
  0
LINE
  8
Layer2
  6
CONTINUOUS
 62
7
 10
764.184
 20
261.378
 11
763.06
 21
261.378
  0
LINE
  8
Layer2
  6
CONTINUOUS
 62
7
 10
758.184
 20
261.378
 11
758.184
 21
260.477
  0
LINE
  8
Layer2
  6
DASHED1
 62
7
 10
764.184
 20
261.378
 11
764.184
 21
240.759
  0
LINE
  8
Layer2
  6
CONTINUOUS
 62
7
 10
757.184
 20
249.378
 11
765.184
 21
249.378
  0
LINE
  8
Layer2
  6
CONTINUOUS
 62
7
 10
767.184
 20
227.378
 11
755.184
 21
227.378
  0
LINE
  8
Layer2
  6
CENTER1
 62
7
 10
636.294
 20
228.726
 11
729.903
 21
228.726
  0
LINE
  8
Layer2
  6
CENTER1
 62
7
 10
726.492
 20
243.732
 11
635.698
 21
243.732
  0
LINE
  8
Layer2
  6
DASHED1
 62
7
 10
639.8
 20
226.214
 11
642.36
 21
226.214
  0
LINE
  8
Layer2
  6
DASHED1
 62
7
 10
638.094
 20
241.233
 11
640.654
 21
241.233
  0
LINE
  8
Layer2
  6
DASHED1
 62
7
 10
639.8
 20
231.238
 11
642.36
 21
231.238
  0
LINE
  8
Layer2
  6
DASHED1
 62
7
 10
640.654
 20
246.23
 11
640.654
 21
241.233
  0
LINE
  8
Layer2
  6
DASHED1
 62
7
 10
638.094
 20
246.23
 11
638.094
 21
241.233
  0
LINE
  8
Layer2
  6
DASHED1
 62
7
 10
639.8
 20
231.238
 11
639.8
 21
226.214
  0
LINE
  8
Layer2
  6
DASHED1
 62
7
 10
642.36
 20
231.238
 11
642.36
 21
226.214
  0
LINE
  8
Layer2
  6
DASHED1
 62
7
 10
638.094
 20
241.233
 11
639.8
 21
231.238
  0
LINE
  8
Layer2
  6
DASHED1
 62
7
 10
640.654
 20
241.233
 11
642.36
 21
231.238
  0
LINE
  8
Layer2
  6
DASHED1
 62
7
 10
638.947
 20
236.235
 11
639.8
 21
226.214
  0
LINE
  8
Layer2
  6
DASHED1
 62
7
 10
640.867
 20
246.23
 11
641.507
 21
236.235
  0
LINE
  8
Layer2
  6
DASHED1
 62
7
 10
637.881
 20
226.214
 11
639.16
 21
226.214
  0
LINE
  8
Layer2
  6
DASHED1
 62
7
 10
639.16
 20
231.212
 11
637.881
 21
231.212
  0
LINE
  8
Layer2
  6
DASHED1
 62
7
 10
639.16
 20
226.214
 11
639.16
 21
231.212
  0
LINE
  8
Layer2
  6
DASHED1
 62
7
 10
639.16
 20
231.212
 11
638.307
 21
236.209
  0
LINE
  8
Layer2
  6
DASHED1
 62
7
 10
637.881
 20
226.214
 11
637.881
 21
236.209
  0
LINE
  8
Layer2
  6
DASHED1
 62
7
 10
638.307
 20
236.209
 11
637.881
 21
236.209
  0
LINE
  8
Layer2
  6
CONTINUOUS
 62
7
 10
765.184
 20
228.378
 11
757.184
 21
228.378
  0
LINE
  8
Layer2
  6
CONTINUOUS
 62
7
 10
756.184
 20
229.378
 11
756.184
 21
234.378
  0
LINE
  8
Layer2
  6
CONTINUOUS
 62
7
 10
766.184
 20
229.378
 11
766.184
 21
234.378
  0
LINE
  8
Layer2
  6
CONTINUOUS
 62
7
 10
755.684
 20
234.378
 11
766.684
 21
234.378
  0
LINE
  8
Layer2
  6
CONTINUOUS
 62
7
 10
757.184
 20
228.378
 11
756.184
 21
229.378
  0
LINE
  8
Layer2
  6
CONTINUOUS
 62
7
 10
765.184
 20
228.378
 11
766.184
 21
229.378
  0
LINE
  8
Layer2
  6
CONTINUOUS
 62
7
 10
756.184
 20
229.378
 11
766.184
 21
229.378
  0
LINE
  8
Layer2
  6
CONTINUOUS
 62
7
 10
764.184
 20
261.378
 11
763.684
 21
262.244
  0
LINE
  8
Layer2
  6
CONTINUOUS
 62
7
 10
758.184
 20
261.378
 11
758.684
 21
262.244
  0
LINE
  8
Layer2
  6
DASHED1
 62
7
 10
758.684
 20
262.244
 11
763.684
 21
262.244
  0
POLYLINE
  8
Layer2
  6
CONTINUOUS
 62
7
 66
1
 10
0
 20
0
 30
0
  0
VERTEX
  8
Layer2
 10
755.184
 20
238.378
  0
VERTEX
  8
Layer2
 10
755.371
 20
238.518
  0
VERTEX
  8
Layer2
 10
755.558
 20
238.658
  0
VERTEX
  8
Layer2
 10
755.744
 20
238.796
  0
VERTEX
  8
Layer2
 10
755.932
 20
238.931
  0
VERTEX
  8
Layer2
 10
756.119
 20
239.063
  0
VERTEX
  8
Layer2
 10
756.307
 20
239.19
  0
VERTEX
  8
Layer2
 10
756.496
 20
239.311
  0
VERTEX
  8
Layer2
 10
756.685
 20
239.425
  0
VERTEX
  8
Layer2
 10
756.876
 20
239.533
  0
VERTEX
  8
Layer2
 10
757.067
 20
239.631
  0
VERTEX
  8
Layer2
 10
757.259
 20
239.721
  0
VERTEX
  8
Layer2
 10
757.452
 20
239.8
  0
VERTEX
  8
Layer2
 10
757.646
 20
239.868
  0
VERTEX
  8
Layer2
 10
757.842
 20
239.924
  0
VERTEX
  8
Layer2
 10
758.038
 20
239.967
  0
VERTEX
  8
Layer2
 10
758.237
 20
239.996
  0
VERTEX
  8
Layer2
 10
758.437
 20
240.01
  0
VERTEX
  8
Layer2
 10
758.639
 20
240.008
  0
VERTEX
  8
Layer2
 10
758.842
 20
239.989
  0
VERTEX
  8
Layer2
 10
759.047
 20
239.956
  0
VERTEX
  8
Layer2
 10
759.253
 20
239.911
  0
VERTEX
  8
Layer2
 10
759.46
 20
239.856
  0
VERTEX
  8
Layer2
 10
759.668
 20
239.795
  0
VERTEX
  8
Layer2
 10
759.876
 20
239.731
  0
VERTEX
  8
Layer2
 10
760.084
 20
239.665
  0
VERTEX
  8
Layer2
 10
760.292
 20
239.602
  0
VERTEX
  8
Layer2
 10
760.499
 20
239.543
  0
VERTEX
  8
Layer2
 10
760.705
 20
239.492
  0
VERTEX
  8
Layer2
 10
760.91
 20
239.451
  0
VERTEX
  8
Layer2
 10
761.113
 20
239.423
  0
VERTEX
  8
Layer2
 10
761.314
 20
239.411
  0
VERTEX
  8
Layer2
 10
761.514
 20
239.415
  0
VERTEX
  8
Layer2
 10
761.711
 20
239.435
  0
VERTEX
  8
Layer2
 10
761.907
 20
239.47
  0
VERTEX
  8
Layer2
 10
762.101
 20
239.518
  0
VERTEX
  8
Layer2
 10
762.293
 20
239.579
  0
VERTEX
  8
Layer2
 10
762.484
 20
239.652
  0
VERTEX
  8
Layer2
 10
762.673
 20
239.737
  0
VERTEX
  8
Layer2
 10
762.86
 20
239.831
  0
VERTEX
  8
Layer2
 10
763.046
 20
239.936
  0
VERTEX
  8
Layer2
 10
763.23
 20
240.049
  0
VERTEX
  8
Layer2
 10
763.413
 20
240.17
  0
VERTEX
  8
Layer2
 10
763.594
 20
240.297
  0
VERTEX
  8
Layer2
 10
763.774
 20
240.431
  0
VERTEX
  8
Layer2
 10
763.953
 20
240.57
  0
VERTEX
  8
Layer2
 10
764.131
 20
240.714
  0
VERTEX
  8
Layer2
 10
764.307
 20
240.861
  0
VERTEX
  8
Layer2
 10
764.482
 20
241.011
  0
VERTEX
  8
Layer2
 10
764.657
 20
241.163
  0
VERTEX
  8
Layer2
 10
764.83
 20
241.315
  0
VERTEX
  8
Layer2
 10
765.002
 20
241.468
  0
VERTEX
  8
Layer2
 10
765.174
 20
241.62
  0
VERTEX
  8
Layer2
 10
765.345
 20
241.771
  0
VERTEX
  8
Layer2
 10
765.514
 20
241.919
  0
VERTEX
  8
Layer2
 10
765.684
 20
242.063
  0
VERTEX
  8
Layer2
 10
765.852
 20
242.204
  0
VERTEX
  8
Layer2
 10
766.02
 20
242.342
  0
VERTEX
  8
Layer2
 10
766.187
 20
242.476
  0
VERTEX
  8
Layer2
 10
766.354
 20
242.607
  0
VERTEX
  8
Layer2
 10
766.521
 20
242.736
  0
VERTEX
  8
Layer2
 10
766.687
 20
242.863
  0
VERTEX
  8
Layer2
 10
766.853
 20
242.989
  0
VERTEX
  8
Layer2
 10
767.019
 20
243.114
  0
VERTEX
  8
Layer2
 10
767.184
 20
243.238
  0
SEQEND
  0
LINE
  8
Layer2
  6
CONTINUOUS
 62
7
 10
764.184
 20
240.759
 11
764.184
 21
234.378
  0
LINE
  8
Layer2
  6
CONTINUOUS
 62
7
 10
763.684
 20
240.364
 11
763.684
 21
234.378
  0
LINE
  8
Layer2
  6
CONTINUOUS
 62
7
 10
758.684
 20
240.005
 11
758.684
 21
234.378
  0
LINE
  8
Layer2
  6
CONTINUOUS
 62
7
 10
758.184
 20
239.988
 11
758.184
 21
234.378
  0
LINE
  8
Layer2
  6
CONTINUOUS
 62
7
 10
756.184
 20
234.378
 11
756.184
 21
229.378
  0
LINE
  8
Layer2
  6
CONTINUOUS
 62
7
 10
766.184
 20
234.378
 11
766.184
 21
229.378
  0
LINE
  8
Layer2
  6
CONTINUOUS
 62
7
 10
755.684
 20
227.378
 11
755.684
 21
234.378
  0
LINE
  8
Layer2
  6
CONTINUOUS
 62
7
 10
766.684
 20
227.378
 11
766.684
 21
234.378
  0
LINE
  8
Layer2
  6
CONTINUOUS
 62
7
 10
637.881
 20
246.217
 11
637.881
 21
226.201
  0
LINE
  8
Layer2
  6
DASHED1
 62
7
 10
739.331
 20
226.201
 11
741.909
 21
226.201
  0
LINE
  8
Layer2
  6
CONTINUOUS
 62
7
 10
755.184
 20
244.201
 11
753.252
 21
244.201
  0
LINE
  8
Layer2
  6
DASHED1
 62
7
 10
737.612
 20
241.22
 11
740.19
 21
241.22
  0
LINE
  8
Layer2
  6
DASHED1
 62
7
 10
739.331
 20
231.225
 11
741.909
 21
231.225
  0
LINE
  8
Layer2
  6
DASHED1
 62
7
 10
740.19
 20
246.217
 11
740.19
 21
241.22
  0
LINE
  8
Layer2
  6
DASHED1
 62
7
 10
737.612
 20
246.217
 11
737.612
 21
241.22
  0
LINE
  8
Layer2
  6
DASHED1
 62
7
 10
739.331
 20
231.225
 11
739.331
 21
226.201
  0
LINE
  8
Layer2
  6
DASHED1
 62
7
 10
741.909
 20
231.225
 11
741.909
 21
226.201
  0
LINE
  8
Layer2
  6
DASHED1
 62
7
 10
737.612
 20
241.22
 11
739.331
 21
231.225
  0
LINE
  8
Layer2
  6
DASHED1
 62
7
 10
740.19
 20
241.22
 11
741.909
 21
231.225
  0
LINE
  8
Layer2
  6
DASHED1
 62
7
 10
738.472
 20
236.222
 11
739.331
 21
226.201
  0
LINE
  8
Layer2
  6
DASHED1
 62
7
 10
740.405
 20
246.217
 11
741.049
 21
236.222
  0
LINE
  8
Layer2
  6
CONTINUOUS
 62
7
 10
744.487
 20
226.201
 11
747.064
 21
226.201
  0
LINE
  8
Layer2
  6
CONTINUOUS
 62
7
 10
745.346
 20
246.217
 11
742.768
 21
246.217
  0
LINE
  8
Layer2
  6
CONTINUOUS
 62
7
 10
742.768
 20
241.22
 11
745.346
 21
241.22
  0
LINE
  8
Layer2
  6
CONTINUOUS
 62
7
 10
744.487
 20
231.225
 11
747.064
 21
231.225
  0
LINE
  8
Layer2
  6
CONTINUOUS
 62
7
 10
745.346
 20
246.217
 11
745.346
 21
241.22
  0
LINE
  8
Layer2
  6
CONTINUOUS
 62
7
 10
742.768
 20
246.217
 11
742.768
 21
241.22
  0
LINE
  8
Layer2
  6
CONTINUOUS
 62
7
 10
744.487
 20
231.225
 11
744.487
 21
226.201
  0
LINE
  8
Layer2
  6
CONTINUOUS
 62
7
 10
747.064
 20
231.225
 11
747.064
 21
226.201
  0
LINE
  8
Layer2
  6
CONTINUOUS
 62
7
 10
742.768
 20
241.22
 11
744.487
 21
231.225
  0
LINE
  8
Layer2
  6
CONTINUOUS
 62
7
 10
745.346
 20
241.22
 11
747.064
 21
231.225
  0
LINE
  8
Layer2
  6
CONTINUOUS
 62
7
 10
743.627
 20
236.222
 11
744.487
 21
226.201
  0
LINE
  8
Layer2
  6
CONTINUOUS
 62
7
 10
745.561
 20
246.217
 11
746.205
 21
236.222
  0
LINE
  8
Layer2
  6
CONTINUOUS
 62
7
 10
749.642
 20
226.201
 11
752.22
 21
226.201
  0
LINE
  8
Layer2
  6
CONTINUOUS
 62
7
 10
750.502
 20
246.217
 11
747.924
 21
246.217
  0
LINE
  8
Layer2
  6
CONTINUOUS
 62
7
 10
747.924
 20
241.22
 11
750.502
 21
241.22
  0
LINE
  8
Layer2
  6
CONTINUOUS
 62
7
 10
749.642
 20
231.225
 11
752.22
 21
231.225
  0
LINE
  8
Layer2
  6
CONTINUOUS
 62
7
 10
750.502
 20
246.217
 11
750.502
 21
241.22
  0
LINE
  8
Layer2
  6
CONTINUOUS
 62
7
 10
747.924
 20
246.217
 11
747.924
 21
241.22
  0
LINE
  8
Layer2
  6
CONTINUOUS
 62
7
 10
749.642
 20
231.225
 11
749.642
 21
226.201
  0
LINE
  8
Layer2
  6
CONTINUOUS
 62
7
 10
752.22
 20
231.225
 11
752.22
 21
226.201
  0
LINE
  8
Layer2
  6
CONTINUOUS
 62
7
 10
747.924
 20
241.22
 11
749.642
 21
231.225
  0
LINE
  8
Layer2
  6
CONTINUOUS
 62
7
 10
750.502
 20
241.22
 11
752.22
 21
231.225
  0
LINE
  8
Layer2
  6
CONTINUOUS
 62
7
 10
748.783
 20
236.222
 11
749.642
 21
226.201
  0
LINE
  8
Layer2
  6
CONTINUOUS
 62
7
 10
750.716
 20
246.217
 11
751.361
 21
236.222
  0
LINE
  8
Layer2
  6
CONTINUOUS
 62
7
 10
753.252
 20
239.707
 11
755.184
 21
239.701
  0
LINE
  8
Layer2
  6
CONTINUOUS
 62
7
 10
753.079
 20
246.217
 11
753.079
 21
241.22
  0
LINE
  8
Layer2
  6
CONTINUOUS
 62
7
 10
754.798
 20
231.225
 11
754.798
 21
226.201
  0
LINE
  8
Layer2
  6
CONTINUOUS
 62
7
 10
753.079
 20
241.22
 11
754.798
 21
231.225
  0
LINE
  8
Layer2
  6
CONTINUOUS
 62
7
 10
753.939
 20
236.222
 11
754.798
 21
226.201
  0
LINE
  8
Layer2
  6
DASHED1
 62
7
 10
740.19
 20
246.217
 11
737.612
 21
246.217
  0
LINE
  8
Layer2
  6
DASHED1
 62
7
 10
735.035
 20
246.217
 11
732.457
 21
246.217
  0
LINE
  8
Layer2
  6
DASHED1
 62
7
 10
729.879
 20
246.217
 11
727.301
 21
246.217
  0
LINE
  8
Layer2
  6
DASHED1
 62
7
 10
729.02
 20
226.201
 11
731.597
 21
226.201
  0
LINE
  8
Layer2
  6
CONTINUOUS
 62
7
 10
729.879
 20
246.217
 11
727.301
 21
246.217
  0
LINE
  8
Layer2
  6
CONTINUOUS
 62
7
 10
727.301
 20
241.22
 11
729.879
 21
241.22
  0
LINE
  8
Layer2
  6
CONTINUOUS
 62
7
 10
729.02
 20
231.225
 11
731.597
 21
231.225
  0
LINE
  8
Layer2
  6
CONTINUOUS
 62
7
 10
729.879
 20
246.217
 11
729.879
 21
241.22
  0
LINE
  8
Layer2
  6
CONTINUOUS
 62
7
 10
727.301
 20
246.217
 11
727.301
 21
241.22
  0
LINE
  8
Layer2
  6
DASHED1
 62
7
 10
729.02
 20
231.225
 11
729.02
 21
226.201
  0
LINE
  8
Layer2
  6
DASHED1
 62
7
 10
731.597
 20
229.574
 11
731.597
 21
226.201
  0
LINE
  8
Layer2
  6
CONTINUOUS
 62
7
 10
727.301
 20
241.22
 11
728.765
 21
232.706
  0
LINE
  8
Layer2
  6
CONTINUOUS
 62
7
 10
729.879
 20
241.22
 11
731.597
 21
231.225
  0
LINE
  8
Layer2
  6
DASHED1
 62
7
 10
728.402
 20
233.409
 11
729.02
 21
226.201
  0
LINE
  8
Layer2
  6
CONTINUOUS
 62
7
 10
730.094
 20
246.217
 11
730.738
 21
236.222
  0
LINE
  8
Layer2
  6
DASHED1
 62
7
 10
734.175
 20
226.201
 11
736.753
 21
226.201
  0
LINE
  8
Layer2
  6
CONTINUOUS
 62
7
 10
739.331
 20
226.201
 11
741.909
 21
226.201
  0
LINE
  8
Layer2
  6
CONTINUOUS
 62
7
 10
740.19
 20
246.217
 11
737.612
 21
246.217
  0
LINE
  8
Layer2
  6
CONTINUOUS
 62
7
 10
737.612
 20
241.22
 11
740.19
 21
241.22
  0
LINE
  8
Layer2
  6
CONTINUOUS
 62
7
 10
739.331
 20
231.225
 11
741.909
 21
231.225
  0
LINE
  8
Layer2
  6
CONTINUOUS
 62
7
 10
740.19
 20
246.217
 11
740.19
 21
241.22
  0
LINE
  8
Layer2
  6
CONTINUOUS
 62
7
 10
737.612
 20
246.217
 11
737.612
 21
241.22
  0
LINE
  8
Layer2
  6
CONTINUOUS
 62
7
 10
739.331
 20
231.225
 11
739.331
 21
226.201
  0
LINE
  8
Layer2
  6
CONTINUOUS
 62
7
 10
741.909
 20
231.225
 11
741.909
 21
226.201
  0
LINE
  8
Layer2
  6
CONTINUOUS
 62
7
 10
737.612
 20
241.22
 11
739.331
 21
231.225
  0
LINE
  8
Layer2
  6
CONTINUOUS
 62
7
 10
740.19
 20
241.22
 11
741.909
 21
231.225
  0
LINE
  8
Layer2
  6
CONTINUOUS
 62
7
 10
738.472
 20
236.222
 11
739.331
 21
226.201
  0
LINE
  8
Layer2
  6
CONTINUOUS
 62
7
 10
740.405
 20
246.217
 11
741.049
 21
236.222
  0
LINE
  8
Layer2
  6
CONTINUOUS
 62
7
 10
731.597
 20
229.574
 11
731.597
 21
231.225
  0
LINE
  8
Layer2
  6
CONTINUOUS
 62
7
 10
728.402
 20
233.409
 11
728.16
 21
236.222
  0
LINE
  8
Layer2
  6
CONTINUOUS
 62
7
 10
728.765
 20
232.706
 11
729.02
 21
231.225
  0
LINE
  8
Layer2
  6
CONTINUOUS
 62
7
 10
735.035
 20
246.217
 11
732.457
 21
246.217
  0
LINE
  8
Layer2
  6
CONTINUOUS
 62
7
 10
732.457
 20
241.22
 11
735.035
 21
241.22
  0
LINE
  8
Layer2
  6
CONTINUOUS
 62
7
 10
734.175
 20
231.225
 11
736.753
 21
231.225
  0
LINE
  8
Layer2
  6
CONTINUOUS
 62
7
 10
735.035
 20
246.217
 11
735.035
 21
241.22
  0
LINE
  8
Layer2
  6
CONTINUOUS
 62
7
 10
732.457
 20
246.217
 11
732.457
 21
241.22
  0
LINE
  8
Layer2
  6
CONTINUOUS
 62
7
 10
734.175
 20
231.225
 11
734.175
 21
227.978
  0
LINE
  8
Layer2
  6
CONTINUOUS
 62
7
 10
736.753
 20
231.225
 11
736.753
 21
226.826
  0
LINE
  8
Layer2
  6
CONTINUOUS
 62
7
 10
732.457
 20
241.22
 11
734.175
 21
231.225
  0
LINE
  8
Layer2
  6
CONTINUOUS
 62
7
 10
735.035
 20
241.22
 11
736.753
 21
231.225
  0
LINE
  8
Layer2
  6
CONTINUOUS
 62
7
 10
733.316
 20
236.222
 11
734.016
 21
228.064
  0
LINE
  8
Layer2
  6
CONTINUOUS
 62
7
 10
735.249
 20
246.217
 11
735.894
 21
236.222
  0
LINE
  8
Layer2
  6
DASHED1
 62
7
 10
734.175
 20
226.201
 11
733.984
 21
228.436
  0
LINE
  8
Layer2
  6
DASHED1
 62
7
 10
734.175
 20
227.978
 11
734.175
 21
226.201
  0
LINE
  8
Layer2
  6
CONTINUOUS
 62
7
 10
736.753
 20
226.826
 11
736.753
 21
226.201
  0
LINE
  8
Layer2
  6
DASHED1
 62
7
 10
752.402
 20
319.478
 11
793.184
 21
319.478
  0
LINE
  8
Layer2
  6
CONTINUOUS
 62
7
 10
607.184
 20
320.378
 11
607.184
 21
315.878
  0
LINE
  8
Layer2
  6
CONTINUOUS
 62
7
 10
584.184
 20
320.378
 11
585.184
 21
321.378
  0
POLYLINE
  8
Layer2
  6
CONTINUOUS
 62
7
 66
1
 10
0
 20
0
 30
0
  0
VERTEX
  8
Layer2
 10
609.804
 20
321.378
  0
VERTEX
  8
Layer2
 10
609.812
 20
321.058
  0
VERTEX
  8
Layer2
 10
609.82
 20
320.737
  0
VERTEX
  8
Layer2
 10
609.828
 20
320.416
  0
VERTEX
  8
Layer2
 10
609.836
 20
320.093
  0
VERTEX
  8
Layer2
 10
609.844
 20
319.769
  0
VERTEX
  8
Layer2
 10
609.853
 20
319.442
  0
VERTEX
  8
Layer2
 10
609.862
 20
319.113
  0
VERTEX
  8
Layer2
 10
609.872
 20
318.78
  0
VERTEX
  8
Layer2
 10
609.882
 20
318.444
  0
VERTEX
  8
Layer2
 10
609.892
 20
318.103
  0
VERTEX
  8
Layer2
 10
609.904
 20
317.758
  0
VERTEX
  8
Layer2
 10
609.916
 20
317.408
  0
VERTEX
  8
Layer2
 10
609.929
 20
317.053
  0
VERTEX
  8
Layer2
 10
609.942
 20
316.692
  0
VERTEX
  8
Layer2
 10
609.957
 20
316.324
  0
VERTEX
  8
Layer2
 10
609.971
 20
315.951
  0
VERTEX
  8
Layer2
 10
609.984
 20
315.575
  0
VERTEX
  8
Layer2
 10
609.993
 20
315.197
  0
VERTEX
  8
Layer2
 10
609.999
 20
314.818
  0
VERTEX
  8
Layer2
 10
609.998
 20
314.44
  0
VERTEX
  8
Layer2
 10
609.991
 20
314.065
  0
VERTEX
  8
Layer2
 10
609.975
 20
313.694
  0
VERTEX
  8
Layer2
 10
609.949
 20
313.329
  0
VERTEX
  8
Layer2
 10
609.913
 20
312.971
  0
VERTEX
  8
Layer2
 10
609.863
 20
312.622
  0
VERTEX
  8
Layer2
 10
609.8
 20
312.284
  0
VERTEX
  8
Layer2
 10
609.721
 20
311.957
  0
VERTEX
  8
Layer2
 10
609.626
 20
311.644
  0
VERTEX
  8
Layer2
 10
609.513
 20
311.346
  0
VERTEX
  8
Layer2
 10
609.38
 20
311.065
  0
VERTEX
  8
Layer2
 10
609.227
 20
310.802
  0
VERTEX
  8
Layer2
 10
609.051
 20
310.558
  0
VERTEX
  8
Layer2
 10
608.853
 20
310.336
  0
VERTEX
  8
Layer2
 10
608.629
 20
310.137
  0
VERTEX
  8
Layer2
 10
608.38
 20
309.96
  0
VERTEX
  8
Layer2
 10
608.11
 20
309.803
  0
VERTEX
  8
Layer2
 10
607.821
 20
309.661
  0
VERTEX
  8
Layer2
 10
607.517
 20
309.531
  0
VERTEX
  8
Layer2
 10
607.201
 20
309.408
  0
VERTEX
  8
Layer2
 10
606.877
 20
309.288
  0
VERTEX
  8
Layer2
 10
606.548
 20
309.169
  0
VERTEX
  8
Layer2
 10
606.218
 20
309.045
  0
VERTEX
  8
Layer2
 10
605.889
 20
308.913
  0
VERTEX
  8
Layer2
 10
605.565
 20
308.769
  0
VERTEX
  8
Layer2
 10
605.25
 20
308.609
  0
VERTEX
  8
Layer2
 10
604.944
 20
308.433
  0
VERTEX
  8
Layer2
 10
604.646
 20
308.244
  0
VERTEX
  8
Layer2
 10
604.355
 20
308.044
  0
VERTEX
  8
Layer2
 10
604.071
 20
307.836
  0
VERTEX
  8
Layer2
 10
603.791
 20
307.622
  0
VERTEX
  8
Layer2
 10
603.516
 20
307.404
  0
VERTEX
  8
Layer2
 10
603.244
 20
307.185
  0
VERTEX
  8
Layer2
 10
602.974
 20
306.969
  0
VERTEX
  8
Layer2
 10
602.705
 20
306.756
  0
VERTEX
  8
Layer2
 10
602.436
 20
306.55
  0
VERTEX
  8
Layer2
 10
602.166
 20
306.353
  0
VERTEX
  8
Layer2
 10
601.894
 20
306.168
  0
VERTEX
  8
Layer2
 10
601.619
 20
305.997
  0
VERTEX
  8
Layer2
 10
601.34
 20
305.842
  0
VERTEX
  8
Layer2
 10
601.056
 20
305.707
  0
VERTEX
  8
Layer2
 10
600.766
 20
305.594
  0
VERTEX
  8
Layer2
 10
600.47
 20
305.504
  0
VERTEX
  8
Layer2
 10
600.165
 20
305.441
  0
VERTEX
  8
Layer2
 10
599.853
 20
305.403
  0
VERTEX
  8
Layer2
 10
599.533
 20
305.388
  0
VERTEX
  8
Layer2
 10
599.208
 20
305.391
  0
VERTEX
  8
Layer2
 10
598.877
 20
305.41
  0
VERTEX
  8
Layer2
 10
598.542
 20
305.442
  0
VERTEX
  8
Layer2
 10
598.203
 20
305.483
  0
VERTEX
  8
Layer2
 10
597.862
 20
305.531
  0
VERTEX
  8
Layer2
 10
597.518
 20
305.582
  0
VERTEX
  8
Layer2
 10
597.173
 20
305.633
  0
VERTEX
  8
Layer2
 10
596.828
 20
305.682
  0
VERTEX
  8
Layer2
 10
596.483
 20
305.725
  0
VERTEX
  8
Layer2
 10
596.139
 20
305.758
  0
VERTEX
  8
Layer2
 10
595.798
 20
305.78
  0
VERTEX
  8
Layer2
 10
595.459
 20
305.786
  0
VERTEX
  8
Layer2
 10
595.124
 20
305.774
  0
VERTEX
  8
Layer2
 10
594.793
 20
305.741
  0
VERTEX
  8
Layer2
 10
594.466
 20
305.69
  0
VERTEX
  8
Layer2
 10
594.143
 20
305.621
  0
VERTEX
  8
Layer2
 10
593.823
 20
305.536
  0
VERTEX
  8
Layer2
 10
593.505
 20
305.438
  0
VERTEX
  8
Layer2
 10
593.19
 20
305.327
  0
VERTEX
  8
Layer2
 10
592.878
 20
305.206
  0
VERTEX
  8
Layer2
 10
592.567
 20
305.076
  0
VERTEX
  8
Layer2
 10
592.257
 20
304.938
  0
VERTEX
  8
Layer2
 10
591.949
 20
304.795
  0
VERTEX
  8
Layer2
 10
591.641
 20
304.648
  0
VERTEX
  8
Layer2
 10
591.333
 20
304.499
  0
VERTEX
  8
Layer2
 10
591.026
 20
304.349
  0
VERTEX
  8
Layer2
 10
590.718
 20
304.2
  0
VERTEX
  8
Layer2
 10
590.409
 20
304.054
  0
VERTEX
  8
Layer2
 10
590.099
 20
303.913
  0
VERTEX
  8
Layer2
 10
589.788
 20
303.778
  0
VERTEX
  8
Layer2
 10
589.475
 20
303.65
  0
VERTEX
  8
Layer2
 10
589.159
 20
303.532
  0
VERTEX
  8
Layer2
 10
588.842
 20
303.425
  0
VERTEX
  8
Layer2
 10
588.521
 20
303.331
  0
VERTEX
  8
Layer2
 10
588.198
 20
303.248
  0
VERTEX
  8
Layer2
 10
587.872
 20
303.176
  0
VERTEX
  8
Layer2
 10
587.544
 20
303.114
  0
VERTEX
  8
Layer2
 10
587.214
 20
303.061
  0
VERTEX
  8
Layer2
 10
586.882
 20
303.016
  0
VERTEX
  8
Layer2
 10
586.548
 20
302.979
  0
VERTEX
  8
Layer2
 10
586.213
 20
302.948
  0
VERTEX
  8
Layer2
 10
585.877
 20
302.922
  0
VERTEX
  8
Layer2
 10
585.54
 20
302.901
  0
VERTEX
  8
Layer2
 10
585.201
 20
302.883
  0
VERTEX
  8
Layer2
 10
584.863
 20
302.869
  0
VERTEX
  8
Layer2
 10
584.524
 20
302.856
  0
VERTEX
  8
Layer2
 10
584.184
 20
302.844
  0
SEQEND
  0
LINE
  8
Layer2
  6
CENTER1
 62
7
 10
624.184
 20
317.296
 11
624.184
 21
342.288
  0
LINE
  8
Layer2
  6
CENTER1
 62
7
 10
662.184
 20
324.409
 11
662.184
 21
347.08
  0
LINE
  8
Layer2
  6
CENTER1
 62
7
 10
700.184
 20
345.821
 11
700.184
 21
314.03
  0
LINE
  8
Layer2
  6
CONTINUOUS
 62
7
 10
711.184
 20
322.378
 11
711.184
 21
336.378
  0
LINE
  8
Layer2
  6
CONTINUOUS
 62
7
 10
710.184
 20
337.378
 11
711.184
 21
336.378
  0
LINE
  8
Layer2
  6
CONTINUOUS
 62
7
 10
710.184
 20
321.378
 11
711.184
 21
322.378
  0
LINE
  8
Layer2
  6
DASHED1
 62
7
 10
706.684
 20
337.378
 11
706.684
 21
329.378
  0
LINE
  8
Layer2
  6
DASHED1
 62
7
 10
693.684
 20
337.378
 11
693.684
 21
329.378
  0
LINE
  8
Layer2
  6
DASHED1
 62
7
 10
693.684
 20
329.378
 11
706.684
 21
329.378
  0
LINE
  8
Layer2
  6
CONTINUOUS
 62
7
 10
704.184
 20
329.378
 11
704.184
 21
321.378
  0
LINE
  8
Layer2
  6
CONTINUOUS
 62
7
 10
696.184
 20
329.378
 11
696.184
 21
321.378
  0
LINE
  8
Layer2
  6
CENTER1
 62
7
 10
728.184
 20
420.104
 11
728.184
 21
390.553
  0
LINE
  8
Layer2
  6
CENTER1
 62
7
 10
778.184
 20
419.398
 11
778.184
 21
390.404
  0
ARC
  8
Layer2
  6
CONTINUOUS
 62
7
 10
788.184
 20
304.478
 40
5
 50
270
 51
2.03555e-013
  0
LINE
  8
Layer2
  6
CONTINUOUS
 62
7
 10
808.184
 20
491.173
 11
808.184
 21
584.173
  0
LINE
  8
Layer2
  6
CONTINUOUS
 62
7
 10
793.184
 20
470.673
 11
793.184
 21
604.673
  0
LINE
  8
Layer2
  6
CONTINUOUS
 62
7
 10
713.184
 20
491.173
 11
713.184
 21
584.173
  0
LINE
  8
Layer2
  6
CONTINUOUS
 62
7
 10
613.184
 20
470.673
 11
613.184
 21
604.673
  0
LINE
  8
Layer2
  6
CONTINUOUS
 62
7
 10
607.184
 20
513.673
 11
607.184
 21
561.673
  0
LINE
  8
Layer2
  6
CONTINUOUS
 62
7
 10
584.184
 20
561.673
 11
584.184
 21
513.673
  0
LINE
  8
Layer2
  6
CONTINUOUS
 62
7
 10
711.184
 20
491.673
 11
711.184
 21
583.673
  0
LINE
  8
Layer2
  6
CONTINUOUS
 62
7
 10
615.184
 20
606.673
 11
791.184
 21
606.673
  0
LINE
  8
Layer2
  6
CONTINUOUS
 62
7
 10
614.184
 20
584.673
 11
710.184
 21
584.673
  0
LINE
  8
Layer2
  6
CONTINUOUS
 62
7
 10
615.184
 20
468.673
 11
791.184
 21
468.673
  0
LINE
  8
Layer2
  6
CONTINUOUS
 62
7
 10
710.184
 20
490.673
 11
614.184
 21
490.673
  0
LINE
  8
Layer2
  6
CONTINUOUS
 62
7
 10
808.184
 20
581.673
 11
817.584
 21
581.673
  0
LINE
  8
Layer2
  6
CONTINUOUS
 62
7
 10
808.184
 20
565.673
 11
817.584
 21
565.673
  0
LINE
  8
Layer2
  6
CONTINUOUS
 62
7
 10
817.584
 20
581.673
 11
817.584
 21
565.673
  0
LINE
  8
Layer2
  6
CONTINUOUS
 62
7
 10
818.184
 20
581.073
 11
818.184
 21
566.273
  0
LINE
  8
Layer2
  6
CONTINUOUS
 62
7
 10
817.584
 20
581.673
 11
818.184
 21
581.073
  0
LINE
  8
Layer2
  6
CONTINUOUS
 62
7
 10
817.584
 20
565.673
 11
818.184
 21
566.273
  0
LINE
  8
Layer2
  6
CONTINUOUS
 62
7
 10
808.184
 20
565.673
 11
808.184
 21
581.673
  0
LINE
  8
Layer2
  6
CENTER1
 62
7
 10
578.966
 20
554.173
 11
622.557
 21
554.173
  0
LINE
  8
Layer2
  6
CONTINUOUS
 62
7
 10
585.184
 20
562.673
 11
606.184
 21
562.673
  0
LINE
  8
Layer2
  6
CONTINUOUS
 62
7
 10
585.184
 20
512.673
 11
606.184
 21
512.673
  0
LINE
  8
Layer2
  6
CONTINUOUS
 62
7
 10
610.684
 20
562.673
 11
608.184
 21
562.673
  0
LINE
  8
Layer2
  6
CONTINUOUS
 62
7
 10
610.684
 20
512.673
 11
608.184
 21
512.673
  0
LINE
  8
Layer2
  6
CONTINUOUS
 62
7
 10
608.184
 20
562.673
 11
607.184
 21
561.673
  0
LINE
  8
Layer2
  6
CONTINUOUS
 62
7
 10
607.184
 20
561.673
 11
606.184
 21
562.673
  0
LINE
  8
Layer2
  6
CONTINUOUS
 62
7
 10
607.184
 20
513.673
 11
608.184
 21
512.673
  0
LINE
  8
Layer2
  6
CONTINUOUS
 62
7
 10
607.184
 20
513.673
 11
606.184
 21
512.673
  0
LINE
  8
Layer2
  6
CONTINUOUS
 62
7
 10
585.184
 20
512.673
 11
584.184
 21
513.673
  0
LINE
  8
Layer2
  6
CONTINUOUS
 62
7
 10
584.184
 20
561.673
 11
585.184
 21
562.673
  0
LINE
  8
Layer2
  6
CENTER1
 62
7
 10
579.5
 20
521.173
 11
622.436
 21
521.173
  0
LINE
  8
Layer2
  6
CENTER1
 62
7
 10
566.689
 20
537.673
 11
815.523
 21
537.673
  0
LINE
  8
Layer2
  6
CONTINUOUS
 62
7
 10
792.184
 20
585.173
 11
714.184
 21
585.173
  0
LINE
  8
Layer2
  6
CONTINUOUS
 62
7
 10
714.184
 20
490.173
 11
792.184
 21
490.173
  0
LINE
  8
Layer2
  6
CONTINUOUS
 62
7
 10
793.184
 20
604.673
 11
793.184
 21
491.173
  0
LINE
  8
Layer2
  6
CONTINUOUS
 62
7
 10
713.184
 20
584.173
 11
714.184
 21
585.173
  0
LINE
  8
Layer2
  6
CONTINUOUS
 62
7
 10
792.184
 20
585.173
 11
793.184
 21
584.173
  0
LINE
  8
Layer2
  6
CONTINUOUS
 62
7
 10
793.184
 20
491.173
 11
792.184
 21
490.173
  0
LINE
  8
Layer2
  6
CONTINUOUS
 62
7
 10
713.184
 20
491.173
 11
714.184
 21
490.173
  0
LINE
  8
Layer2
  6
DASHED1
 62
7
 10
613.184
 20
562.673
 11
793.184
 21
562.673
  0
LINE
  8
Layer2
  6
DASHED1
 62
7
 10
613.184
 20
512.673
 11
793.184
 21
512.673
  0
LINE
  8
Layer2
  6
CENTER1
 62
7
 10
778.184
 20
563.544
 11
778.184
 21
585.266
  0
LINE
  8
Layer2
  6
CENTER1
 62
7
 10
700.184
 20
494.304
 11
700.184
 21
510.641
  0
LINE
  8
Layer2
  6
CENTER1
 62
7
 10
700.184
 20
566.275
 11
700.184
 21
582.741
  0
LINE
  8
Layer2
  6
CENTER1
 62
7
 10
662.184
 20
566.275
 11
662.184
 21
582.873
  0
LINE
  8
Layer2
  6
CENTER1
 62
7
 10
624.184
 20
566.275
 11
624.184
 21
582.741
  0
LINE
  8
Layer2
  6
CENTER1
 62
7
 10
662.184
 20
494.304
 11
662.184
 21
510.641
  0
LINE
  8
Layer2
  6
CENTER1
 62
7
 10
624.184
 20
494.304
 11
624.184
 21
510.641
  0
LINE
  8
Layer2
  6
CENTER1
 62
7
 10
615.809
 20
573.673
 11
632.587
 21
573.673
  0
LINE
  8
Layer2
  6
CENTER1
 62
7
 10
653.339
 20
573.673
 11
672.326
 21
573.673
  0
LINE
  8
Layer2
  6
CENTER1
 62
7
 10
689.987
 20
573.673
 11
708.09
 21
573.673
  0
LINE
  8
Layer2
  6
CENTER1
 62
7
 10
613.184
 20
501.673
 11
632.587
 21
501.673
  0
LINE
  8
Layer2
  6
CENTER1
 62
7
 10
654.664
 20
501.673
 11
671.884
 21
501.673
  0
LINE
  8
Layer2
  6
CENTER1
 62
7
 10
693.52
 20
501.673
 11
706.324
 21
501.673
  0
CIRCLE
  8
Layer2
  6
CONTINUOUS
 62
7
 10
624.198
 20
573.673
 40
6.5
  0
POLYLINE
  8
Layer2
  6
CONTINUOUS
 62
7
 66
1
 10
0
 20
0
 30
0
 70
1
  0
VERTEX
  8
Layer2
 10
621.227
 20
571.958
  0
VERTEX
  8
Layer2
 10
624.198
 20
570.243
  0
VERTEX
  8
Layer2
 10
627.168
 20
571.958
  0
VERTEX
  8
Layer2
 10
627.168
 20
575.388
  0
VERTEX
  8
Layer2
 10
624.198
 20
577.103
  0
VERTEX
  8
Layer2
 10
621.227
 20
575.388
  0
SEQEND
  0
CIRCLE
  8
Layer2
  6
CONTINUOUS
 62
7
 10
662.184
 20
573.673
 40
6.5
  0
POLYLINE
  8
Layer2
  6
CONTINUOUS
 62
7
 66
1
 10
0
 20
0
 30
0
 70
1
  0
VERTEX
  8
Layer2
 10
659.214
 20
571.958
  0
VERTEX
  8
Layer2
 10
662.184
 20
570.243
  0
VERTEX
  8
Layer2
 10
665.155
 20
571.958
  0
VERTEX
  8
Layer2
 10
665.155
 20
575.388
  0
VERTEX
  8
Layer2
 10
662.184
 20
577.103
  0
VERTEX
  8
Layer2
 10
659.214
 20
575.388
  0
SEQEND
  0
CIRCLE
  8
Layer2
  6
CONTINUOUS
 62
7
 10
700.184
 20
573.673
 40
6.5
  0
POLYLINE
  8
Layer2
  6
CONTINUOUS
 62
7
 66
1
 10
0
 20
0
 30
0
 70
1
  0
VERTEX
  8
Layer2
 10
697.214
 20
571.958
  0
VERTEX
  8
Layer2
 10
700.184
 20
570.243
  0
VERTEX
  8
Layer2
 10
703.155
 20
571.958
  0
VERTEX
  8
Layer2
 10
703.155
 20
575.388
  0
VERTEX
  8
Layer2
 10
700.184
 20
577.103
  0
VERTEX
  8
Layer2
 10
697.214
 20
575.388
  0
SEQEND
  0
CIRCLE
  8
Layer2
  6
CONTINUOUS
 62
7
 10
624.184
 20
501.673
 40
6.5
  0
POLYLINE
  8
Layer2
  6
CONTINUOUS
 62
7
 66
1
 10
0
 20
0
 30
0
 70
1
  0
VERTEX
  8
Layer2
 10
621.214
 20
499.958
  0
VERTEX
  8
Layer2
 10
624.184
 20
498.243
  0
VERTEX
  8
Layer2
 10
627.155
 20
499.958
  0
VERTEX
  8
Layer2
 10
627.155
 20
503.388
  0
VERTEX
  8
Layer2
 10
624.184
 20
505.103
  0
VERTEX
  8
Layer2
 10
621.214
 20
503.388
  0
SEQEND
  0
CIRCLE
  8
Layer2
  6
CONTINUOUS
 62
7
 10
662.184
 20
501.673
 40
6.5
  0
POLYLINE
  8
Layer2
  6
CONTINUOUS
 62
7
 66
1
 10
0
 20
0
 30
0
 70
1
  0
VERTEX
  8
Layer2
 10
659.214
 20
499.958
  0
VERTEX
  8
Layer2
 10
662.184
 20
498.243
  0
VERTEX
  8
Layer2
 10
665.155
 20
499.958
  0
VERTEX
  8
Layer2
 10
665.155
 20
503.388
  0
VERTEX
  8
Layer2
 10
662.184
 20
505.103
  0
VERTEX
  8
Layer2
 10
659.214
 20
503.388
  0
SEQEND
  0
CIRCLE
  8
Layer2
  6
CONTINUOUS
 62
7
 10
700.184
 20
501.673
 40
6.5
  0
POLYLINE
  8
Layer2
  6
CONTINUOUS
 62
7
 66
1
 10
0
 20
0
 30
0
 70
1
  0
VERTEX
  8
Layer2
 10
697.214
 20
499.958
  0
VERTEX
  8
Layer2
 10
700.184
 20
498.243
  0
VERTEX
  8
Layer2
 10
703.155
 20
499.958
  0
VERTEX
  8
Layer2
 10
703.155
 20
503.388
  0
VERTEX
  8
Layer2
 10
700.184
 20
505.103
  0
VERTEX
  8
Layer2
 10
697.214
 20
503.388
  0
SEQEND
  0
LINE
  8
Layer2
  6
CENTER1
 62
7
 10
633.184
 20
615.246
 11
633.184
 21
583.517
  0
LINE
  8
Layer2
  6
CENTER1
 62
7
 10
703.184
 20
614.453
 11
703.184
 21
583.12
  0
LINE
  8
Layer2
  6
CENTER1
 62
7
 10
633.184
 20
490.173
 11
633.184
 21
469.037
  0
LINE
  8
Layer2
  6
CENTER1
 62
7
 10
703.184
 20
490.173
 11
703.184
 21
470.116
  0
LINE
  8
Layer2
  6
CENTER1
 62
7
 10
778.184
 20
493.099
 11
778.184
 21
511.645
  0
LINE
  8
Layer2
  6
CENTER1
 62
7
 10
621.003
 20
595.673
 11
783.91
 21
595.673
  0
LINE
  8
Layer2
  6
CENTER1
 62
7
 10
621.742
 20
479.673
 11
783.91
 21
479.673
  0
LINE
  8
Layer2
  6
CENTER1
 62
7
 10
773.184
 20
612.055
 11
773.184
 21
585.173
  0
LINE
  8
Layer2
  6
CENTER1
 62
7
 10
773.184
 20
490.173
 11
773.184
 21
468.904
  0
LINE
  8
Layer2
  6
CENTER1
 62
7
 10
728.184
 20
493.099
 11
728.184
 21
511.516
  0
LINE
  8
Layer2
  6
CENTER1
 62
7
 10
728.184
 20
563.647
 11
728.184
 21
585.266
  0
CIRCLE
  8
Layer2
  6
CONTINUOUS
 62
7
 10
633.184
 20
595.673
 40
5.5
  0
CIRCLE
  8
Layer2
  6
CONTINUOUS
 62
7
 10
633.184
 20
595.673
 40
8.5
  0
CIRCLE
  8
Layer2
  6
CONTINUOUS
 62
7
 10
703.184
 20
595.673
 40
5.5
  0
CIRCLE
  8
Layer2
  6
CONTINUOUS
 62
7
 10
703.184
 20
595.673
 40
8.5
  0
CIRCLE
  8
Layer2
  6
CONTINUOUS
 62
7
 10
773.184
 20
595.673
 40
5.5
  0
CIRCLE
  8
Layer2
  6
CONTINUOUS
 62
7
 10
773.184
 20
595.673
 40
8.5
  0
CIRCLE
  8
Layer2
  6
CONTINUOUS
 62
7
 10
773.184
 20
479.673
 40
5.5
  0
CIRCLE
  8
Layer2
  6
CONTINUOUS
 62
7
 10
773.184
 20
479.673
 40
8.5
  0
CIRCLE
  8
Layer2
  6
CONTINUOUS
 62
7
 10
703.184
 20
479.673
 40
5.5
  0
CIRCLE
  8
Layer2
  6
CONTINUOUS
 62
7
 10
703.184
 20
479.673
 40
8.5
  0
CIRCLE
  8
Layer2
  6
CONTINUOUS
 62
7
 10
633.094
 20
479.673
 40
5.5
  0
CIRCLE
  8
Layer2
  6
CONTINUOUS
 62
7
 10
633.094
 20
479.673
 40
8.5
  0
CIRCLE
  8
Layer2
  6
CONTINUOUS
 62
7
 10
778.184
 20
573.673
 40
5.5
  0
CIRCLE
  8
Layer2
  6
DASHED1
 62
7
 10
778.184
 20
573.673
 40
8.5
  0
CIRCLE
  8
Layer2
  6
CONTINUOUS
 62
7
 10
728.184
 20
573.673
 40
5.5
  0
CIRCLE
  8
Layer2
  6
DASHED1
 62
7
 10
728.184
 20
573.673
 40
8.5
  0
CIRCLE
  8
Layer2
  6
CONTINUOUS
 62
7
 10
778.184
 20
501.673
 40
5.5
  0
CIRCLE
  8
Layer2
  6
DASHED1
 62
7
 10
778.184
 20
501.673
 40
8.5
  0
CIRCLE
  8
Layer2
  6
CONTINUOUS
 62
7
 10
728.184
 20
501.673
 40
5.5
  0
CIRCLE
  8
Layer2
  6
DASHED1
 62
7
 10
728.184
 20
501.673
 40
8.5
  0
LINE
  8
Layer2
  6
CENTER1
 62
7
 10
716.32
 20
501.673
 11
790.296
 21
501.673
  0
LINE
  8
Layer2
  6
CENTER1
 62
7
 10
716.819
 20
573.673
 11
791.437
 21
573.673
  0
LINE
  8
Layer2
  6
CONTINUOUS
 62
7
 10
807.184
 20
585.173
 11
794.184
 21
585.173
  0
LINE
  8
Layer2
  6
CONTINUOUS
 62
7
 10
794.184
 20
490.173
 11
807.184
 21
490.173
  0
LINE
  8
Layer2
  6
CONTINUOUS
 62
7
 10
793.184
 20
584.173
 11
794.184
 21
585.173
  0
LINE
  8
Layer2
  6
CONTINUOUS
 62
7
 10
807.184
 20
585.173
 11
808.184
 21
584.173
  0
LINE
  8
Layer2
  6
CONTINUOUS
 62
7
 10
808.184
 20
491.173
 11
807.184
 21
490.173
  0
LINE
  8
Layer2
  6
CONTINUOUS
 62
7
 10
794.184
 20
490.173
 11
793.184
 21
491.173
  0
LINE
  8
Layer2
  6
CENTER1
 62
7
 10
790.659
 20
573.673
 11
824.427
 21
573.673
  0
LINE
  8
Layer2
  6
CENTER1
 62
7
 10
790.296
 20
501.673
 11
823.7
 21
501.673
  0
LINE
  8
Layer2
  6
CONTINUOUS
 62
7
 10
808.184
 20
509.673
 11
817.584
 21
509.673
  0
LINE
  8
Layer2
  6
CONTINUOUS
 62
7
 10
808.184
 20
493.673
 11
817.584
 21
493.673
  0
LINE
  8
Layer2
  6
CONTINUOUS
 62
7
 10
817.584
 20
509.673
 11
817.584
 21
493.673
  0
LINE
  8
Layer2
  6
CONTINUOUS
 62
7
 10
818.184
 20
509.073
 11
818.184
 21
494.273
  0
LINE
  8
Layer2
  6
CONTINUOUS
 62
7
 10
817.584
 20
509.673
 11
818.184
 21
509.073
  0
LINE
  8
Layer2
  6
CONTINUOUS
 62
7
 10
817.584
 20
493.673
 11
818.184
 21
494.273
  0
LINE
  8
Layer2
  6
CONTINUOUS
 62
7
 10
808.184
 20
493.673
 11
808.184
 21
509.673
  0
LINE
  8
Layer2
  6
CONTINUOUS
 62
7
 10
793.184
 20
604.673
 11
791.184
 21
606.673
  0
LINE
  8
Layer2
  6
CONTINUOUS
 62
7
 10
793.184
 20
470.673
 11
791.184
 21
468.673
  0
LINE
  8
Layer2
  6
CONTINUOUS
 62
7
 10
613.184
 20
470.673
 11
615.184
 21
468.673
  0
LINE
  8
Layer2
  6
CONTINUOUS
 62
7
 10
613.184
 20
604.673
 11
615.184
 21
606.673
  0
LINE
  8
Layer2
  6
CENTER1
 62
7
 10
662.184
 20
546.008
 11
662.184
 21
528.892
  0
CIRCLE
  8
Layer2
  6
CONTINUOUS
 62
7
 10
662.184
 20
537.673
 40
3.76681
  0
ARC
  8
Layer2
  6
CONTINUOUS
 62
7
 10
657.711
 20
537.708
 40
1
 50
140.711
 51
225
  0
LINE
  8
Layer2
  6
CONTINUOUS
 62
7
 10
666.694
 20
539.317
 11
668.958
 21
539.317
  0
LINE
  8
Layer2
  6
CONTINUOUS
 62
7
 10
666.694
 20
535.832
 11
668.958
 21
535.832
  0
LINE
  8
Layer2
  6
CONTINUOUS
 62
7
 10
668.958
 20
539.317
 11
668.958
 21
535.832
  0
ARC
  8
Layer2
  6
CONTINUOUS
 62
7
 10
662.184
 20
537.673
 40
4.80058
 50
20.031
 51
140.098
  0
ARC
  8
Layer2
  6
CONTINUOUS
 62
7
 10
662.184
 20
537.673
 40
4.80058
 50
218.056
 51
337.793
  0
ARC
  8
Layer2
  6
CONTINUOUS
 62
7
 10
649.292
 20
530.423
 40
10.1292
 50
24.1178
 51
40.4581
  0
ARC
  8
Layer2
  6
CONTINUOUS
 62
7
 10
649.23
 20
544.914
 40
10.1292
 50
319.542
 51
335.882
  0
ARC
  8
Layer2
  6
CONTINUOUS
 62
7
 10
667.826
 20
539.317
 40
0.542282
 50
0
 51
180
  0
ARC
  8
Layer2
  6
CONTINUOUS
 62
7
 10
667.826
 20
535.832
 40
0.657613
 50
180
 51
2.03555e-013
  0
LINE
  8
Layer2
  6
CONTINUOUS
 62
7
 10
711.184
 20
583.673
 11
710.184
 21
584.673
  0
LINE
  8
Layer2
  6
CONTINUOUS
 62
7
 10
614.184
 20
584.673
 11
613.184
 21
583.673
  0
LINE
  8
Layer2
  6
CONTINUOUS
 62
7
 10
613.184
 20
491.673
 11
614.184
 21
490.673
  0
LINE
  8
Layer2
  6
CONTINUOUS
 62
7
 10
710.184
 20
490.673
 11
711.184
 21
491.673
  0
LINE
  8
Layer2
  6
CENTER1
 62
7
 10
765.85
 20
258.378
 11
797.275
 21
258.378
  0
LINE
  8
Layer2
  6
DASHED1
 62
7
 10
775.184
 20
263.378
 11
775.184
 21
253.378
  0
LINE
  8
Layer2
  6
DASHED1
 62
7
 10
770.184
 20
262.378
 11
793.184
 21
262.378
  0
LINE
  8
Layer2
  6
DASHED1
 62
7
 10
770.184
 20
254.378
 11
793.184
 21
254.378
  0
LINE
  8
Layer2
  6
DASHED1
 62
7
 10
775.184
 20
263.378
 11
793.184
 21
263.378
  0
LINE
  8
Layer2
  6
DASHED1
 62
7
 10
775.184
 20
253.378
 11
793.184
 21
253.378
  0
LINE
  8
Layer2
  6
DASHED1
 62
7
 10
770.184
 20
262.378
 11
770.184
 21
254.378
  0
LINE
  8
Layer2
  6
DASHED1
 62
7
 10
767.875
 20
258.378
 11
770.184
 21
262.378
  0
LINE
  8
Layer2
  6
DASHED1
 62
7
 10
767.875
 20
258.378
 11
770.184
 21
254.378
  0
LINE
  8
Layer2
  6
DASHED1
 62
7
 10
775.184
 20
263.378
 11
773.452
 21
262.378
  0
LINE
  8
Layer2
  6
DASHED1
 62
7
 10
775.184
 20
253.378
 11
773.452
 21
254.378
  0
LINE
  8
Layer2
  6
DASHED1
 62
7
 10
773.452
 20
262.378
 11
773.452
 21
254.378
  0
LINE
  8
Layer2
  6
CONTINUOUS
 62
7
 10
665.184
 20
336.378
 11
666.184
 21
337.378
  0
TEXT
  8
Layer2
 62
7
 10
874.822
 20
347.189
 72
1
 11
874.822
 21
347.189
 40
4
 41
1
 50
90
  1
(オープンハイト）
  0
TEXT
  8
Layer2
 62
7
 10
858.024
 20
318.32
 72
1
 11
858.024
 21
318.32
 40
4
 41
1
 50
90
  1
 (シャットハイト）
  0
LINE
  8
Layer2
  6
DASHED1
 62
7
 10
793.184
 20
265.378
 11
808.184
 21
265.378
  0
LINE
  8
Layer2
  6
DASHED1
 62
7
 10
793.184
 20
251.378
 11
808.184
 21
251.378
  0
LINE
  8
Layer2
  6
CENTER1
 62
7
 10
790.022
 20
273.878
 11
816.304
 21
273.878
  0
LINE
  8
Layer2
  6
DASHED1
 62
7
 10
793.184
 20
277.878
 11
808.184
 21
277.878
  0
LINE
  8
Layer2
  6
DASHED1
 62
7
 10
793.184
 20
269.878
 11
808.184
 21
269.878
  0
LINE
  8
Layer2
  6
DASHED1
 62
7
 10
793.184
 20
278.378
 11
808.184
 21
278.378
  0
LINE
  8
Layer2
  6
DASHED1
 62
7
 10
793.184
 20
269.378
 11
808.184
 21
269.378
  0
LINE
  8
Layer2
  6
CENTER1
 62
7
 10
790.307
 20
256.878
 11
821.536
 21
256.878
  0
LINE
  8
Layer2
  6
CENTER1
 62
7
 10
814.793
 20
284.878
 11
788.814
 21
284.878
  0
LINE
  8
Layer2
  6
CENTER1
 62
7
 10
787.304
 20
312.878
 11
817.21
 21
312.878
  0
LINE
  8
Layer2
  6
DASHED1
 62
7
 10
380.232
 20
300.478
 11
380.232
 21
311.478
  0
LINE
  8
Layer2
  6
DASHED1
 62
7
 10
364.232
 20
300.478
 11
364.232
 21
311.478
  0
ARC
  8
Layer2
  6
DASHED1
 62
7
 10
372.232
 20
311.478
 40
8
 50
0
 51
180
  0
LINE
  8
Layer2
  6
DASHED1
 62
7
 10
364.232
 20
300.478
 11
363.232
 21
299.478
  0
LINE
  8
Layer2
  6
DASHED1
 62
7
 10
380.232
 20
300.478
 11
381.232
 21
299.478
  0
LINE
  8
Layer2
  6
DASHED1
 62
7
 10
381.232
 20
299.478
 11
395.232
 21
299.478
  0
LINE
  8
Layer2
  6
CENTER1
 62
7
 10
408.232
 20
340.909
 11
408.232
 21
316.658
  0
LINE
  8
Layer2
  6
CENTER1
 62
7
 10
336.232
 20
340.599
 11
336.232
 21
316.584
  0
LINE
  8
Layer2
  6
CENTER1
 62
7
 10
355.732
 20
302.795
 11
355.732
 21
297.043
  0
LINE
  8
Layer2
  6
CENTER1
 62
7
 10
353.461
 20
299.878
 11
358.652
 21
299.878
  0
CIRCLE
  8
Layer2
  6
CONTINUOUS
 62
7
 10
355.732
 20
299.878
 40
1.25
  0
LINE
  8
Layer2
  6
CENTER1
 62
7
 10
388.732
 20
270.795
 11
388.732
 21
265.043
  0
LINE
  8
Layer2
  6
CENTER1
 62
7
 10
386.461
 20
267.878
 11
391.652
 21
267.878
  0
CIRCLE
  8
Layer2
  6
CONTINUOUS
 62
7
 10
388.732
 20
267.878
 40
1.25
  0
TEXT
  8
Layer2
 62
7
 10
470.836
 20
269.399
 72
1
 11
470.836
 21
269.399
 40
4
 41
1
 50
90
  1
(中心間距離）
  0
LINE
  8
Layer2
  6
DASHED1
 62
7
 10
649.184
 20
232.217
 11
649.184
 21
240.217
  0
LINE
  8
Layer2
  6
DASHED1
 62
7
 10
648.184
 20
241.217
 11
613.184
 21
241.217
  0
LINE
  8
Layer2
  6
DASHED1
 62
7
 10
648.184
 20
231.217
 11
613.184
 21
231.217
  0
LINE
  8
Layer2
  6
DASHED1
 62
7
 10
648.184
 20
241.217
 11
649.184
 21
240.217
  0
LINE
  8
Layer2
  6
DASHED1
 62
7
 10
649.184
 20
232.217
 11
648.184
 21
231.217
  0
LINE
  8
Layer2
  6
CONTINUOUS
 62
7
 10
706.684
 20
329.378
 11
706.684
 21
336.878
  0
LINE
  8
Layer2
  6
CONTINUOUS
 62
7
 10
693.684
 20
329.378
 11
693.684
 21
336.878
  0
LINE
  8
Layer2
  6
CONTINUOUS
 62
7
 10
706.684
 20
336.878
 11
693.684
 21
336.878
  0
LINE
  8
Layer2
  6
CONTINUOUS
 62
7
 10
706.184
 20
337.378
 11
694.184
 21
337.378
  0
LINE
  8
Layer2
  6
CONTINUOUS
 62
7
 10
706.684
 20
336.878
 11
706.184
 21
337.378
  0
LINE
  8
Layer2
  6
CONTINUOUS
 62
7
 10
693.684
 20
336.878
 11
694.184
 21
337.378
  0
LINE
  8
Layer2
  6
CONTINUOUS
 62
7
 10
693.684
 20
329.378
 11
706.684
 21
329.378
  0
LINE
  8
Layer2
  6
CONTINUOUS
 62
7
 10
694.684
 20
329.955
 11
694.684
 21
336.301
  0
LINE
  8
Layer2
  6
CONTINUOUS
 62
7
 10
695.684
 20
330.532
 11
695.684
 21
335.724
  0
LINE
  8
Layer2
  6
CONTINUOUS
 62
7
 10
696.684
 20
331.109
 11
696.684
 21
335.147
  0
LINE
  8
Layer2
  6
CONTINUOUS
 62
7
 10
697.684
 20
331.686
 11
697.684
 21
334.57
  0
LINE
  8
Layer2
  6
CONTINUOUS
 62
7
 10
658.501
 20
321.378
 11
658.501
 21
307.896
  0
LINE
  8
Layer2
  6
CONTINUOUS
 62
7
 10
655.286
 20
321.378
 11
655.286
 21
311.822
  0
LINE
  8
Layer2
  6
CONTINUOUS
 62
7
 10
655.286
 20
320.378
 11
658.501
 21
320.378
  0
LINE
  8
Layer2
  6
CONTINUOUS
 62
7
 10
808.184
 20
320.878
 11
808.184
 21
304.878
  0
LINE
  8
Layer2
  6
CONTINUOUS
 62
7
 10
808.184
 20
320.878
 11
817.584
 21
320.878
  0
LINE
  8
Layer2
  6
CONTINUOUS
 62
7
 10
808.184
 20
304.878
 11
817.584
 21
304.878
  0
LINE
  8
Layer2
  6
CONTINUOUS
 62
7
 10
817.584
 20
320.878
 11
817.584
 21
304.878
  0
LINE
  8
Layer2
  6
CONTINUOUS
 62
7
 10
818.184
 20
320.278
 11
818.184
 21
305.478
  0
LINE
  8
Layer2
  6
CONTINUOUS
 62
7
 10
817.584
 20
320.878
 11
818.184
 21
320.278
  0
LINE
  8
Layer2
  6
CONTINUOUS
 62
7
 10
817.584
 20
304.878
 11
818.184
 21
305.478
  0
LINE
  8
Layer2
  6
CONTINUOUS
 62
7
 10
808.771
 20
319.878
 11
816.996
 21
319.878
  0
LINE
  8
Layer2
  6
CONTINUOUS
 62
7
 10
809.359
 20
318.878
 11
816.409
 21
318.878
  0
LINE
  8
Layer2
  6
CONTINUOUS
 62
7
 10
809.946
 20
317.878
 11
815.821
 21
317.878
  0
LINE
  8
Layer2
  6
CONTINUOUS
 62
7
 10
810.534
 20
316.878
 11
815.234
 21
316.878
  0
LINE
  8
Layer2
  6
CONTINUOUS
 62
7
 10
811.121
 20
315.878
 11
814.646
 21
315.878
  0
LINE
  8
Layer2
  6
CONTINUOUS
 62
7
 10
811.709
 20
314.878
 11
814.059
 21
314.878
  0
LINE
  8
Layer2
  6
CONTINUOUS
 62
7
 10
808.184
 20
292.878
 11
808.184
 21
276.878
  0
LINE
  8
Layer2
  6
CONTINUOUS
 62
7
 10
808.184
 20
292.878
 11
817.584
 21
292.878
  0
LINE
  8
Layer2
  6
CONTINUOUS
 62
7
 10
808.184
 20
276.878
 11
817.584
 21
276.878
  0
LINE
  8
Layer2
  6
CONTINUOUS
 62
7
 10
817.584
 20
292.878
 11
817.584
 21
276.878
  0
LINE
  8
Layer2
  6
CONTINUOUS
 62
7
 10
818.184
 20
292.278
 11
818.184
 21
277.478
  0
LINE
  8
Layer2
  6
CONTINUOUS
 62
7
 10
817.584
 20
292.878
 11
818.184
 21
292.278
  0
LINE
  8
Layer2
  6
CONTINUOUS
 62
7
 10
817.584
 20
276.878
 11
818.184
 21
277.478
  0
LINE
  8
Layer2
  6
CONTINUOUS
 62
7
 10
808.771
 20
291.878
 11
816.996
 21
291.878
  0
LINE
  8
Layer2
  6
CONTINUOUS
 62
7
 10
809.359
 20
290.878
 11
816.409
 21
290.878
  0
LINE
  8
Layer2
  6
CONTINUOUS
 62
7
 10
809.946
 20
289.878
 11
815.821
 21
289.878
  0
LINE
  8
Layer2
  6
CONTINUOUS
 62
7
 10
810.534
 20
288.878
 11
815.234
 21
288.878
  0
LINE
  8
Layer2
  6
CONTINUOUS
 62
7
 10
811.121
 20
287.878
 11
814.646
 21
287.878
  0
LINE
  8
Layer2
  6
CONTINUOUS
 62
7
 10
811.709
 20
286.878
 11
814.059
 21
286.878
  0
LINE
  8
Layer2
  6
CONTINUOUS
 62
7
 10
774.184
 20
246.382
 11
774.184
 21
223.878
  0
LINE
  8
Layer2
  6
CONTINUOUS
 62
7
 10
793.184
 20
247.378
 11
792.184
 21
246.378
  0
LINE
  8
Layer2
  6
CONTINUOUS
 62
7
 10
808.184
 20
264.878
 11
808.184
 21
248.878
  0
LINE
  8
Layer2
  6
CONTINUOUS
 62
7
 10
808.184
 20
264.878
 11
817.584
 21
264.878
  0
LINE
  8
Layer2
  6
CONTINUOUS
 62
7
 10
808.184
 20
248.878
 11
817.584
 21
248.878
  0
LINE
  8
Layer2
  6
CONTINUOUS
 62
7
 10
817.584
 20
264.878
 11
817.584
 21
248.878
  0
LINE
  8
Layer2
  6
CONTINUOUS
 62
7
 10
818.184
 20
264.278
 11
818.184
 21
249.478
  0
LINE
  8
Layer2
  6
CONTINUOUS
 62
7
 10
817.584
 20
264.878
 11
818.184
 21
264.278
  0
LINE
  8
Layer2
  6
CONTINUOUS
 62
7
 10
817.584
 20
248.878
 11
818.184
 21
249.478
  0
LINE
  8
Layer2
  6
CONTINUOUS
 62
7
 10
808.771
 20
263.878
 11
816.996
 21
263.878
  0
LINE
  8
Layer2
  6
CONTINUOUS
 62
7
 10
809.359
 20
262.878
 11
816.409
 21
262.878
  0
LINE
  8
Layer2
  6
CONTINUOUS
 62
7
 10
809.946
 20
261.878
 11
815.821
 21
261.878
  0
LINE
  8
Layer2
  6
CONTINUOUS
 62
7
 10
810.534
 20
260.878
 11
815.234
 21
260.878
  0
LINE
  8
Layer2
  6
CONTINUOUS
 62
7
 10
811.121
 20
259.878
 11
814.646
 21
259.878
  0
LINE
  8
Layer2
  6
CONTINUOUS
 62
7
 10
811.709
 20
258.878
 11
814.059
 21
258.878
  0
LINE
  8
Layer2
  6
PHANTOM1
 62
7
 10
566.184
 20
246.378
 11
545.184
 21
246.378
  0
LINE
  8
Layer2
  6
PHANTOM1
 62
7
 10
567.184
 20
320.378
 11
567.184
 21
247.378
  0
LINE
  8
Layer2
  6
PHANTOM1
 62
7
 10
544.184
 20
247.378
 11
544.184
 21
320.378
  0
LINE
  8
Layer2
  6
PHANTOM1
 62
7
 10
545.184
 20
321.378
 11
566.184
 21
321.378
  0
LINE
  8
Layer2
  6
PHANTOM1
 62
7
 10
567.184
 20
320.378
 11
566.184
 21
321.378
  0
LINE
  8
Layer2
  6
PHANTOM1
 62
7
 10
544.184
 20
247.378
 11
545.184
 21
246.378
  0
LINE
  8
Layer2
  6
PHANTOM1
 62
7
 10
567.184
 20
247.378
 11
566.184
 21
246.378
  0
LINE
  8
Layer2
  6
PHANTOM1
 62
7
 10
544.184
 20
320.378
 11
545.184
 21
321.378
  0
TEXT
  8
Layer2
 62
7
 10
562.059
 20
224.361
 72
1
 11
562.059
 21
224.361
 40
4
 41
1
  1
40
  0
LINE
  8
Layer2
  6
CONTINUOUS
 62
7
 10
544.184
 20
247.378
 11
544.184
 21
219.878
  0
LINE
  8
Layer2
  6
CONTINUOUS
 62
7
 10
584.184
 20
251.528
 11
584.184
 21
219.878
  0
LINE
  8
Layer2
  6
CONTINUOUS
 62
7
 10
544.184
 20
223.878
 11
584.184
 21
223.878
  0
POLYLINE
  8
Layer2
  6
CONTINUOUS
 62
7
 66
1
 10
0
 20
0
 30
0
  0
VERTEX
  8
Layer2
 10
546.115
 20
223.36
  0
VERTEX
  8
Layer2
 10
544.184
 20
223.878
  0
VERTEX
  8
Layer2
 10
546.115
 20
224.396
  0
SEQEND
  0
POLYLINE
  8
Layer2
  6
CONTINUOUS
 62
7
 66
1
 10
0
 20
0
 30
0
  0
VERTEX
  8
Layer2
 10
582.252
 20
224.396
  0
VERTEX
  8
Layer2
 10
584.184
 20
223.878
  0
VERTEX
  8
Layer2
 10
582.252
 20
223.36
  0
SEQEND
  0
LINE
  8
Layer2
  6
CENTER1
 62
7
 10
314.232
 20
217.636
 11
314.232
 21
252.876
  0
LINE
  8
Layer2
  6
CENTER1
 62
7
 10
430.232
 20
218.245
 11
430.232
 21
252.876
  0
POLYLINE
  8
Layer2
  6
CONTINUOUS
 62
7
 66
1
 10
0
 20
0
 30
0
  0
VERTEX
  8
Layer2
 10
389.615
 20
268.762
  0
VERTEX
  8
Layer2
 10
446.022
 20
346.872
  0
VERTEX
  8
Layer2
 10
446.022
 20
346.872
  0
SEQEND
  0
POLYLINE
  8
Layer2
  6
CONTINUOUS
 62
7
 66
1
 10
0
 20
0
 30
0
  0
VERTEX
  8
Layer2
 10
391.166
 20
270.025
  0
VERTEX
  8
Layer2
 10
389.615
 20
268.762
  0
VERTEX
  8
Layer2
 10
390.327
 20
270.631
  0
SEQEND
  0
LINE
  8
Layer2
  6
CONTINUOUS
 62
7
 10
446.022
 20
346.872
 11
514.022
 21
346.872
  0
TEXT
  8
Layer2
 62
7
 10
514.022
 20
346.872
 72
2
 11
514.022
 21
346.872
 40
8
 41
1
  1
2-φ2.5センター穴
  0
LINE
  8
Layer2
  6
CENTER1
 62
7
 10
638.184
 20
576.59
 11
638.184
 21
570.838
  0
LINE
  8
Layer2
  6
CENTER1
 62
7
 10
635.913
 20
573.673
 11
641.104
 21
573.673
  0
CIRCLE
  8
Layer2
  6
CONTINUOUS
 62
7
 10
638.184
 20
573.673
 40
1.25
  0
LINE
  8
Layer2
  6
CENTER1
 62
7
 10
686.184
 20
576.59
 11
686.184
 21
570.838
  0
LINE
  8
Layer2
  6
CENTER1
 62
7
 10
683.913
 20
573.673
 11
689.104
 21
573.673
  0
CIRCLE
  8
Layer2
  6
CONTINUOUS
 62
7
 10
686.184
 20
573.673
 40
1.25
  0
LINE
  8
Layer2
  6
CENTER1
 62
7
 10
686.184
 20
504.59
 11
686.184
 21
498.838
  0
LINE
  8
Layer2
  6
CENTER1
 62
7
 10
683.913
 20
501.673
 11
689.104
 21
501.673
  0
CIRCLE
  8
Layer2
  6
CONTINUOUS
 62
7
 10
686.184
 20
501.673
 40
1.25
  0
LINE
  8
Layer2
  6
CENTER1
 62
7
 10
638.184
 20
504.59
 11
638.184
 21
498.838
  0
LINE
  8
Layer2
  6
CENTER1
 62
7
 10
635.913
 20
501.673
 11
641.104
 21
501.673
  0
CIRCLE
  8
Layer2
  6
CONTINUOUS
 62
7
 10
638.184
 20
501.673
 40
1.25
  0
LINE
  8
Layer2
  6
CONTINUOUS
 62
7
 10
610.684
 20
321.378
 11
611.684
 21
320.378
  0
LINE
  8
Layer2
  6
CONTINUOUS
 62
7
 10
611.684
 20
247.53
 11
612.684
 21
246.878
  0
LINE
  8
Layer2
  6
CONTINUOUS
 62
7
 10
613.184
 20
321.383
 11
613.184
 21
224.878
  0
LINE
  8
Layer2
  6
CONTINUOUS
 62
7
 10
610.532
 20
246.378
 11
611.684
 21
247.53
  0
POLYLINE
  8
Layer2
  6
CONTINUOUS
 62
7
 66
1
 10
0
 20
0
 30
0
  0
VERTEX
  8
Layer2
 10
629.295
 20
599.562
  0
VERTEX
  8
Layer2
 10
602.436
 20
620.253
  0
VERTEX
  8
Layer2
 10
602.436
 20
620.253
  0
SEQEND
  0
POLYLINE
  8
Layer2
  6
CONTINUOUS
 62
7
 66
1
 10
0
 20
0
 30
0
  0
VERTEX
  8
Layer2
 10
628.08
 20
601.151
  0
VERTEX
  8
Layer2
 10
629.295
 20
599.562
  0
VERTEX
  8
Layer2
 10
627.448
 20
600.331
  0
SEQEND
  0
LINE
  8
Layer2
  6
CONTINUOUS
 62
7
 10
602.436
 20
620.253
 11
565.631
 21
620.253
  0
TEXT
  8
Layer2
 62
7
 10
570.035
 20
620.92
 40
8
 41
1
  1
6-11キリ
  0
TEXT
  8
Layer2
 62
7
 10
565.354
 20
613.817
 40
6
 41
1
  1
ベース取付穴
  0
TEXT
  8
Layer2
 62
7
 10
827.037
 20
617.841
 40
6
 41
1
  1
アッパー取付穴
  0
POLYLINE
  8
Layer2
  6
CONTINUOUS
 62
7
 66
1
 10
0
 20
0
 30
0
  0
VERTEX
  8
Layer2
 10
782.073
 20
577.562
  0
VERTEX
  8
Layer2
 10
826.905
 20
625.053
  0
VERTEX
  8
Layer2
 10
826.905
 20
625.053
  0
SEQEND
  0
POLYLINE
  8
Layer2
  6
CONTINUOUS
 62
7
 66
1
 10
0
 20
0
 30
0
  0
VERTEX
  8
Layer2
 10
783.775
 20
578.612
  0
VERTEX
  8
Layer2
 10
782.073
 20
577.562
  0
VERTEX
  8
Layer2
 10
783.022
 20
579.322
  0
SEQEND
  0
LINE
  8
Layer2
  6
CONTINUOUS
 62
7
 10
826.905
 20
625.053
 11
858.905
 21
625.053
  0
TEXT
  8
Layer2
 62
7
 10
858.905
 20
625.053
 72
2
 11
858.905
 21
625.053
 40
8
 41
1
  1
4-11キリ
  0
CIRCLE
  8
Layer2
  6
CONTINUOUS
 62
7
 10
372.232
 20
236.378
 40
4
  0
CIRCLE
  8
Layer2
  6
CONTINUOUS
 62
7
 10
372.232
 20
236.378
 40
5
  0
LINE
  8
Layer2
  6
CONTINUOUS
 62
7
 10
397.232
 20
366.216
 11
347.232
 21
366.216
  0
LINE
  8
Layer2
  6
CENTER1
 62
7
 10
753.184
 20
566.537
 11
753.184
 21
581.276
  0
LINE
  8
Layer2
  6
CENTER1
 62
7
 10
753.184
 20
508.81
 11
753.184
 21
494.07
  0
TEXT
  8
Layer2
 62
7
 10
564.184
 20
217.382
 72
1
 11
564.184
 21
217.382
 40
4
 41
1
  1
ストローク
  0
TEXT
  8
Layer2
 62
7
 10
769.903
 20
334.839
 72
1
 11
769.903
 21
334.839
 40
4
 41
1
 50
20
  1
 40°
  0
ARC
  8
Layer2
  6
CONTINUOUS
 62
7
 10
793.184
 20
270.876
 40
68.0675
 50
90
 51
130
  0
TEXT
  8
Layer2
 62
7
 10
858.45
 20
295.378
 72
1
 11
858.45
 21
295.378
 40
4
 41
1
 50
90
  1
 143 
  0
LINE
  8
Layer2
  6
CONTINUOUS
 62
7
 10
793.184
 20
366.878
 11
860.45
 21
366.878
  0
LINE
  8
Layer2
  6
CONTINUOUS
 62
7
 10
792.184
 20
223.878
 11
860.45
 21
223.878
  0
POLYLINE
  8
Layer2
  6
CONTINUOUS
 62
7
 66
1
 10
0
 20
0
 30
0
  0
VERTEX
  8
Layer2
 10
858.45
 20
366.878
  0
VERTEX
  8
Layer2
 10
858.45
 20
223.878
  0
SEQEND
  0
POLYLINE
  8
Layer2
  6
CONTINUOUS
 62
7
 66
1
 10
0
 20
0
 30
0
  0
VERTEX
  8
Layer2
 10
857.932
 20
364.946
  0
VERTEX
  8
Layer2
 10
858.45
 20
366.878
  0
VERTEX
  8
Layer2
 10
858.968
 20
364.946
  0
SEQEND
  0
POLYLINE
  8
Layer2
  6
CONTINUOUS
 62
7
 66
1
 10
0
 20
0
 30
0
  0
VERTEX
  8
Layer2
 10
858.968
 20
225.81
  0
VERTEX
  8
Layer2
 10
858.45
 20
223.878
  0
VERTEX
  8
Layer2
 10
857.932
 20
225.81
  0
SEQEND
  0
TEXT
  8
Layer2
 62
7
 10
875.518
 20
319.178
 72
1
 11
875.518
 21
319.178
 40
4
 41
1
 50
90
  1
 190.6 
  0
LINE
  8
Layer2
  6
CONTINUOUS
 62
7
 10
792.184
 20
414.478
 11
877.518
 21
414.478
  0
LINE
  8
Layer2
  6
CONTINUOUS
 62
7
 10
858.45
 20
223.878
 11
877.518
 21
223.878
  0
POLYLINE
  8
Layer2
  6
CONTINUOUS
 62
7
 66
1
 10
0
 20
0
 30
0
  0
VERTEX
  8
Layer2
 10
875.518
 20
414.478
  0
VERTEX
  8
Layer2
 10
875.518
 20
223.878
  0
SEQEND
  0
POLYLINE
  8
Layer2
  6
CONTINUOUS
 62
7
 66
1
 10
0
 20
0
 30
0
  0
VERTEX
  8
Layer2
 10
875
 20
412.546
  0
VERTEX
  8
Layer2
 10
875.518
 20
414.478
  0
VERTEX
  8
Layer2
 10
876.035
 20
412.546
  0
SEQEND
  0
POLYLINE
  8
Layer2
  6
CONTINUOUS
 62
7
 66
1
 10
0
 20
0
 30
0
  0
VERTEX
  8
Layer2
 10
876.035
 20
225.81
  0
VERTEX
  8
Layer2
 10
875.518
 20
223.878
  0
VERTEX
  8
Layer2
 10
875
 20
225.81
  0
SEQEND
  0
TEXT
  8
Layer2
 62
7
 10
764.217
 20
454.275
 72
1
 11
764.217
 21
454.275
 40
4
 41
1
  1
 40 
  0
LINE
  8
Layer2
  6
CONTINUOUS
 62
7
 10
753.184
 20
494.07
 11
753.184
 21
452.275
  0
LINE
  8
Layer2
  6
CONTINUOUS
 62
7
 10
793.184
 20
470.673
 11
793.184
 21
452.275
  0
POLYLINE
  8
Layer2
  6
CONTINUOUS
 62
7
 66
1
 10
0
 20
0
 30
0
  0
VERTEX
  8
Layer2
 10
753.184
 20
454.275
  0
VERTEX
  8
Layer2
 10
793.184
 20
454.275
  0
SEQEND
  0
POLYLINE
  8
Layer2
  6
CONTINUOUS
 62
7
 66
1
 10
0
 20
0
 30
0
  0
VERTEX
  8
Layer2
 10
755.115
 20
453.757
  0
VERTEX
  8
Layer2
 10
753.184
 20
454.275
  0
VERTEX
  8
Layer2
 10
755.115
 20
454.792
  0
SEQEND
  0
POLYLINE
  8
Layer2
  6
CONTINUOUS
 62
7
 66
1
 10
0
 20
0
 30
0
  0
VERTEX
  8
Layer2
 10
791.252
 20
454.792
  0
VERTEX
  8
Layer2
 10
793.184
 20
454.275
  0
VERTEX
  8
Layer2
 10
791.252
 20
453.757
  0
SEQEND
  0
TEXT
  8
Layer2
 62
7
 10
785.684
 20
442.639
 72
1
 11
785.684
 21
442.639
 40
4
 41
1
  1
 15 
  0
LINE
  8
Layer2
  6
CONTINUOUS
 62
7
 10
778.184
 20
493.099
 11
778.184
 21
440.639
  0
LINE
  8
Layer2
  6
CONTINUOUS
 62
7
 10
793.184
 20
454.275
 11
793.184
 21
440.639
  0
POLYLINE
  8
Layer2
  6
CONTINUOUS
 62
7
 66
1
 10
0
 20
0
 30
0
  0
VERTEX
  8
Layer2
 10
778.184
 20
442.639
  0
VERTEX
  8
Layer2
 10
793.184
 20
442.639
  0
SEQEND
  0
POLYLINE
  8
Layer2
  6
CONTINUOUS
 62
7
 66
1
 10
0
 20
0
 30
0
  0
VERTEX
  8
Layer2
 10
780.115
 20
442.121
  0
VERTEX
  8
Layer2
 10
778.184
 20
442.639
  0
VERTEX
  8
Layer2
 10
780.115
 20
443.157
  0
SEQEND
  0
POLYLINE
  8
Layer2
  6
CONTINUOUS
 62
7
 66
1
 10
0
 20
0
 30
0
  0
VERTEX
  8
Layer2
 10
791.252
 20
443.157
  0
VERTEX
  8
Layer2
 10
793.184
 20
442.639
  0
VERTEX
  8
Layer2
 10
791.252
 20
442.121
  0
SEQEND
  0
TEXT
  8
Layer2
 62
7
 10
753.184
 20
442.639
 72
1
 11
753.184
 21
442.639
 40
4
 41
1
  1
 50 
  0
LINE
  8
Layer2
  6
CONTINUOUS
 62
7
 10
728.184
 20
493.099
 11
728.184
 21
440.639
  0
POLYLINE
  8
Layer2
  6
CONTINUOUS
 62
7
 66
1
 10
0
 20
0
 30
0
  0
VERTEX
  8
Layer2
 10
728.184
 20
442.639
  0
VERTEX
  8
Layer2
 10
778.184
 20
442.639
  0
SEQEND
  0
POLYLINE
  8
Layer2
  6
CONTINUOUS
 62
7
 66
1
 10
0
 20
0
 30
0
  0
VERTEX
  8
Layer2
 10
730.115
 20
442.121
  0
VERTEX
  8
Layer2
 10
728.184
 20
442.639
  0
VERTEX
  8
Layer2
 10
730.115
 20
443.157
  0
SEQEND
  0
POLYLINE
  8
Layer2
  6
CONTINUOUS
 62
7
 66
1
 10
0
 20
0
 30
0
  0
VERTEX
  8
Layer2
 10
776.252
 20
443.157
  0
VERTEX
  8
Layer2
 10
778.184
 20
442.639
  0
VERTEX
  8
Layer2
 10
776.252
 20
442.121
  0
SEQEND
  0
TEXT
  8
Layer2
 62
7
 10
753.184
 20
430.733
 72
1
 11
753.184
 21
430.733
 40
4
 41
1
  1
 80 
  0
LINE
  8
Layer2
  6
CONTINUOUS
 62
7
 10
713.184
 20
491.173
 11
713.184
 21
428.733
  0
LINE
  8
Layer2
  6
CONTINUOUS
 62
7
 10
793.184
 20
442.639
 11
793.184
 21
428.733
  0
POLYLINE
  8
Layer2
  6
CONTINUOUS
 62
7
 66
1
 10
0
 20
0
 30
0
  0
VERTEX
  8
Layer2
 10
713.184
 20
430.733
  0
VERTEX
  8
Layer2
 10
793.184
 20
430.733
  0
SEQEND
  0
POLYLINE
  8
Layer2
  6
CONTINUOUS
 62
7
 66
1
 10
0
 20
0
 30
0
  0
VERTEX
  8
Layer2
 10
715.115
 20
430.215
  0
VERTEX
  8
Layer2
 10
713.184
 20
430.733
  0
VERTEX
  8
Layer2
 10
715.115
 20
431.25
  0
SEQEND
  0
POLYLINE
  8
Layer2
  6
CONTINUOUS
 62
7
 66
1
 10
0
 20
0
 30
0
  0
VERTEX
  8
Layer2
 10
791.252
 20
431.25
  0
VERTEX
  8
Layer2
 10
793.184
 20
430.733
  0
VERTEX
  8
Layer2
 10
791.252
 20
430.215
  0
SEQEND
  0
TEXT
  8
Layer2
 62
7
 10
668.184
 20
630.436
 72
1
 11
668.184
 21
630.436
 40
4
 41
1
  1
 70 
  0
LINE
  8
Layer2
  6
CONTINUOUS
 62
7
 10
633.184
 20
615.246
 11
633.184
 21
632.436
  0
LINE
  8
Layer2
  6
CONTINUOUS
 62
7
 10
703.184
 20
614.453
 11
703.184
 21
632.436
  0
POLYLINE
  8
Layer2
  6
CONTINUOUS
 62
7
 66
1
 10
0
 20
0
 30
0
  0
VERTEX
  8
Layer2
 10
633.184
 20
630.436
  0
VERTEX
  8
Layer2
 10
703.184
 20
630.436
  0
SEQEND
  0
POLYLINE
  8
Layer2
  6
CONTINUOUS
 62
7
 66
1
 10
0
 20
0
 30
0
  0
VERTEX
  8
Layer2
 10
635.115
 20
629.918
  0
VERTEX
  8
Layer2
 10
633.184
 20
630.436
  0
VERTEX
  8
Layer2
 10
635.115
 20
630.953
  0
SEQEND
  0
POLYLINE
  8
Layer2
  6
CONTINUOUS
 62
7
 66
1
 10
0
 20
0
 30
0
  0
VERTEX
  8
Layer2
 10
701.252
 20
630.953
  0
VERTEX
  8
Layer2
 10
703.184
 20
630.436
  0
VERTEX
  8
Layer2
 10
701.252
 20
629.918
  0
SEQEND
  0
TEXT
  8
Layer2
 62
7
 10
738.184
 20
630.436
 72
1
 11
738.184
 21
630.436
 40
4
 41
1
  1
 70 
  0
LINE
  8
Layer2
  6
CONTINUOUS
 62
7
 10
773.184
 20
612.055
 11
773.184
 21
632.436
  0
POLYLINE
  8
Layer2
  6
CONTINUOUS
 62
7
 66
1
 10
0
 20
0
 30
0
  0
VERTEX
  8
Layer2
 10
703.184
 20
630.436
  0
VERTEX
  8
Layer2
 10
773.184
 20
630.436
  0
SEQEND
  0
POLYLINE
  8
Layer2
  6
CONTINUOUS
 62
7
 66
1
 10
0
 20
0
 30
0
  0
VERTEX
  8
Layer2
 10
705.115
 20
629.918
  0
VERTEX
  8
Layer2
 10
703.184
 20
630.436
  0
VERTEX
  8
Layer2
 10
705.115
 20
630.953
  0
SEQEND
  0
POLYLINE
  8
Layer2
  6
CONTINUOUS
 62
7
 66
1
 10
0
 20
0
 30
0
  0
VERTEX
  8
Layer2
 10
771.252
 20
630.953
  0
VERTEX
  8
Layer2
 10
773.184
 20
630.436
  0
VERTEX
  8
Layer2
 10
771.252
 20
629.918
  0
SEQEND
  0
TEXT
  8
Layer2
 62
7
 10
703.184
 20
642.883
 72
1
 11
703.184
 21
642.883
 40
4
 41
1
  1
 180 
  0
LINE
  8
Layer2
  6
CONTINUOUS
 62
7
 10
793.184
 20
604.673
 11
793.184
 21
644.883
  0
LINE
  8
Layer2
  6
CONTINUOUS
 62
7
 10
613.184
 20
604.673
 11
613.184
 21
644.883
  0
POLYLINE
  8
Layer2
  6
CONTINUOUS
 62
7
 66
1
 10
0
 20
0
 30
0
  0
VERTEX
  8
Layer2
 10
793.184
 20
642.883
  0
VERTEX
  8
Layer2
 10
613.184
 20
642.883
  0
SEQEND
  0
POLYLINE
  8
Layer2
  6
CONTINUOUS
 62
7
 66
1
 10
0
 20
0
 30
0
  0
VERTEX
  8
Layer2
 10
791.252
 20
643.401
  0
VERTEX
  8
Layer2
 10
793.184
 20
642.883
  0
VERTEX
  8
Layer2
 10
791.252
 20
642.366
  0
SEQEND
  0
POLYLINE
  8
Layer2
  6
CONTINUOUS
 62
7
 66
1
 10
0
 20
0
 30
0
  0
VERTEX
  8
Layer2
 10
615.115
 20
642.366
  0
VERTEX
  8
Layer2
 10
613.184
 20
642.883
  0
VERTEX
  8
Layer2
 10
615.115
 20
643.401
  0
SEQEND
  0
TEXT
  8
Layer2
 62
7
 10
836.404
 20
537.673
 72
1
 11
836.404
 21
537.673
 40
4
 41
1
 50
90
  1
 72 
  0
LINE
  8
Layer2
  6
CONTINUOUS
 62
7
 10
824.427
 20
573.673
 11
838.404
 21
573.673
  0
LINE
  8
Layer2
  6
CONTINUOUS
 62
7
 10
823.7
 20
501.673
 11
838.404
 21
501.673
  0
POLYLINE
  8
Layer2
  6
CONTINUOUS
 62
7
 66
1
 10
0
 20
0
 30
0
  0
VERTEX
  8
Layer2
 10
836.404
 20
573.673
  0
VERTEX
  8
Layer2
 10
836.404
 20
501.673
  0
SEQEND
  0
POLYLINE
  8
Layer2
  6
CONTINUOUS
 62
7
 66
1
 10
0
 20
0
 30
0
  0
VERTEX
  8
Layer2
 10
835.887
 20
571.741
  0
VERTEX
  8
Layer2
 10
836.404
 20
573.673
  0
VERTEX
  8
Layer2
 10
836.922
 20
571.741
  0
SEQEND
  0
POLYLINE
  8
Layer2
  6
CONTINUOUS
 62
7
 66
1
 10
0
 20
0
 30
0
  0
VERTEX
  8
Layer2
 10
836.922
 20
503.605
  0
VERTEX
  8
Layer2
 10
836.404
 20
501.673
  0
VERTEX
  8
Layer2
 10
835.887
 20
503.605
  0
SEQEND
  0
TEXT
  8
Layer2
 62
7
 10
863.841
 20
537.673
 72
1
 11
863.841
 21
537.673
 40
4
 41
1
 50
90
  1
 116 
  0
LINE
  8
Layer2
  6
CONTINUOUS
 62
7
 10
783.91
 20
595.673
 11
865.841
 21
595.673
  0
LINE
  8
Layer2
  6
CONTINUOUS
 62
7
 10
783.91
 20
479.673
 11
865.841
 21
479.673
  0
POLYLINE
  8
Layer2
  6
CONTINUOUS
 62
7
 66
1
 10
0
 20
0
 30
0
  0
VERTEX
  8
Layer2
 10
863.841
 20
595.673
  0
VERTEX
  8
Layer2
 10
863.841
 20
479.673
  0
SEQEND
  0
POLYLINE
  8
Layer2
  6
CONTINUOUS
 62
7
 66
1
 10
0
 20
0
 30
0
  0
VERTEX
  8
Layer2
 10
863.323
 20
593.741
  0
VERTEX
  8
Layer2
 10
863.841
 20
595.673
  0
VERTEX
  8
Layer2
 10
864.358
 20
593.741
  0
SEQEND
  0
POLYLINE
  8
Layer2
  6
CONTINUOUS
 62
7
 66
1
 10
0
 20
0
 30
0
  0
VERTEX
  8
Layer2
 10
864.358
 20
481.605
  0
VERTEX
  8
Layer2
 10
863.841
 20
479.673
  0
VERTEX
  8
Layer2
 10
863.323
 20
481.605
  0
SEQEND
  0
TEXT
  8
Layer2
 62
7
 10
878.281
 20
537.673
 72
1
 11
878.281
 21
537.673
 40
4
 41
1
 50
90
  1
 138 
  0
LINE
  8
Layer2
  6
CONTINUOUS
 62
7
 10
791.184
 20
606.673
 11
880.281
 21
606.673
  0
LINE
  8
Layer2
  6
CONTINUOUS
 62
7
 10
791.184
 20
468.673
 11
880.281
 21
468.673
  0
POLYLINE
  8
Layer2
  6
CONTINUOUS
 62
7
 66
1
 10
0
 20
0
 30
0
  0
VERTEX
  8
Layer2
 10
878.281
 20
606.673
  0
VERTEX
  8
Layer2
 10
878.281
 20
468.673
  0
SEQEND
  0
POLYLINE
  8
Layer2
  6
CONTINUOUS
 62
7
 66
1
 10
0
 20
0
 30
0
  0
VERTEX
  8
Layer2
 10
877.763
 20
604.741
  0
VERTEX
  8
Layer2
 10
878.281
 20
606.673
  0
VERTEX
  8
Layer2
 10
878.798
 20
604.741
  0
SEQEND
  0
POLYLINE
  8
Layer2
  6
CONTINUOUS
 62
7
 66
1
 10
0
 20
0
 30
0
  0
VERTEX
  8
Layer2
 10
878.798
 20
470.605
  0
VERTEX
  8
Layer2
 10
878.281
 20
468.673
  0
VERTEX
  8
Layer2
 10
877.763
 20
470.605
  0
SEQEND
  0
TEXT
  8
Layer2
 62
7
 10
379.807
 20
260.795
 72
1
 11
379.807
 21
260.795
 40
8
 41
1
 50
90
  1
 13 
  0
TEXT
  8
Layer2
 62
7
 10
471.358
 20
253.878
 72
1
 11
471.358
 21
253.878
 40
4
 41
1
 50
90
  1
 60 
  0
LINE
  8
Layer2
  6
CONTINUOUS
 62
7
 10
405.273
 20
283.878
 11
473.358
 21
283.878
  0
LINE
  8
Layer2
  6
CONTINUOUS
 62
7
 10
440.232
 20
223.878
 11
473.358
 21
223.878
  0
POLYLINE
  8
Layer2
  6
CONTINUOUS
 62
7
 66
1
 10
0
 20
0
 30
0
  0
VERTEX
  8
Layer2
 10
471.358
 20
283.878
  0
VERTEX
  8
Layer2
 10
471.358
 20
223.878
  0
SEQEND
  0
POLYLINE
  8
Layer2
  6
CONTINUOUS
 62
7
 66
1
 10
0
 20
0
 30
0
  0
VERTEX
  8
Layer2
 10
470.84
 20
281.946
  0
VERTEX
  8
Layer2
 10
471.358
 20
283.878
  0
VERTEX
  8
Layer2
 10
471.875
 20
281.946
  0
SEQEND
  0
POLYLINE
  8
Layer2
  6
CONTINUOUS
 62
7
 66
1
 10
0
 20
0
 30
0
  0
VERTEX
  8
Layer2
 10
471.875
 20
225.81
  0
VERTEX
  8
Layer2
 10
471.358
 20
223.878
  0
VERTEX
  8
Layer2
 10
470.84
 20
225.81
  0
SEQEND
  0
TEXT
  8
Layer2
 62
7
 10
483.487
 20
283.878
 72
1
 11
483.487
 21
283.878
 40
4
 41
1
 50
90
  1
 58 
  0
LINE
  8
Layer2
  6
CONTINUOUS
 62
7
 10
399.443
 20
254.878
 11
485.487
 21
254.878
  0
LINE
  8
Layer2
  6
CONTINUOUS
 62
7
 10
402.811
 20
312.878
 11
485.487
 21
312.878
  0
POLYLINE
  8
Layer2
  6
CONTINUOUS
 62
7
 66
1
 10
0
 20
0
 30
0
  0
VERTEX
  8
Layer2
 10
483.487
 20
254.878
  0
VERTEX
  8
Layer2
 10
483.487
 20
312.878
  0
SEQEND
  0
POLYLINE
  8
Layer2
  6
CONTINUOUS
 62
7
 66
1
 10
0
 20
0
 30
0
  0
VERTEX
  8
Layer2
 10
484.005
 20
256.81
  0
VERTEX
  8
Layer2
 10
483.487
 20
254.878
  0
VERTEX
  8
Layer2
 10
482.97
 20
256.81
  0
SEQEND
  0
POLYLINE
  8
Layer2
  6
CONTINUOUS
 62
7
 66
1
 10
0
 20
0
 30
0
  0
VERTEX
  8
Layer2
 10
482.97
 20
310.946
  0
VERTEX
  8
Layer2
 10
483.487
 20
312.878
  0
VERTEX
  8
Layer2
 10
484.005
 20
310.946
  0
SEQEND
  0
TEXT
  8
Layer2
 62
7
 10
495.617
 20
283.878
 72
1
 11
495.617
 21
283.878
 40
4
 41
1
 50
90
  1
 75 
  0
LINE
  8
Layer2
  6
CONTINUOUS
 62
7
 10
418.732
 20
321.378
 11
497.617
 21
321.378
  0
LINE
  8
Layer2
  6
CONTINUOUS
 62
7
 10
397.232
 20
246.378
 11
497.617
 21
246.378
  0
POLYLINE
  8
Layer2
  6
CONTINUOUS
 62
7
 66
1
 10
0
 20
0
 30
0
  0
VERTEX
  8
Layer2
 10
495.617
 20
321.378
  0
VERTEX
  8
Layer2
 10
495.617
 20
246.378
  0
SEQEND
  0
POLYLINE
  8
Layer2
  6
CONTINUOUS
 62
7
 66
1
 10
0
 20
0
 30
0
  0
VERTEX
  8
Layer2
 10
495.099
 20
319.446
  0
VERTEX
  8
Layer2
 10
495.617
 20
321.378
  0
VERTEX
  8
Layer2
 10
496.135
 20
319.446
  0
SEQEND
  0
POLYLINE
  8
Layer2
  6
CONTINUOUS
 62
7
 66
1
 10
0
 20
0
 30
0
  0
VERTEX
  8
Layer2
 10
496.135
 20
248.31
  0
VERTEX
  8
Layer2
 10
495.617
 20
246.378
  0
VERTEX
  8
Layer2
 10
495.099
 20
248.31
  0
SEQEND
  0
TEXT
  8
Layer2
 62
7
 10
508.036
 20
280.628
 72
1
 11
508.036
 21
280.628
 40
4
 41
1
 50
90
  1
 113.5 
  0
LINE
  8
Layer2
  6
CONTINUOUS
 62
7
 10
418.732
 20
337.378
 11
510.036
 21
337.378
  0
LINE
  8
Layer2
  6
CONTINUOUS
 62
7
 10
471.358
 20
223.878
 11
510.036
 21
223.878
  0
POLYLINE
  8
Layer2
  6
CONTINUOUS
 62
7
 66
1
 10
0
 20
0
 30
0
  0
VERTEX
  8
Layer2
 10
508.036
 20
337.378
  0
VERTEX
  8
Layer2
 10
508.036
 20
223.878
  0
SEQEND
  0
POLYLINE
  8
Layer2
  6
CONTINUOUS
 62
7
 66
1
 10
0
 20
0
 30
0
  0
VERTEX
  8
Layer2
 10
507.518
 20
335.446
  0
VERTEX
  8
Layer2
 10
508.036
 20
337.378
  0
VERTEX
  8
Layer2
 10
508.553
 20
335.446
  0
SEQEND
  0
POLYLINE
  8
Layer2
  6
CONTINUOUS
 62
7
 66
1
 10
0
 20
0
 30
0
  0
VERTEX
  8
Layer2
 10
508.553
 20
225.81
  0
VERTEX
  8
Layer2
 10
508.036
 20
223.878
  0
VERTEX
  8
Layer2
 10
507.518
 20
225.81
  0
SEQEND
  0
TEXT
  8
Layer2
 62
7
 10
372.232
 20
207.381
 72
1
 11
372.232
 21
207.381
 40
4
 41
1
  1
 33 
  0
LINE
  8
Layer2
  6
CONTINUOUS
 62
7
 10
355.732
 20
243.259
 11
355.732
 21
205.381
  0
LINE
  8
Layer2
  6
CONTINUOUS
 62
7
 10
388.732
 20
243.259
 11
388.732
 21
205.381
  0
POLYLINE
  8
Layer2
  6
CONTINUOUS
 62
7
 66
1
 10
0
 20
0
 30
0
  0
VERTEX
  8
Layer2
 10
355.732
 20
207.381
  0
VERTEX
  8
Layer2
 10
388.732
 20
207.381
  0
SEQEND
  0
POLYLINE
  8
Layer2
  6
CONTINUOUS
 62
7
 66
1
 10
0
 20
0
 30
0
  0
VERTEX
  8
Layer2
 10
357.663
 20
206.863
  0
VERTEX
  8
Layer2
 10
355.732
 20
207.381
  0
VERTEX
  8
Layer2
 10
357.663
 20
207.898
  0
SEQEND
  0
POLYLINE
  8
Layer2
  6
CONTINUOUS
 62
7
 66
1
 10
0
 20
0
 30
0
  0
VERTEX
  8
Layer2
 10
386.8
 20
207.898
  0
VERTEX
  8
Layer2
 10
388.732
 20
207.381
  0
VERTEX
  8
Layer2
 10
386.8
 20
206.863
  0
SEQEND
  0
TEXT
  8
Layer2
 62
7
 10
372.232
 20
196.117
 72
1
 11
372.232
 21
196.117
 40
4
 41
1
  1
 50 
  0
LINE
  8
Layer2
  6
CONTINUOUS
 62
7
 10
347.232
 20
246.378
 11
347.232
 21
194.117
  0
LINE
  8
Layer2
  6
CONTINUOUS
 62
7
 10
397.232
 20
246.378
 11
397.232
 21
194.117
  0
POLYLINE
  8
Layer2
  6
CONTINUOUS
 62
7
 66
1
 10
0
 20
0
 30
0
  0
VERTEX
  8
Layer2
 10
347.232
 20
196.117
  0
VERTEX
  8
Layer2
 10
397.232
 20
196.117
  0
SEQEND
  0
POLYLINE
  8
Layer2
  6
CONTINUOUS
 62
7
 66
1
 10
0
 20
0
 30
0
  0
VERTEX
  8
Layer2
 10
349.163
 20
195.6
  0
VERTEX
  8
Layer2
 10
347.232
 20
196.117
  0
VERTEX
  8
Layer2
 10
349.163
 20
196.635
  0
SEQEND
  0
POLYLINE
  8
Layer2
  6
CONTINUOUS
 62
7
 66
1
 10
0
 20
0
 30
0
  0
VERTEX
  8
Layer2
 10
395.3
 20
196.635
  0
VERTEX
  8
Layer2
 10
397.232
 20
196.117
  0
VERTEX
  8
Layer2
 10
395.3
 20
195.6
  0
SEQEND
  0
LINE
  8
Layer2
  6
CENTER1
 62
7
 10
360.703
 20
236.378
 11
381.362
 21
236.378
  0
LINE
  8
Layer2
  6
CONTINUOUS
 62
7
 10
386.461
 20
267.878
 11
376.841
 21
267.878
  0
LINE
  8
Layer2
  6
CONTINUOUS
 62
7
 10
376.379
 20
254.878
 11
383.807
 21
254.878
  0
LINE
  8
Layer2
  6
CONTINUOUS
 62
7
 10
379.807
 20
267.878
 11
379.807
 21
254.878
  0
POLYLINE
  8
Layer2
  6
CONTINUOUS
 62
7
 66
1
 10
0
 20
0
 30
0
  0
VERTEX
  8
Layer2
 10
379.29
 20
265.946
  0
VERTEX
  8
Layer2
 10
379.807
 20
267.878
  0
VERTEX
  8
Layer2
 10
380.325
 20
265.946
  0
SEQEND
  0
POLYLINE
  8
Layer2
  6
CONTINUOUS
 62
7
 66
1
 10
0
 20
0
 30
0
  0
VERTEX
  8
Layer2
 10
380.325
 20
256.81
  0
VERTEX
  8
Layer2
 10
379.807
 20
254.878
  0
VERTEX
  8
Layer2
 10
379.29
 20
256.81
  0
SEQEND
  0
TEXT
  8
Layer2
 62
7
 10
595.684
 20
362.597
 72
1
 11
595.684
 21
362.597
 40
4
 41
1
  1
 23 
  0
LINE
  8
Layer2
  6
CONTINUOUS
 62
7
 10
607.184
 20
320.378
 11
607.184
 21
364.597
  0
LINE
  8
Layer2
  6
CONTINUOUS
 62
7
 10
584.184
 20
320.378
 11
584.184
 21
364.597
  0
POLYLINE
  8
Layer2
  6
CONTINUOUS
 62
7
 66
1
 10
0
 20
0
 30
0
  0
VERTEX
  8
Layer2
 10
607.184
 20
362.597
  0
VERTEX
  8
Layer2
 10
584.184
 20
362.597
  0
SEQEND
  0
POLYLINE
  8
Layer2
  6
CONTINUOUS
 62
7
 66
1
 10
0
 20
0
 30
0
  0
VERTEX
  8
Layer2
 10
605.252
 20
363.115
  0
VERTEX
  8
Layer2
 10
607.184
 20
362.597
  0
VERTEX
  8
Layer2
 10
605.252
 20
362.079
  0
SEQEND
  0
POLYLINE
  8
Layer2
  6
CONTINUOUS
 62
7
 66
1
 10
0
 20
0
 30
0
  0
VERTEX
  8
Layer2
 10
586.115
 20
362.079
  0
VERTEX
  8
Layer2
 10
584.184
 20
362.597
  0
VERTEX
  8
Layer2
 10
586.115
 20
363.115
  0
SEQEND
  0
TEXT
  8
Layer2
 62
7
 10
618.949
 20
362.597
 72
1
 11
618.949
 21
362.597
 40
4
 41
1
  1
 4.5 
  0
LINE
  8
Layer2
  6
CONTINUOUS
 62
7
 10
611.684
 20
320.378
 11
611.684
 21
364.597
  0
POLYLINE
  8
Layer2
  6
CONTINUOUS
 62
7
 66
1
 10
0
 20
0
 30
0
  0
VERTEX
  8
Layer2
 10
623.949
 20
362.597
  0
VERTEX
  8
Layer2
 10
611.684
 20
362.597
  0
SEQEND
  0
POLYLINE
  8
Layer2
  6
CONTINUOUS
 62
7
 66
1
 10
0
 20
0
 30
0
  0
VERTEX
  8
Layer2
 10
613.615
 20
362.079
  0
VERTEX
  8
Layer2
 10
611.684
 20
362.597
  0
VERTEX
  8
Layer2
 10
613.615
 20
363.115
  0
SEQEND
  0
POLYLINE
  8
Layer2
  6
CONTINUOUS
 62
7
 66
1
 10
0
 20
0
 30
0
  0
VERTEX
  8
Layer2
 10
599.184
 20
362.597
  0
VERTEX
  8
Layer2
 10
607.184
 20
362.597
  0
SEQEND
  0
POLYLINE
  8
Layer2
  6
CONTINUOUS
 62
7
 66
1
 10
0
 20
0
 30
0
  0
VERTEX
  8
Layer2
 10
605.252
 20
363.115
  0
VERTEX
  8
Layer2
 10
607.184
 20
362.597
  0
VERTEX
  8
Layer2
 10
605.252
 20
362.079
  0
SEQEND
  0
LINE
  8
Layer2
  6
CONTINUOUS
 62
7
 10
611.684
 20
362.597
 11
607.184
 21
362.597
  0
LINE
  8
Layer2
  6
CENTER1
 62
7
 10
753.184
 20
298.41
 11
753.184
 21
424.153
  0
LINE
  8
Layer2
  6
CENTER1
 62
7
 10
668.184
 20
604.055
 11
668.184
 21
588.637
  0
LINE
  8
Layer2
  6
CENTER1
 62
7
 10
668.184
 20
471.291
 11
668.184
 21
486.709
  0
TEXT
  8
Layer2
 62
7
 10
730.684
 20
619.882
 72
1
 11
730.684
 21
619.882
 40
4
 41
1
  1
 125 
  0
LINE
  8
Layer2
  6
CONTINUOUS
 62
7
 10
668.184
 20
604.055
 11
668.184
 21
621.882
  0
LINE
  8
Layer2
  6
CONTINUOUS
 62
7
 10
793.184
 20
617.983
 11
793.184
 21
621.882
  0
POLYLINE
  8
Layer2
  6
CONTINUOUS
 62
7
 66
1
 10
0
 20
0
 30
0
  0
VERTEX
  8
Layer2
 10
668.184
 20
619.882
  0
VERTEX
  8
Layer2
 10
793.184
 20
619.882
  0
SEQEND
  0
POLYLINE
  8
Layer2
  6
CONTINUOUS
 62
7
 66
1
 10
0
 20
0
 30
0
  0
VERTEX
  8
Layer2
 10
670.115
 20
619.364
  0
VERTEX
  8
Layer2
 10
668.184
 20
619.882
  0
VERTEX
  8
Layer2
 10
670.115
 20
620.4
  0
SEQEND
  0
POLYLINE
  8
Layer2
  6
CONTINUOUS
 62
7
 66
1
 10
0
 20
0
 30
0
  0
VERTEX
  8
Layer2
 10
791.252
 20
620.4
  0
VERTEX
  8
Layer2
 10
793.184
 20
619.882
  0
VERTEX
  8
Layer2
 10
791.252
 20
619.364
  0
SEQEND
  0
TEXT
  8
Layer2
 62
7
 10
783.184
 20
630.436
 72
1
 11
783.184
 21
630.436
 40
4
 41
1
  1
 20 
  0
LINE
  8
Layer2
  6
CONTINUOUS
 62
7
 10
793.184
 20
631.058
 11
793.184
 21
628.436
  0
POLYLINE
  8
Layer2
  6
CONTINUOUS
 62
7
 66
1
 10
0
 20
0
 30
0
  0
VERTEX
  8
Layer2
 10
773.184
 20
630.436
  0
VERTEX
  8
Layer2
 10
793.184
 20
630.436
  0
SEQEND
  0
POLYLINE
  8
Layer2
  6
CONTINUOUS
 62
7
 66
1
 10
0
 20
0
 30
0
  0
VERTEX
  8
Layer2
 10
775.115
 20
629.918
  0
VERTEX
  8
Layer2
 10
773.184
 20
630.436
  0
VERTEX
  8
Layer2
 10
775.115
 20
630.953
  0
SEQEND
  0
POLYLINE
  8
Layer2
  6
CONTINUOUS
 62
7
 66
1
 10
0
 20
0
 30
0
  0
VERTEX
  8
Layer2
 10
791.252
 20
630.953
  0
VERTEX
  8
Layer2
 10
793.184
 20
630.436
  0
VERTEX
  8
Layer2
 10
791.252
 20
629.918
  0
SEQEND
  0
POLYLINE
  8
Layer2
  6
CONTINUOUS
 62
7
 66
1
 10
0
 20
0
 30
0
  0
VERTEX
  8
Layer2
 10
665.338
 20
475.562
  0
VERTEX
  8
Layer2
 10
649.207
 20
454.452
  0
SEQEND
  0
POLYLINE
  8
Layer2
  6
CONTINUOUS
 62
7
 66
1
 10
0
 20
0
 30
0
  0
VERTEX
  8
Layer2
 10
663.754
 20
474.342
  0
VERTEX
  8
Layer2
 10
665.338
 20
475.562
  0
VERTEX
  8
Layer2
 10
664.577
 20
473.713
  0
SEQEND
  0
LINE
  8
Layer2
  6
CONTINUOUS
 62
7
 10
649.207
 20
454.452
 11
593.207
 21
454.452
  0
TEXT
  8
Layer2
 62
7
 10
593.207
 20
454.452
 40
8
 41
1
  1
2-φ10ノック穴
  0
POLYLINE
  8
Layer2
  6
CONTINUOUS
 62
7
 66
1
 10
0
 20
0
 30
0
  0
VERTEX
  8
Layer2
 10
756.907
 20
498.352
  0
VERTEX
  8
Layer2
 10
829.768
 20
455.395
  0
SEQEND
  0
POLYLINE
  8
Layer2
  6
CONTINUOUS
 62
7
 66
1
 10
0
 20
0
 30
0
  0
VERTEX
  8
Layer2
 10
758.309
 20
496.925
  0
VERTEX
  8
Layer2
 10
756.907
 20
498.352
  0
VERTEX
  8
Layer2
 10
758.834
 20
497.817
  0
SEQEND
  0
LINE
  8
Layer2
  6
CONTINUOUS
 62
7
 10
829.768
 20
455.395
 11
885.768
 21
455.395
  0
TEXT
  8
Layer2
 62
7
 10
885.768
 20
455.395
 72
2
 11
885.768
 21
455.395
 40
8
 41
1
  1
2-φ10ノック穴
  0
TEXT
  8
Layer2
 62
7
 10
830.793
 20
540.352
 73
3
 11
830.793
 21
540.352
 40
4
 41
1
 50
90
  1
±0.02(ノック穴)
  0
TEXT
  8
Layer2
 62
7
 10
857.949
 20
542.315
 73
3
 11
857.949
 21
542.315
 40
4
 41
1
 50
90
  1
±0.02(ノック穴)
  0
TEXT
  8
Layer2
 62
7
 10
734.711
 20
625.46
 73
3
 11
734.711
 21
625.46
 40
4
 41
1
 50
2.03555e-013
  1
±0.02(ノック穴)
  0
TEXT
  8
Layer2
 62
7
 10
766.771
 20
459.518
 73
3
 11
766.771
 21
459.518
 40
4
 41
1
 50
2.03555e-013
  1
±0.02(ノック穴)
  0
LINE
  8
Layer2
  6
CONTINUOUS
 62
7
 10
665.184
 20
331.506
 11
665.184
 21
327.378
  0
LINE
  8
Layer2
  6
CONTINUOUS
 62
7
 10
659.143
 20
331.506
 11
659.143
 21
327.378
  0
LINE
  8
Layer2
  6
CONTINUOUS
 62
7
 10
592.184
 20
318.378
 11
592.184
 21
307.378
  0
LINE
  8
Layer2
  6
CONTINUOUS
 62
7
 10
584.184
 20
318.378
 11
592.184
 21
318.378
  0
LINE
  8
Layer2
  6
CONTINUOUS
 62
7
 10
584.184
 20
307.378
 11
592.184
 21
307.378
  0
LINE
  8
Layer2
  6
CONTINUOUS
 62
7
 10
586.684
 20
307.878
 11
592.184
 21
307.878
  0
LINE
  8
Layer2
  6
CONTINUOUS
 62
7
 10
586.684
 20
317.878
 11
592.184
 21
317.878
  0
LINE
  8
Layer2
  6
CONTINUOUS
 62
7
 10
586.184
 20
308.378
 11
586.684
 21
307.878
  0
LINE
  8
Layer2
  6
CONTINUOUS
 62
7
 10
586.184
 20
317.378
 11
586.684
 21
317.878
  0
LINE
  8
Layer2
  6
CONTINUOUS
 62
7
 10
586.684
 20
307.878
 11
586.684
 21
317.878
  0
LINE
  8
Layer2
  6
CONTINUOUS
 62
7
 10
592.184
 20
307.878
 11
592.184
 21
317.878
  0
LINE
  8
Layer2
  6
CONTINUOUS
 62
7
 10
608.38
 20
309.878
 11
592.183
 21
309.878
  0
LINE
  8
Layer2
  6
CONTINUOUS
 62
7
 10
609.977
 20
315.878
 11
592.181
 21
315.878
  0
LINE
  8
Layer2
  6
CONTINUOUS
 62
7
 10
609.988
 20
315.378
 11
593.05
 21
315.378
  0
LINE
  8
Layer2
  6
CONTINUOUS
 62
7
 10
608.741
 20
310.378
 11
593.05
 21
310.378
  0
LINE
  8
Layer2
  6
CONTINUOUS
 62
7
 10
592.184
 20
315.878
 11
593.05
 21
315.378
  0
LINE
  8
Layer2
  6
CONTINUOUS
 62
7
 10
592.184
 20
309.878
 11
593.05
 21
310.378
  0
LINE
  8
Layer2
  6
CONTINUOUS
 62
7
 10
593.05
 20
309.878
 11
593.05
 21
315.881
  0
LINE
  8
Layer2
  6
DASHED1
 62
7
 10
626.684
 20
309.878
 11
608.239
 21
309.878
  0
LINE
  8
Layer2
  6
DASHED1
 62
7
 10
627.184
 20
310.378
 11
609.015
 21
310.378
  0
LINE
  8
Layer2
  6
DASHED1
 62
7
 10
627.184
 20
315.378
 11
609.988
 21
315.378
  0
LINE
  8
Layer2
  6
DASHED1
 62
7
 10
626.684
 20
315.878
 11
609.973
 21
315.878
  0
LINE
  8
Layer2
  6
DASHED1
 62
7
 10
626.684
 20
315.878
 11
627.184
 21
315.378
  0
LINE
  8
Layer2
  6
DASHED1
 62
7
 10
627.184
 20
310.378
 11
627.184
 21
315.378
  0
LINE
  8
Layer2
  6
DASHED1
 62
7
 10
626.684
 20
309.878
 11
626.684
 21
315.878
  0
LINE
  8
Layer2
  6
DASHED1
 62
7
 10
627.184
 20
310.378
 11
626.684
 21
309.878
  0
LINE
  8
Layer2
  6
CONTINUOUS
 62
7
 10
586.184
 20
317.378
 11
586.184
 21
308.378
  0
CIRCLE
  8
Layer2
  6
CONTINUOUS
 62
7
 10
388.732
 20
312.878
 40
5
  0
POLYLINE
  8
Layer2
  6
CONTINUOUS
 62
7
 66
1
 10
0
 20
0
 30
0
 70
1
  0
VERTEX
  8
Layer2
 10
386.232
 20
311.435
  0
VERTEX
  8
Layer2
 10
388.732
 20
309.991
  0
VERTEX
  8
Layer2
 10
391.232
 20
311.435
  0
VERTEX
  8
Layer2
 10
391.232
 20
314.321
  0
VERTEX
  8
Layer2
 10
388.732
 20
315.765
  0
VERTEX
  8
Layer2
 10
386.232
 20
314.321
  0
SEQEND
  0
CIRCLE
  8
Layer2
  6
CONTINUOUS
 62
7
 10
355.732
 20
312.878
 40
5
  0
POLYLINE
  8
Layer2
  6
CONTINUOUS
 62
7
 66
1
 10
0
 20
0
 30
0
 70
1
  0
VERTEX
  8
Layer2
 10
358.232
 20
311.435
  0
VERTEX
  8
Layer2
 10
355.732
 20
309.991
  0
VERTEX
  8
Layer2
 10
353.232
 20
311.435
  0
VERTEX
  8
Layer2
 10
353.232
 20
314.321
  0
VERTEX
  8
Layer2
 10
355.732
 20
315.765
  0
VERTEX
  8
Layer2
 10
358.232
 20
314.321
  0
SEQEND
  0
CIRCLE
  8
Layer2
  6
CONTINUOUS
 62
7
 10
355.732
 20
254.878
 40
5
  0
POLYLINE
  8
Layer2
  6
CONTINUOUS
 62
7
 66
1
 10
0
 20
0
 30
0
 70
1
  0
VERTEX
  8
Layer2
 10
358.232
 20
256.321
  0
VERTEX
  8
Layer2
 10
355.732
 20
257.765
  0
VERTEX
  8
Layer2
 10
353.232
 20
256.321
  0
VERTEX
  8
Layer2
 10
353.232
 20
253.435
  0
VERTEX
  8
Layer2
 10
355.732
 20
251.991
  0
VERTEX
  8
Layer2
 10
358.232
 20
253.435
  0
SEQEND
  0
CIRCLE
  8
Layer2
  6
CONTINUOUS
 62
7
 10
388.732
 20
254.878
 40
5
  0
POLYLINE
  8
Layer2
  6
CONTINUOUS
 62
7
 66
1
 10
0
 20
0
 30
0
 70
1
  0
VERTEX
  8
Layer2
 10
386.232
 20
256.321
  0
VERTEX
  8
Layer2
 10
388.732
 20
257.765
  0
VERTEX
  8
Layer2
 10
391.232
 20
256.321
  0
VERTEX
  8
Layer2
 10
391.232
 20
253.435
  0
VERTEX
  8
Layer2
 10
388.732
 20
251.991
  0
VERTEX
  8
Layer2
 10
386.232
 20
253.435
  0
SEQEND
  0
LINE
  8
Layer2
  6
CONTINUOUS
 62
7
 10
611.684
 20
513.673
 11
611.684
 21
561.673
  0
LINE
  8
Layer2
  6
CONTINUOUS
 62
7
 10
610.684
 20
562.673
 11
611.684
 21
561.673
  0
LINE
  8
Layer2
  6
CONTINUOUS
 62
7
 10
610.684
 20
512.673
 11
611.684
 21
513.673
  0
LINE
  8
Layer2
  6
CONTINUOUS
 62
7
 10
612.684
 20
512.673
 11
611.684
 21
513.673
  0
LINE
  8
Layer2
  6
CONTINUOUS
 62
7
 10
612.684
 20
562.673
 11
611.684
 21
561.673
  0
LINE
  8
Layer2
  6
CONTINUOUS
 62
7
 10
613.184
 20
562.673
 11
612.684
 21
562.673
  0
LINE
  8
Layer2
  6
CONTINUOUS
 62
7
 10
613.184
 20
512.673
 11
612.684
 21
512.673
  0
LINE
  8
Layer2
  6
CENTER1
 62
7
 10
607.298
 20
236.378
 11
652.165
 21
236.378
  0
TEXT
  8
Layer2
 62
7
 10
344.667
 20
532.725
 73
3
 11
344.667
 21
532.725
 40
10
 41
1
  1
N-EMC-75-50-40
  0
LINE
  8
Layer2
  6
CONTINUOUS
 62
7
 10
337.662
 20
536.617
 11
337.662
 21
519.177
  0
LINE
  8
Layer2
  6
CONTINUOUS
 62
7
 10
337.662
 20
519.177
 11
420.459
 21
519.177
  0
LINE
  8
Layer2
  6
CONTINUOUS
 62
7
 10
420.459
 20
536.617
 11
420.459
 21
519.177
  0
LINE
  8
Layer2
  6
CONTINUOUS
 62
7
 10
337.662
 20
536.617
 11
420.459
 21
536.617
  0
CIRCLE
  8
Layer2
  6
CONTINUOUS
 62
7
 10
668.185
 20
595.673
 40
5.00014
  0
CIRCLE
  8
Layer2
  6
CONTINUOUS
 62
7
 10
753.184
 20
573.673
 40
4.99983
  0
CIRCLE
  8
Layer2
  6
CONTINUOUS
 62
7
 10
753.185
 20
501.673
 40
5.00014
  0
CIRCLE
  8
Layer2
  6
CONTINUOUS
 62
7
 10
668.184
 20
479.673
 40
5.00069
  0
ENDSEC
  0
EOF
