  0
SECTION
  2
HEADER
  9
$EXTMIN
 10
0
 20
0
  9
$EXTMAX
 10
1189
 20
841
  9
$LTSCALE
 40
1
  9
$LIMMIN
 10
0
 20
0
  9
$LIMMAX
 10
1189
 20
841
  9
$DIMSCALE
 40
1
  0
ENDSEC
  0
SECTION
  2
TABLES
  0
TABLE
  2
LTYPE
 70
9
  0
LTYPE
  2
CONTINUOUS
 70
64
  3
----------
 72
65
 73
0
 40
0
  0
LTYPE
  2
DASHED1
 70
64
  3
--  --  --  --  --  --  --  --  
 72
65
 73
2
 40
2.5
 49
1.25
 49
-1.25
  0
LTYPE
  2
DASHED2
 70
64
  3
----    ----    ----    ----    
 72
65
 73
2
 40
5
 49
2.5
 49
-2.5
  0
LTYPE
  2
DASHED3
 70
64
  3
------  ------  ------  ------  
 72
65
 73
2
 40
5
 49
3.75
 49
-1.25
  0
LTYPE
  2
CENTER1
 70
64
  3
----- - ----- - ----- - ----- - 
 72
65
 73
4
 40
7.5
 49
3.75
 49
-1.25
 49
1.25
 49
-1.25
  0
LTYPE
  2
CENTER2
 70
64
  3
----------  --  ----------  --  
 72
65
 73
4
 40
13.75
 49
6.25
 49
-2.5
 49
2.5
 49
-2.5
  0
LTYPE
  2
PHANTOM1
 70
64
  3
--- - - --- - - --- - - --- - - 
 72
65
 73
6
 40
9.5
 49
3.25
 49
-1.25
 49
1.25
 49
-1.25
 49
1.25
 49
-1.25
  0
LTYPE
  2
PHANTOM2
 70
64
  3
--------  -  -  --------  -  -  
 72
65
 73
6
 40
18
 49
8
 49
-2.5
 49
1.25
 49
-2.5
 49
1.25
 49
-2.5
  0
LTYPE
  2
DOT
 70
64
  3
-   -   -   -   -   -   -   -   
 72
65
 73
2
 40
2.5
 49
0.625
 49
-1.875
  0
LTYPE
  2
HOJO
 70
64
  3
-   -   -   -   -   -   -   -   
 72
65
 73
2
 40
2.5
 49
0.625
 49
-1.875
  0
ENDTAB
  0
TABLE
  2
STYLE
 70
2
  0
STYLE
  2
STANDARD
 70
64
 40
0
 41
1
 42
0
 50
0
 71
0
  3
TXT
  4
BIGFONT
  0
STYLE
  2
TATEGAKI
 70
68
 40
0
 41
1
 42
0
 50
0
 71
0
  3
TXT
  4
EXTFONT
  0
ENDTAB
  0
TABLE
  2
LAYER
 70
1
  0
LAYER
  2
Layer2
 70
64
 62
7
  6
CONTINUOUS
  0
ENDTAB
  0
ENDSEC
  0
SECTION
  2
ENTITIES
  0
LINE
  8
Layer2
  6
CONTINUOUS
 62
7
 10
285.239
 20
203.939
 11
473.239
 21
203.939
  0
LINE
  8
Layer2
  6
CONTINUOUS
 62
7
 10
285.239
 20
226.939
 11
301.739
 21
226.939
  0
LINE
  8
Layer2
  6
CENTER1
 62
7
 10
322.853
 20
263.939
 11
437.317
 21
263.939
  0
LINE
  8
Layer2
  6
CONTINUOUS
 62
7
 10
450.739
 20
301.439
 11
307.739
 21
301.439
  0
LINE
  8
Layer2
  6
CONTINUOUS
 62
7
 10
450.739
 20
318.439
 11
307.739
 21
318.439
  0
LINE
  8
Layer2
  6
CENTER1
 62
7
 10
379.239
 20
195.637
 11
379.239
 21
402.725
  0
LINE
  8
Layer2
  6
CONTINUOUS
 62
7
 10
429.239
 20
226.439
 11
329.239
 21
226.439
  0
LINE
  8
Layer2
  6
CONTINUOUS
 62
7
 10
473.239
 20
226.939
 11
456.739
 21
226.939
  0
LINE
  8
Layer2
  6
CONTINUOUS
 62
7
 10
450.739
 20
394.539
 11
307.739
 21
394.539
  0
LINE
  8
Layer2
  6
CONTINUOUS
 62
7
 10
307.739
 20
378.539
 11
324.239
 21
378.539
  0
LINE
  8
Layer2
  6
DASHED1
 62
7
 10
331.239
 20
279.539
 11
370.239
 21
279.539
  0
LINE
  8
Layer2
  6
CONTINUOUS
 62
7
 10
450.739
 20
378.539
 11
434.239
 21
378.539
  0
LINE
  8
Layer2
  6
CONTINUOUS
 62
7
 10
662.724
 20
318.439
 11
662.724
 21
311.239
  0
LINE
  8
Layer2
  6
CONTINUOUS
 62
7
 10
657.724
 20
318.439
 11
657.724
 21
311.239
  0
LINE
  8
Layer2
  6
CONTINUOUS
 62
7
 10
657.183
 20
318.439
 11
657.183
 21
311.567
  0
LINE
  8
Layer2
  6
CONTINUOUS
 62
7
 10
663.224
 20
318.439
 11
663.224
 21
311.547
  0
LINE
  8
Layer2
  6
CONTINUOUS
 62
7
 10
375.296
 20
325.206
 11
383.141
 21
325.206
  0
LINE
  8
Layer2
  6
CONTINUOUS
 62
7
 10
374.968
 20
324.603
 11
383.442
 21
324.603
  0
LINE
  8
Layer2
  6
CONTINUOUS
 62
7
 10
374.873
 20
321.223
 11
383.322
 21
321.223
  0
LINE
  8
Layer2
  6
CONTINUOUS
 62
7
 10
384.046
 20
320.499
 11
374.149
 21
320.499
  0
LINE
  8
Layer2
  6
CONTINUOUS
 62
7
 10
384.046
 20
320.499
 11
384.046
 21
318.628
  0
LINE
  8
Layer2
  6
CONTINUOUS
 62
7
 10
374.149
 20
320.499
 11
374.149
 21
318.628
  0
POLYLINE
  8
Layer2
  6
CONTINUOUS
 62
7
 66
1
 10
0
 20
0
 30
0
  0
VERTEX
  8
Layer2
 10
379.091
 20
322.42
  0
VERTEX
  8
Layer2
 10
379.025
 20
322.477
  0
VERTEX
  8
Layer2
 10
378.959
 20
322.532
  0
VERTEX
  8
Layer2
 10
378.89
 20
322.585
  0
VERTEX
  8
Layer2
 10
378.821
 20
322.637
  0
VERTEX
  8
Layer2
 10
378.75
 20
322.687
  0
VERTEX
  8
Layer2
 10
378.678
 20
322.735
  0
VERTEX
  8
Layer2
 10
378.605
 20
322.782
  0
VERTEX
  8
Layer2
 10
378.53
 20
322.826
  0
VERTEX
  8
Layer2
 10
378.454
 20
322.868
  0
VERTEX
  8
Layer2
 10
378.378
 20
322.909
  0
VERTEX
  8
Layer2
 10
378.3
 20
322.947
  0
VERTEX
  8
Layer2
 10
378.221
 20
322.984
  0
VERTEX
  8
Layer2
 10
378.142
 20
323.018
  0
VERTEX
  8
Layer2
 10
378.061
 20
323.05
  0
VERTEX
  8
Layer2
 10
377.98
 20
323.08
  0
VERTEX
  8
Layer2
 10
377.898
 20
323.108
  0
VERTEX
  8
Layer2
 10
377.815
 20
323.134
  0
VERTEX
  8
Layer2
 10
377.732
 20
323.158
  0
VERTEX
  8
Layer2
 10
377.648
 20
323.18
  0
VERTEX
  8
Layer2
 10
377.563
 20
323.199
  0
VERTEX
  8
Layer2
 10
377.478
 20
323.217
  0
VERTEX
  8
Layer2
 10
377.393
 20
323.232
  0
VERTEX
  8
Layer2
 10
377.307
 20
323.244
  0
VERTEX
  8
Layer2
 10
377.221
 20
323.255
  0
VERTEX
  8
Layer2
 10
377.135
 20
323.263
  0
VERTEX
  8
Layer2
 10
377.048
 20
323.27
  0
VERTEX
  8
Layer2
 10
376.962
 20
323.273
  0
VERTEX
  8
Layer2
 10
376.875
 20
323.275
  0
VERTEX
  8
Layer2
 10
376.788
 20
323.275
  0
VERTEX
  8
Layer2
 10
376.701
 20
323.272
  0
VERTEX
  8
Layer2
 10
376.615
 20
323.267
  0
VERTEX
  8
Layer2
 10
376.528
 20
323.259
  0
VERTEX
  8
Layer2
 10
376.442
 20
323.25
  0
VERTEX
  8
Layer2
 10
376.356
 20
323.238
  0
VERTEX
  8
Layer2
 10
376.271
 20
323.224
  0
VERTEX
  8
Layer2
 10
376.186
 20
323.208
  0
VERTEX
  8
Layer2
 10
376.101
 20
323.19
  0
VERTEX
  8
Layer2
 10
376.017
 20
323.169
  0
VERTEX
  8
Layer2
 10
375.933
 20
323.146
  0
VERTEX
  8
Layer2
 10
375.85
 20
323.121
  0
VERTEX
  8
Layer2
 10
375.768
 20
323.094
  0
VERTEX
  8
Layer2
 10
375.686
 20
323.065
  0
VERTEX
  8
Layer2
 10
375.605
 20
323.034
  0
VERTEX
  8
Layer2
 10
375.525
 20
323.001
  0
VERTEX
  8
Layer2
 10
375.446
 20
322.965
  0
VERTEX
  8
Layer2
 10
375.368
 20
322.928
  0
VERTEX
  8
Layer2
 10
375.29
 20
322.888
  0
VERTEX
  8
Layer2
 10
375.214
 20
322.847
  0
SEQEND
  0
POLYLINE
  8
Layer2
  6
CONTINUOUS
 62
7
 66
1
 10
0
 20
0
 30
0
  0
VERTEX
  8
Layer2
 10
383.443
 20
322.792
  0
VERTEX
  8
Layer2
 10
383.356
 20
322.828
  0
VERTEX
  8
Layer2
 10
383.267
 20
322.861
  0
VERTEX
  8
Layer2
 10
383.179
 20
322.894
  0
VERTEX
  8
Layer2
 10
383.089
 20
322.924
  0
VERTEX
  8
Layer2
 10
382.999
 20
322.952
  0
VERTEX
  8
Layer2
 10
382.909
 20
322.979
  0
VERTEX
  8
Layer2
 10
382.817
 20
323.004
  0
VERTEX
  8
Layer2
 10
382.726
 20
323.027
  0
VERTEX
  8
Layer2
 10
382.634
 20
323.048
  0
VERTEX
  8
Layer2
 10
382.541
 20
323.067
  0
VERTEX
  8
Layer2
 10
382.449
 20
323.085
  0
VERTEX
  8
Layer2
 10
382.355
 20
323.1
  0
VERTEX
  8
Layer2
 10
382.262
 20
323.114
  0
VERTEX
  8
Layer2
 10
382.168
 20
323.126
  0
VERTEX
  8
Layer2
 10
382.074
 20
323.136
  0
VERTEX
  8
Layer2
 10
381.98
 20
323.144
  0
VERTEX
  8
Layer2
 10
381.886
 20
323.15
  0
VERTEX
  8
Layer2
 10
381.792
 20
323.155
  0
VERTEX
  8
Layer2
 10
381.697
 20
323.157
  0
VERTEX
  8
Layer2
 10
381.603
 20
323.158
  0
VERTEX
  8
Layer2
 10
381.509
 20
323.156
  0
VERTEX
  8
Layer2
 10
381.414
 20
323.153
  0
VERTEX
  8
Layer2
 10
381.32
 20
323.148
  0
VERTEX
  8
Layer2
 10
381.226
 20
323.141
  0
VERTEX
  8
Layer2
 10
381.132
 20
323.132
  0
VERTEX
  8
Layer2
 10
381.038
 20
323.122
  0
VERTEX
  8
Layer2
 10
380.944
 20
323.109
  0
VERTEX
  8
Layer2
 10
380.851
 20
323.095
  0
VERTEX
  8
Layer2
 10
380.758
 20
323.078
  0
VERTEX
  8
Layer2
 10
380.665
 20
323.06
  0
VERTEX
  8
Layer2
 10
380.573
 20
323.04
  0
VERTEX
  8
Layer2
 10
380.481
 20
323.018
  0
VERTEX
  8
Layer2
 10
380.39
 20
322.994
  0
VERTEX
  8
Layer2
 10
380.299
 20
322.969
  0
VERTEX
  8
Layer2
 10
380.208
 20
322.942
  0
VERTEX
  8
Layer2
 10
380.119
 20
322.912
  0
VERTEX
  8
Layer2
 10
380.029
 20
322.882
  0
VERTEX
  8
Layer2
 10
379.941
 20
322.849
  0
VERTEX
  8
Layer2
 10
379.853
 20
322.814
  0
VERTEX
  8
Layer2
 10
379.766
 20
322.778
  0
VERTEX
  8
Layer2
 10
379.679
 20
322.74
  0
VERTEX
  8
Layer2
 10
379.593
 20
322.7
  0
VERTEX
  8
Layer2
 10
379.509
 20
322.659
  0
VERTEX
  8
Layer2
 10
379.425
 20
322.616
  0
VERTEX
  8
Layer2
 10
379.341
 20
322.571
  0
VERTEX
  8
Layer2
 10
379.259
 20
322.525
  0
VERTEX
  8
Layer2
 10
379.178
 20
322.477
  0
VERTEX
  8
Layer2
 10
379.098
 20
322.427
  0
SEQEND
  0
LINE
  8
Layer2
  6
CONTINUOUS
 62
7
 10
375.56
 20
323.016
 11
375.226
 21
322.826
  0
LINE
  8
Layer2
  6
CONTINUOUS
 62
7
 10
375.296
 20
325.206
 11
374.436
 21
323.623
  0
LINE
  8
Layer2
  6
CONTINUOUS
 62
7
 10
383.141
 20
325.206
 11
384.028
 21
323.391
  0
LINE
  8
Layer2
  6
CONTINUOUS
 62
7
 10
382.959
 20
322.936
 11
383.443
 21
322.792
  0
POLYLINE
  8
Layer2
  6
CONTINUOUS
 62
7
 66
1
 10
0
 20
0
 30
0
  0
VERTEX
  8
Layer2
 10
374.436
 20
323.623
  0
VERTEX
  8
Layer2
 10
374.421
 20
323.595
  0
VERTEX
  8
Layer2
 10
374.408
 20
323.566
  0
VERTEX
  8
Layer2
 10
374.396
 20
323.537
  0
VERTEX
  8
Layer2
 10
374.385
 20
323.507
  0
VERTEX
  8
Layer2
 10
374.377
 20
323.477
  0
VERTEX
  8
Layer2
 10
374.369
 20
323.446
  0
VERTEX
  8
Layer2
 10
374.364
 20
323.415
  0
VERTEX
  8
Layer2
 10
374.36
 20
323.383
  0
VERTEX
  8
Layer2
 10
374.358
 20
323.352
  0
VERTEX
  8
Layer2
 10
374.358
 20
323.32
  0
VERTEX
  8
Layer2
 10
374.359
 20
323.289
  0
VERTEX
  8
Layer2
 10
374.363
 20
323.257
  0
VERTEX
  8
Layer2
 10
374.367
 20
323.226
  0
VERTEX
  8
Layer2
 10
374.374
 20
323.195
  0
VERTEX
  8
Layer2
 10
374.382
 20
323.164
  0
VERTEX
  8
Layer2
 10
374.392
 20
323.134
  0
VERTEX
  8
Layer2
 10
374.404
 20
323.105
  0
VERTEX
  8
Layer2
 10
374.417
 20
323.076
  0
VERTEX
  8
Layer2
 10
374.431
 20
323.048
  0
VERTEX
  8
Layer2
 10
374.448
 20
323.021
  0
VERTEX
  8
Layer2
 10
374.465
 20
322.994
  0
VERTEX
  8
Layer2
 10
374.484
 20
322.969
  0
VERTEX
  8
Layer2
 10
374.505
 20
322.945
  0
VERTEX
  8
Layer2
 10
374.526
 20
322.922
  0
VERTEX
  8
Layer2
 10
374.549
 20
322.9
  0
VERTEX
  8
Layer2
 10
374.573
 20
322.879
  0
VERTEX
  8
Layer2
 10
374.598
 20
322.86
  0
VERTEX
  8
Layer2
 10
374.624
 20
322.842
  0
VERTEX
  8
Layer2
 10
374.651
 20
322.826
  0
VERTEX
  8
Layer2
 10
374.679
 20
322.811
  0
VERTEX
  8
Layer2
 10
374.708
 20
322.798
  0
VERTEX
  8
Layer2
 10
374.737
 20
322.786
  0
VERTEX
  8
Layer2
 10
374.767
 20
322.776
  0
VERTEX
  8
Layer2
 10
374.798
 20
322.767
  0
VERTEX
  8
Layer2
 10
374.829
 20
322.76
  0
VERTEX
  8
Layer2
 10
374.86
 20
322.755
  0
VERTEX
  8
Layer2
 10
374.891
 20
322.752
  0
VERTEX
  8
Layer2
 10
374.923
 20
322.75
  0
VERTEX
  8
Layer2
 10
374.954
 20
322.75
  0
VERTEX
  8
Layer2
 10
374.986
 20
322.752
  0
VERTEX
  8
Layer2
 10
375.017
 20
322.755
  0
VERTEX
  8
Layer2
 10
375.049
 20
322.76
  0
VERTEX
  8
Layer2
 10
375.08
 20
322.767
  0
VERTEX
  8
Layer2
 10
375.11
 20
322.776
  0
VERTEX
  8
Layer2
 10
375.14
 20
322.786
  0
VERTEX
  8
Layer2
 10
375.169
 20
322.797
  0
VERTEX
  8
Layer2
 10
375.198
 20
322.811
  0
VERTEX
  8
Layer2
 10
375.226
 20
322.826
  0
SEQEND
  0
POLYLINE
  8
Layer2
  6
CONTINUOUS
 62
7
 66
1
 10
0
 20
0
 30
0
  0
VERTEX
  8
Layer2
 10
383.443
 20
322.792
  0
VERTEX
  8
Layer2
 10
383.464
 20
322.786
  0
VERTEX
  8
Layer2
 10
383.485
 20
322.782
  0
VERTEX
  8
Layer2
 10
383.506
 20
322.778
  0
VERTEX
  8
Layer2
 10
383.527
 20
322.775
  0
VERTEX
  8
Layer2
 10
383.548
 20
322.773
  0
VERTEX
  8
Layer2
 10
383.57
 20
322.773
  0
VERTEX
  8
Layer2
 10
383.591
 20
322.773
  0
VERTEX
  8
Layer2
 10
383.612
 20
322.774
  0
VERTEX
  8
Layer2
 10
383.634
 20
322.776
  0
VERTEX
  8
Layer2
 10
383.655
 20
322.779
  0
VERTEX
  8
Layer2
 10
383.676
 20
322.783
  0
VERTEX
  8
Layer2
 10
383.697
 20
322.788
  0
VERTEX
  8
Layer2
 10
383.717
 20
322.794
  0
VERTEX
  8
Layer2
 10
383.738
 20
322.8
  0
VERTEX
  8
Layer2
 10
383.758
 20
322.808
  0
VERTEX
  8
Layer2
 10
383.777
 20
322.817
  0
VERTEX
  8
Layer2
 10
383.796
 20
322.826
  0
VERTEX
  8
Layer2
 10
383.815
 20
322.836
  0
VERTEX
  8
Layer2
 10
383.833
 20
322.848
  0
VERTEX
  8
Layer2
 10
383.851
 20
322.859
  0
VERTEX
  8
Layer2
 10
383.868
 20
322.872
  0
VERTEX
  8
Layer2
 10
383.885
 20
322.886
  0
VERTEX
  8
Layer2
 10
383.901
 20
322.9
  0
VERTEX
  8
Layer2
 10
383.916
 20
322.915
  0
VERTEX
  8
Layer2
 10
383.931
 20
322.931
  0
VERTEX
  8
Layer2
 10
383.945
 20
322.947
  0
VERTEX
  8
Layer2
 10
383.958
 20
322.964
  0
VERTEX
  8
Layer2
 10
383.97
 20
322.981
  0
VERTEX
  8
Layer2
 10
383.982
 20
322.999
  0
VERTEX
  8
Layer2
 10
383.993
 20
323.018
  0
VERTEX
  8
Layer2
 10
384.002
 20
323.037
  0
VERTEX
  8
Layer2
 10
384.011
 20
323.056
  0
VERTEX
  8
Layer2
 10
384.02
 20
323.076
  0
VERTEX
  8
Layer2
 10
384.027
 20
323.096
  0
VERTEX
  8
Layer2
 10
384.033
 20
323.117
  0
VERTEX
  8
Layer2
 10
384.038
 20
323.137
  0
VERTEX
  8
Layer2
 10
384.043
 20
323.158
  0
VERTEX
  8
Layer2
 10
384.046
 20
323.179
  0
VERTEX
  8
Layer2
 10
384.049
 20
323.201
  0
VERTEX
  8
Layer2
 10
384.05
 20
323.222
  0
VERTEX
  8
Layer2
 10
384.051
 20
323.243
  0
VERTEX
  8
Layer2
 10
384.051
 20
323.265
  0
VERTEX
  8
Layer2
 10
384.049
 20
323.286
  0
VERTEX
  8
Layer2
 10
384.047
 20
323.307
  0
VERTEX
  8
Layer2
 10
384.044
 20
323.329
  0
VERTEX
  8
Layer2
 10
384.039
 20
323.35
  0
VERTEX
  8
Layer2
 10
384.034
 20
323.37
  0
VERTEX
  8
Layer2
 10
384.028
 20
323.391
  0
SEQEND
  0
LINE
  8
Layer2
  6
CONTINUOUS
 62
7
 10
382.165
 20
323.126
 11
382.165
 21
321.223
  0
LINE
  8
Layer2
  6
CONTINUOUS
 62
7
 10
376.02
 20
323.17
 11
376.02
 21
321.223
  0
LINE
  8
Layer2
  6
CONTINUOUS
 62
7
 10
374.873
 20
321.223
 11
374.149
 21
320.499
  0
LINE
  8
Layer2
  6
CONTINUOUS
 62
7
 10
383.322
 20
321.223
 11
384.046
 21
320.499
  0
LINE
  8
Layer2
  6
CONTINUOUS
 62
7
 10
655.862
 20
327.609
 11
664.765
 21
327.609
  0
LINE
  8
Layer2
  6
CONTINUOUS
 62
7
 10
655.862
 20
325.294
 11
663.696
 21
325.294
  0
LINE
  8
Layer2
  6
CONTINUOUS
 62
7
 10
664.765
 20
327.609
 11
666.189
 21
325.947
  0
LINE
  8
Layer2
  6
CONTINUOUS
 62
7
 10
666.189
 20
325.294
 11
666.189
 21
325.947
  0
POLYLINE
  8
Layer2
  6
CONTINUOUS
 62
7
 66
1
 10
0
 20
0
 30
0
  0
VERTEX
  8
Layer2
 10
663.696
 20
325.294
  0
VERTEX
  8
Layer2
 10
663.698
 20
325.212
  0
VERTEX
  8
Layer2
 10
663.705
 20
325.13
  0
VERTEX
  8
Layer2
 10
663.718
 20
325.049
  0
VERTEX
  8
Layer2
 10
663.736
 20
324.969
  0
VERTEX
  8
Layer2
 10
663.759
 20
324.89
  0
VERTEX
  8
Layer2
 10
663.788
 20
324.813
  0
VERTEX
  8
Layer2
 10
663.821
 20
324.738
  0
VERTEX
  8
Layer2
 10
663.859
 20
324.665
  0
VERTEX
  8
Layer2
 10
663.902
 20
324.595
  0
VERTEX
  8
Layer2
 10
663.949
 20
324.528
  0
VERTEX
  8
Layer2
 10
664.001
 20
324.464
  0
VERTEX
  8
Layer2
 10
664.057
 20
324.404
  0
VERTEX
  8
Layer2
 10
664.117
 20
324.348
  0
VERTEX
  8
Layer2
 10
664.18
 20
324.295
  0
VERTEX
  8
Layer2
 10
664.246
 20
324.247
  0
VERTEX
  8
Layer2
 10
664.316
 20
324.204
  0
VERTEX
  8
Layer2
 10
664.388
 20
324.165
  0
VERTEX
  8
Layer2
 10
664.463
 20
324.131
  0
VERTEX
  8
Layer2
 10
664.54
 20
324.102
  0
VERTEX
  8
Layer2
 10
664.618
 20
324.078
  0
VERTEX
  8
Layer2
 10
664.698
 20
324.059
  0
VERTEX
  8
Layer2
 10
664.779
 20
324.045
  0
VERTEX
  8
Layer2
 10
664.861
 20
324.037
  0
VERTEX
  8
Layer2
 10
664.943
 20
324.035
  0
VERTEX
  8
Layer2
 10
665.025
 20
324.037
  0
VERTEX
  8
Layer2
 10
665.106
 20
324.045
  0
VERTEX
  8
Layer2
 10
665.187
 20
324.059
  0
VERTEX
  8
Layer2
 10
665.267
 20
324.078
  0
VERTEX
  8
Layer2
 10
665.346
 20
324.102
  0
VERTEX
  8
Layer2
 10
665.423
 20
324.131
  0
VERTEX
  8
Layer2
 10
665.497
 20
324.165
  0
VERTEX
  8
Layer2
 10
665.57
 20
324.204
  0
VERTEX
  8
Layer2
 10
665.639
 20
324.247
  0
VERTEX
  8
Layer2
 10
665.706
 20
324.295
  0
VERTEX
  8
Layer2
 10
665.769
 20
324.348
  0
VERTEX
  8
Layer2
 10
665.829
 20
324.404
  0
VERTEX
  8
Layer2
 10
665.884
 20
324.464
  0
VERTEX
  8
Layer2
 10
665.936
 20
324.528
  0
VERTEX
  8
Layer2
 10
665.984
 20
324.595
  0
VERTEX
  8
Layer2
 10
666.026
 20
324.665
  0
VERTEX
  8
Layer2
 10
666.065
 20
324.738
  0
VERTEX
  8
Layer2
 10
666.098
 20
324.813
  0
VERTEX
  8
Layer2
 10
666.126
 20
324.89
  0
VERTEX
  8
Layer2
 10
666.149
 20
324.969
  0
VERTEX
  8
Layer2
 10
666.167
 20
325.049
  0
VERTEX
  8
Layer2
 10
666.18
 20
325.13
  0
VERTEX
  8
Layer2
 10
666.187
 20
325.212
  0
VERTEX
  8
Layer2
 10
666.189
 20
325.294
  0
SEQEND
  0
LINE
  8
Layer2
  6
CONTINUOUS
 62
7
 10
655.862
 20
327.609
 11
653.448
 21
325.08
  0
LINE
  8
Layer2
  6
CONTINUOUS
 62
7
 10
655.862
 20
325.294
 11
654.437
 21
324.047
  0
POLYLINE
  8
Layer2
  6
CONTINUOUS
 62
7
 66
1
 10
0
 20
0
 30
0
  0
VERTEX
  8
Layer2
 10
653.448
 20
325.08
  0
VERTEX
  8
Layer2
 10
653.418
 20
325.046
  0
VERTEX
  8
Layer2
 10
653.39
 20
325.011
  0
VERTEX
  8
Layer2
 10
653.364
 20
324.973
  0
VERTEX
  8
Layer2
 10
653.341
 20
324.934
  0
VERTEX
  8
Layer2
 10
653.32
 20
324.894
  0
VERTEX
  8
Layer2
 10
653.302
 20
324.852
  0
VERTEX
  8
Layer2
 10
653.286
 20
324.809
  0
VERTEX
  8
Layer2
 10
653.273
 20
324.766
  0
VERTEX
  8
Layer2
 10
653.263
 20
324.721
  0
VERTEX
  8
Layer2
 10
653.256
 20
324.676
  0
VERTEX
  8
Layer2
 10
653.252
 20
324.631
  0
VERTEX
  8
Layer2
 10
653.251
 20
324.585
  0
VERTEX
  8
Layer2
 10
653.252
 20
324.54
  0
VERTEX
  8
Layer2
 10
653.256
 20
324.495
  0
VERTEX
  8
Layer2
 10
653.264
 20
324.45
  0
VERTEX
  8
Layer2
 10
653.274
 20
324.405
  0
VERTEX
  8
Layer2
 10
653.287
 20
324.362
  0
VERTEX
  8
Layer2
 10
653.302
 20
324.319
  0
VERTEX
  8
Layer2
 10
653.32
 20
324.277
  0
VERTEX
  8
Layer2
 10
653.341
 20
324.237
  0
VERTEX
  8
Layer2
 10
653.365
 20
324.198
  0
VERTEX
  8
Layer2
 10
653.391
 20
324.161
  0
VERTEX
  8
Layer2
 10
653.419
 20
324.125
  0
VERTEX
  8
Layer2
 10
653.449
 20
324.091
  0
VERTEX
  8
Layer2
 10
653.482
 20
324.059
  0
VERTEX
  8
Layer2
 10
653.516
 20
324.03
  0
VERTEX
  8
Layer2
 10
653.552
 20
324.002
  0
VERTEX
  8
Layer2
 10
653.59
 20
323.977
  0
VERTEX
  8
Layer2
 10
653.63
 20
323.954
  0
VERTEX
  8
Layer2
 10
653.671
 20
323.934
  0
VERTEX
  8
Layer2
 10
653.713
 20
323.917
  0
VERTEX
  8
Layer2
 10
653.756
 20
323.902
  0
VERTEX
  8
Layer2
 10
653.8
 20
323.89
  0
VERTEX
  8
Layer2
 10
653.844
 20
323.881
  0
VERTEX
  8
Layer2
 10
653.889
 20
323.875
  0
VERTEX
  8
Layer2
 10
653.935
 20
323.871
  0
VERTEX
  8
Layer2
 10
653.98
 20
323.871
  0
VERTEX
  8
Layer2
 10
654.026
 20
323.873
  0
VERTEX
  8
Layer2
 10
654.071
 20
323.878
  0
VERTEX
  8
Layer2
 10
654.116
 20
323.886
  0
VERTEX
  8
Layer2
 10
654.16
 20
323.897
  0
VERTEX
  8
Layer2
 10
654.203
 20
323.911
  0
VERTEX
  8
Layer2
 10
654.246
 20
323.927
  0
VERTEX
  8
Layer2
 10
654.287
 20
323.946
  0
VERTEX
  8
Layer2
 10
654.327
 20
323.968
  0
VERTEX
  8
Layer2
 10
654.365
 20
323.992
  0
VERTEX
  8
Layer2
 10
654.402
 20
324.019
  0
VERTEX
  8
Layer2
 10
654.437
 20
324.047
  0
SEQEND
  0
LINE
  8
Layer2
  6
CONTINUOUS
 62
7
 10
657.183
 20
325.294
 11
657.183
 21
322.171
  0
LINE
  8
Layer2
  6
CONTINUOUS
 62
7
 10
663.093
 20
325.294
 11
663.093
 21
322.171
  0
LINE
  8
Layer2
  6
CONTINUOUS
 62
7
 10
657.989
 20
311.018
 11
662.377
 21
311.018
  0
LINE
  8
Layer2
  6
CONTINUOUS
 62
7
 10
657.183
 20
311.567
 11
663.183
 21
311.567
  0
LINE
  8
Layer2
  6
CONTINUOUS
 62
7
 10
657.989
 20
311.018
 11
657.183
 21
311.567
  0
LINE
  8
Layer2
  6
CONTINUOUS
 62
7
 10
662.377
 20
311.018
 11
663.183
 21
311.567
  0
LINE
  8
Layer2
  6
CONTINUOUS
 62
7
 10
665.294
 20
318.439
 11
665.294
 21
321.526
  0
LINE
  8
Layer2
  6
CONTINUOUS
 62
7
 10
665.294
 20
321.526
 11
664.175
 21
322.171
  0
LINE
  8
Layer2
  6
CONTINUOUS
 62
7
 10
664.175
 20
322.171
 11
656.273
 21
322.171
  0
LINE
  8
Layer2
  6
CONTINUOUS
 62
7
 10
656.273
 20
322.171
 11
655.155
 21
321.526
  0
LINE
  8
Layer2
  6
CONTINUOUS
 62
7
 10
655.155
 20
321.526
 11
655.155
 21
318.439
  0
LINE
  8
Layer2
  6
CONTINUOUS
 62
7
 10
662.759
 20
318.439
 11
662.759
 21
321.526
  0
LINE
  8
Layer2
  6
CONTINUOUS
 62
7
 10
657.69
 20
318.439
 11
657.69
 21
321.526
  0
POLYLINE
  8
Layer2
  6
CONTINUOUS
 62
7
 66
1
 10
0
 20
0
 30
0
  0
VERTEX
  8
Layer2
 10
662.759
 20
321.525
  0
VERTEX
  8
Layer2
 10
662.657
 20
321.557
  0
VERTEX
  8
Layer2
 10
662.554
 20
321.587
  0
VERTEX
  8
Layer2
 10
662.45
 20
321.617
  0
VERTEX
  8
Layer2
 10
662.347
 20
321.644
  0
VERTEX
  8
Layer2
 10
662.243
 20
321.671
  0
VERTEX
  8
Layer2
 10
662.139
 20
321.696
  0
VERTEX
  8
Layer2
 10
662.034
 20
321.72
  0
VERTEX
  8
Layer2
 10
661.929
 20
321.742
  0
VERTEX
  8
Layer2
 10
661.824
 20
321.763
  0
VERTEX
  8
Layer2
 10
661.718
 20
321.783
  0
VERTEX
  8
Layer2
 10
661.613
 20
321.802
  0
VERTEX
  8
Layer2
 10
661.507
 20
321.819
  0
VERTEX
  8
Layer2
 10
661.401
 20
321.834
  0
VERTEX
  8
Layer2
 10
661.294
 20
321.849
  0
VERTEX
  8
Layer2
 10
661.188
 20
321.862
  0
VERTEX
  8
Layer2
 10
661.081
 20
321.873
  0
VERTEX
  8
Layer2
 10
660.974
 20
321.884
  0
VERTEX
  8
Layer2
 10
660.867
 20
321.893
  0
VERTEX
  8
Layer2
 10
660.76
 20
321.9
  0
VERTEX
  8
Layer2
 10
660.653
 20
321.906
  0
VERTEX
  8
Layer2
 10
660.546
 20
321.911
  0
VERTEX
  8
Layer2
 10
660.439
 20
321.915
  0
VERTEX
  8
Layer2
 10
660.332
 20
321.917
  0
VERTEX
  8
Layer2
 10
660.224
 20
321.917
  0
VERTEX
  8
Layer2
 10
660.117
 20
321.917
  0
VERTEX
  8
Layer2
 10
660.01
 20
321.915
  0
VERTEX
  8
Layer2
 10
659.902
 20
321.911
  0
VERTEX
  8
Layer2
 10
659.795
 20
321.906
  0
VERTEX
  8
Layer2
 10
659.688
 20
321.9
  0
VERTEX
  8
Layer2
 10
659.581
 20
321.893
  0
VERTEX
  8
Layer2
 10
659.474
 20
321.884
  0
VERTEX
  8
Layer2
 10
659.367
 20
321.873
  0
VERTEX
  8
Layer2
 10
659.261
 20
321.862
  0
VERTEX
  8
Layer2
 10
659.154
 20
321.849
  0
VERTEX
  8
Layer2
 10
659.048
 20
321.834
  0
VERTEX
  8
Layer2
 10
658.942
 20
321.819
  0
VERTEX
  8
Layer2
 10
658.836
 20
321.802
  0
VERTEX
  8
Layer2
 10
658.73
 20
321.783
  0
VERTEX
  8
Layer2
 10
658.625
 20
321.763
  0
VERTEX
  8
Layer2
 10
658.52
 20
321.742
  0
VERTEX
  8
Layer2
 10
658.415
 20
321.72
  0
VERTEX
  8
Layer2
 10
658.31
 20
321.696
  0
VERTEX
  8
Layer2
 10
658.206
 20
321.671
  0
VERTEX
  8
Layer2
 10
658.102
 20
321.644
  0
VERTEX
  8
Layer2
 10
657.998
 20
321.617
  0
VERTEX
  8
Layer2
 10
657.895
 20
321.587
  0
VERTEX
  8
Layer2
 10
657.792
 20
321.557
  0
VERTEX
  8
Layer2
 10
657.689
 20
321.525
  0
SEQEND
  0
POLYLINE
  8
Layer2
  6
CONTINUOUS
 62
7
 66
1
 10
0
 20
0
 30
0
  0
VERTEX
  8
Layer2
 10
665.294
 20
321.525
  0
VERTEX
  8
Layer2
 10
665.247
 20
321.556
  0
VERTEX
  8
Layer2
 10
665.2
 20
321.586
  0
VERTEX
  8
Layer2
 10
665.151
 20
321.615
  0
VERTEX
  8
Layer2
 10
665.102
 20
321.643
  0
VERTEX
  8
Layer2
 10
665.053
 20
321.669
  0
VERTEX
  8
Layer2
 10
665.003
 20
321.694
  0
VERTEX
  8
Layer2
 10
664.952
 20
321.718
  0
VERTEX
  8
Layer2
 10
664.9
 20
321.74
  0
VERTEX
  8
Layer2
 10
664.848
 20
321.761
  0
VERTEX
  8
Layer2
 10
664.796
 20
321.781
  0
VERTEX
  8
Layer2
 10
664.743
 20
321.8
  0
VERTEX
  8
Layer2
 10
664.69
 20
321.817
  0
VERTEX
  8
Layer2
 10
664.636
 20
321.833
  0
VERTEX
  8
Layer2
 10
664.582
 20
321.848
  0
VERTEX
  8
Layer2
 10
664.527
 20
321.861
  0
VERTEX
  8
Layer2
 10
664.472
 20
321.873
  0
VERTEX
  8
Layer2
 10
664.417
 20
321.883
  0
VERTEX
  8
Layer2
 10
664.362
 20
321.892
  0
VERTEX
  8
Layer2
 10
664.306
 20
321.9
  0
VERTEX
  8
Layer2
 10
664.25
 20
321.906
  0
VERTEX
  8
Layer2
 10
664.194
 20
321.911
  0
VERTEX
  8
Layer2
 10
664.138
 20
321.915
  0
VERTEX
  8
Layer2
 10
664.082
 20
321.917
  0
VERTEX
  8
Layer2
 10
664.026
 20
321.917
  0
VERTEX
  8
Layer2
 10
663.97
 20
321.917
  0
VERTEX
  8
Layer2
 10
663.914
 20
321.915
  0
VERTEX
  8
Layer2
 10
663.858
 20
321.911
  0
VERTEX
  8
Layer2
 10
663.802
 20
321.906
  0
VERTEX
  8
Layer2
 10
663.746
 20
321.9
  0
VERTEX
  8
Layer2
 10
663.691
 20
321.892
  0
VERTEX
  8
Layer2
 10
663.635
 20
321.883
  0
VERTEX
  8
Layer2
 10
663.58
 20
321.873
  0
VERTEX
  8
Layer2
 10
663.525
 20
321.861
  0
VERTEX
  8
Layer2
 10
663.471
 20
321.848
  0
VERTEX
  8
Layer2
 10
663.417
 20
321.833
  0
VERTEX
  8
Layer2
 10
663.363
 20
321.817
  0
VERTEX
  8
Layer2
 10
663.309
 20
321.8
  0
VERTEX
  8
Layer2
 10
663.256
 20
321.781
  0
VERTEX
  8
Layer2
 10
663.204
 20
321.761
  0
VERTEX
  8
Layer2
 10
663.152
 20
321.74
  0
VERTEX
  8
Layer2
 10
663.101
 20
321.718
  0
VERTEX
  8
Layer2
 10
663.05
 20
321.694
  0
VERTEX
  8
Layer2
 10
663
 20
321.669
  0
VERTEX
  8
Layer2
 10
662.95
 20
321.643
  0
VERTEX
  8
Layer2
 10
662.901
 20
321.615
  0
VERTEX
  8
Layer2
 10
662.853
 20
321.586
  0
VERTEX
  8
Layer2
 10
662.805
 20
321.556
  0
VERTEX
  8
Layer2
 10
662.759
 20
321.525
  0
SEQEND
  0
POLYLINE
  8
Layer2
  6
CONTINUOUS
 62
7
 66
1
 10
0
 20
0
 30
0
  0
VERTEX
  8
Layer2
 10
657.69
 20
321.525
  0
VERTEX
  8
Layer2
 10
657.643
 20
321.556
  0
VERTEX
  8
Layer2
 10
657.596
 20
321.586
  0
VERTEX
  8
Layer2
 10
657.548
 20
321.615
  0
VERTEX
  8
Layer2
 10
657.499
 20
321.643
  0
VERTEX
  8
Layer2
 10
657.449
 20
321.669
  0
VERTEX
  8
Layer2
 10
657.399
 20
321.694
  0
VERTEX
  8
Layer2
 10
657.348
 20
321.718
  0
VERTEX
  8
Layer2
 10
657.297
 20
321.74
  0
VERTEX
  8
Layer2
 10
657.245
 20
321.761
  0
VERTEX
  8
Layer2
 10
657.192
 20
321.781
  0
VERTEX
  8
Layer2
 10
657.139
 20
321.8
  0
VERTEX
  8
Layer2
 10
657.086
 20
321.817
  0
VERTEX
  8
Layer2
 10
657.032
 20
321.833
  0
VERTEX
  8
Layer2
 10
656.978
 20
321.848
  0
VERTEX
  8
Layer2
 10
656.923
 20
321.861
  0
VERTEX
  8
Layer2
 10
656.868
 20
321.873
  0
VERTEX
  8
Layer2
 10
656.813
 20
321.883
  0
VERTEX
  8
Layer2
 10
656.758
 20
321.892
  0
VERTEX
  8
Layer2
 10
656.702
 20
321.9
  0
VERTEX
  8
Layer2
 10
656.646
 20
321.906
  0
VERTEX
  8
Layer2
 10
656.591
 20
321.911
  0
VERTEX
  8
Layer2
 10
656.535
 20
321.915
  0
VERTEX
  8
Layer2
 10
656.478
 20
321.917
  0
VERTEX
  8
Layer2
 10
656.422
 20
321.917
  0
VERTEX
  8
Layer2
 10
656.366
 20
321.917
  0
VERTEX
  8
Layer2
 10
656.31
 20
321.915
  0
VERTEX
  8
Layer2
 10
656.254
 20
321.911
  0
VERTEX
  8
Layer2
 10
656.198
 20
321.906
  0
VERTEX
  8
Layer2
 10
656.142
 20
321.9
  0
VERTEX
  8
Layer2
 10
656.087
 20
321.892
  0
VERTEX
  8
Layer2
 10
656.031
 20
321.883
  0
VERTEX
  8
Layer2
 10
655.976
 20
321.873
  0
VERTEX
  8
Layer2
 10
655.922
 20
321.861
  0
VERTEX
  8
Layer2
 10
655.867
 20
321.848
  0
VERTEX
  8
Layer2
 10
655.813
 20
321.833
  0
VERTEX
  8
Layer2
 10
655.759
 20
321.817
  0
VERTEX
  8
Layer2
 10
655.706
 20
321.8
  0
VERTEX
  8
Layer2
 10
655.653
 20
321.781
  0
VERTEX
  8
Layer2
 10
655.6
 20
321.761
  0
VERTEX
  8
Layer2
 10
655.548
 20
321.74
  0
VERTEX
  8
Layer2
 10
655.497
 20
321.718
  0
VERTEX
  8
Layer2
 10
655.446
 20
321.694
  0
VERTEX
  8
Layer2
 10
655.396
 20
321.669
  0
VERTEX
  8
Layer2
 10
655.346
 20
321.643
  0
VERTEX
  8
Layer2
 10
655.297
 20
321.615
  0
VERTEX
  8
Layer2
 10
655.249
 20
321.586
  0
VERTEX
  8
Layer2
 10
655.202
 20
321.556
  0
VERTEX
  8
Layer2
 10
655.155
 20
321.525
  0
SEQEND
  0
POLYLINE
  8
Layer2
  6
CONTINUOUS
 62
7
 66
1
 10
0
 20
0
 30
0
 70
1
  0
VERTEX
  8
Layer2
 10
665.489
 20
325.281
  0
VERTEX
  8
Layer2
 10
665.484
 20
325.352
  0
VERTEX
  8
Layer2
 10
665.47
 20
325.422
  0
VERTEX
  8
Layer2
 10
665.447
 20
325.49
  0
VERTEX
  8
Layer2
 10
665.416
 20
325.554
  0
VERTEX
  8
Layer2
 10
665.376
 20
325.614
  0
VERTEX
  8
Layer2
 10
665.329
 20
325.667
  0
VERTEX
  8
Layer2
 10
665.275
 20
325.714
  0
VERTEX
  8
Layer2
 10
665.216
 20
325.754
  0
VERTEX
  8
Layer2
 10
665.152
 20
325.786
  0
VERTEX
  8
Layer2
 10
665.084
 20
325.809
  0
VERTEX
  8
Layer2
 10
665.014
 20
325.822
  0
VERTEX
  8
Layer2
 10
664.943
 20
325.827
  0
VERTEX
  8
Layer2
 10
664.871
 20
325.822
  0
VERTEX
  8
Layer2
 10
664.801
 20
325.809
  0
VERTEX
  8
Layer2
 10
664.734
 20
325.786
  0
VERTEX
  8
Layer2
 10
664.67
 20
325.754
  0
VERTEX
  8
Layer2
 10
664.61
 20
325.714
  0
VERTEX
  8
Layer2
 10
664.557
 20
325.667
  0
VERTEX
  8
Layer2
 10
664.51
 20
325.614
  0
VERTEX
  8
Layer2
 10
664.47
 20
325.554
  0
VERTEX
  8
Layer2
 10
664.438
 20
325.49
  0
VERTEX
  8
Layer2
 10
664.415
 20
325.422
  0
VERTEX
  8
Layer2
 10
664.401
 20
325.352
  0
VERTEX
  8
Layer2
 10
664.397
 20
325.281
  0
VERTEX
  8
Layer2
 10
664.401
 20
325.21
  0
VERTEX
  8
Layer2
 10
664.415
 20
325.14
  0
VERTEX
  8
Layer2
 10
664.438
 20
325.072
  0
VERTEX
  8
Layer2
 10
664.47
 20
325.008
  0
VERTEX
  8
Layer2
 10
664.51
 20
324.949
  0
VERTEX
  8
Layer2
 10
664.557
 20
324.895
  0
VERTEX
  8
Layer2
 10
664.61
 20
324.848
  0
VERTEX
  8
Layer2
 10
664.67
 20
324.808
  0
VERTEX
  8
Layer2
 10
664.734
 20
324.777
  0
VERTEX
  8
Layer2
 10
664.801
 20
324.754
  0
VERTEX
  8
Layer2
 10
664.871
 20
324.74
  0
VERTEX
  8
Layer2
 10
664.943
 20
324.735
  0
VERTEX
  8
Layer2
 10
665.014
 20
324.74
  0
VERTEX
  8
Layer2
 10
665.084
 20
324.754
  0
VERTEX
  8
Layer2
 10
665.152
 20
324.777
  0
VERTEX
  8
Layer2
 10
665.216
 20
324.808
  0
VERTEX
  8
Layer2
 10
665.275
 20
324.848
  0
VERTEX
  8
Layer2
 10
665.329
 20
324.895
  0
VERTEX
  8
Layer2
 10
665.376
 20
324.949
  0
VERTEX
  8
Layer2
 10
665.416
 20
325.008
  0
VERTEX
  8
Layer2
 10
665.447
 20
325.072
  0
VERTEX
  8
Layer2
 10
665.47
 20
325.14
  0
VERTEX
  8
Layer2
 10
665.484
 20
325.21
  0
SEQEND
  0
LINE
  8
Layer2
  6
CONTINUOUS
 62
7
 10
655.155
 20
318.439
 11
665.294
 21
318.439
  0
LINE
  8
Layer2
  6
CONTINUOUS
 62
7
 10
673.724
 20
307.439
 11
646.724
 21
307.439
  0
LINE
  8
Layer2
  6
CONTINUOUS
 62
7
 10
675.224
 20
302.439
 11
675.224
 21
305.939
  0
LINE
  8
Layer2
  6
CONTINUOUS
 62
7
 10
645.224
 20
302.439
 11
645.224
 21
305.939
  0
ARC
  8
Layer2
  6
CONTINUOUS
 62
7
 10
673.724
 20
305.939
 40
1.5
 50
2.03555e-013
 51
90
  0
ARC
  8
Layer2
  6
CONTINUOUS
 62
7
 10
646.724
 20
305.939
 40
1.5
 50
90
 51
180
  0
LINE
  8
Layer2
  6
CONTINUOUS
 62
7
 10
676.224
 20
301.439
 11
681.094
 21
301.439
  0
LINE
  8
Layer2
  6
CONTINUOUS
 62
7
 10
644.224
 20
301.439
 11
641.513
 21
301.439
  0
ARC
  8
Layer2
  6
CONTINUOUS
 62
7
 10
676.224
 20
302.439
 40
1
 50
180
 51
270
  0
ARC
  8
Layer2
  6
CONTINUOUS
 62
7
 10
644.224
 20
302.439
 40
1
 50
270
 51
2.03555e-013
  0
LINE
  8
Layer2
  6
CONTINUOUS
 62
7
 10
662.724
 20
311.239
 11
662.724
 21
307.429
  0
LINE
  8
Layer2
  6
CONTINUOUS
 62
7
 10
657.724
 20
311.199
 11
657.724
 21
307.423
  0
LINE
  8
Layer2
  6
CONTINUOUS
 62
7
 10
663.224
 20
317.439
 11
657.224
 21
317.439
  0
LINE
  8
Layer2
  6
CONTINUOUS
 62
7
 10
657.224
 20
317.439
 11
656.224
 21
318.439
  0
LINE
  8
Layer2
  6
CONTINUOUS
 62
7
 10
660.224
 20
317.439
 11
660.224
 21
316.826
  0
POLYLINE
  8
Layer2
  6
CONTINUOUS
 62
7
 66
1
 10
0
 20
0
 30
0
  0
VERTEX
  8
Layer2
 10
639.705
 20
318.439
  0
VERTEX
  8
Layer2
 10
639.732
 20
318.224
  0
VERTEX
  8
Layer2
 10
639.758
 20
318.011
  0
VERTEX
  8
Layer2
 10
639.786
 20
317.797
  0
VERTEX
  8
Layer2
 10
639.813
 20
317.584
  0
VERTEX
  8
Layer2
 10
639.842
 20
317.37
  0
VERTEX
  8
Layer2
 10
639.872
 20
317.157
  0
VERTEX
  8
Layer2
 10
639.903
 20
316.943
  0
VERTEX
  8
Layer2
 10
639.935
 20
316.729
  0
VERTEX
  8
Layer2
 10
639.969
 20
316.517
  0
VERTEX
  8
Layer2
 10
640.004
 20
316.304
  0
VERTEX
  8
Layer2
 10
640.041
 20
316.092
  0
VERTEX
  8
Layer2
 10
640.079
 20
315.881
  0
VERTEX
  8
Layer2
 10
640.12
 20
315.668
  0
VERTEX
  8
Layer2
 10
640.164
 20
315.457
  0
VERTEX
  8
Layer2
 10
640.211
 20
315.246
  0
VERTEX
  8
Layer2
 10
640.26
 20
315.036
  0
VERTEX
  8
Layer2
 10
640.312
 20
314.825
  0
VERTEX
  8
Layer2
 10
640.367
 20
314.616
  0
VERTEX
  8
Layer2
 10
640.425
 20
314.407
  0
VERTEX
  8
Layer2
 10
640.487
 20
314.199
  0
VERTEX
  8
Layer2
 10
640.553
 20
313.99
  0
VERTEX
  8
Layer2
 10
640.621
 20
313.783
  0
VERTEX
  8
Layer2
 10
640.692
 20
313.576
  0
VERTEX
  8
Layer2
 10
640.764
 20
313.37
  0
VERTEX
  8
Layer2
 10
640.839
 20
313.164
  0
VERTEX
  8
Layer2
 10
640.912
 20
312.958
  0
VERTEX
  8
Layer2
 10
640.985
 20
312.751
  0
VERTEX
  8
Layer2
 10
641.058
 20
312.545
  0
VERTEX
  8
Layer2
 10
641.128
 20
312.339
  0
VERTEX
  8
Layer2
 10
641.196
 20
312.133
  0
VERTEX
  8
Layer2
 10
641.26
 20
311.926
  0
VERTEX
  8
Layer2
 10
641.322
 20
311.72
  0
VERTEX
  8
Layer2
 10
641.378
 20
311.513
  0
VERTEX
  8
Layer2
 10
641.429
 20
311.304
  0
VERTEX
  8
Layer2
 10
641.475
 20
311.096
  0
VERTEX
  8
Layer2
 10
641.514
 20
310.888
  0
VERTEX
  8
Layer2
 10
641.545
 20
310.679
  0
VERTEX
  8
Layer2
 10
641.57
 20
310.468
  0
VERTEX
  8
Layer2
 10
641.585
 20
310.258
  0
VERTEX
  8
Layer2
 10
641.591
 20
310.045
  0
VERTEX
  8
Layer2
 10
641.59
 20
309.833
  0
VERTEX
  8
Layer2
 10
641.582
 20
309.62
  0
VERTEX
  8
Layer2
 10
641.57
 20
309.406
  0
VERTEX
  8
Layer2
 10
641.552
 20
309.192
  0
VERTEX
  8
Layer2
 10
641.53
 20
308.976
  0
VERTEX
  8
Layer2
 10
641.505
 20
308.762
  0
VERTEX
  8
Layer2
 10
641.478
 20
308.546
  0
VERTEX
  8
Layer2
 10
641.451
 20
308.329
  0
VERTEX
  8
Layer2
 10
641.423
 20
308.114
  0
VERTEX
  8
Layer2
 10
641.397
 20
307.897
  0
VERTEX
  8
Layer2
 10
641.371
 20
307.681
  0
VERTEX
  8
Layer2
 10
641.348
 20
307.464
  0
VERTEX
  8
Layer2
 10
641.328
 20
307.249
  0
VERTEX
  8
Layer2
 10
641.314
 20
307.032
  0
VERTEX
  8
Layer2
 10
641.305
 20
306.816
  0
VERTEX
  8
Layer2
 10
641.301
 20
306.601
  0
VERTEX
  8
Layer2
 10
641.303
 20
306.385
  0
VERTEX
  8
Layer2
 10
641.31
 20
306.169
  0
VERTEX
  8
Layer2
 10
641.321
 20
305.955
  0
VERTEX
  8
Layer2
 10
641.337
 20
305.739
  0
VERTEX
  8
Layer2
 10
641.355
 20
305.524
  0
VERTEX
  8
Layer2
 10
641.376
 20
305.31
  0
VERTEX
  8
Layer2
 10
641.399
 20
305.095
  0
VERTEX
  8
Layer2
 10
641.423
 20
304.88
  0
VERTEX
  8
Layer2
 10
641.449
 20
304.666
  0
VERTEX
  8
Layer2
 10
641.474
 20
304.451
  0
VERTEX
  8
Layer2
 10
641.5
 20
304.237
  0
VERTEX
  8
Layer2
 10
641.524
 20
304.022
  0
VERTEX
  8
Layer2
 10
641.547
 20
303.807
  0
VERTEX
  8
Layer2
 10
641.568
 20
303.593
  0
VERTEX
  8
Layer2
 10
641.587
 20
303.378
  0
VERTEX
  8
Layer2
 10
641.602
 20
303.163
  0
VERTEX
  8
Layer2
 10
641.613
 20
302.948
  0
VERTEX
  8
Layer2
 10
641.621
 20
302.732
  0
VERTEX
  8
Layer2
 10
641.625
 20
302.517
  0
VERTEX
  8
Layer2
 10
641.626
 20
302.302
  0
VERTEX
  8
Layer2
 10
641.624
 20
302.086
  0
VERTEX
  8
Layer2
 10
641.621
 20
301.87
  0
VERTEX
  8
Layer2
 10
641.616
 20
301.655
  0
VERTEX
  8
Layer2
 10
641.612
 20
301.439
  0
SEQEND
  0
LINE
  8
Layer2
  6
CENTER1
 62
7
 10
326.21
 20
234.939
 11
346.869
 21
234.939
  0
CIRCLE
  8
Layer2
  6
CONTINUOUS
 62
7
 10
420.739
 20
292.939
 40
6.5
  0
CIRCLE
  8
Layer2
  6
CONTINUOUS
 62
7
 10
337.739
 20
292.939
 40
6.5
  0
CIRCLE
  8
Layer2
  6
CONTINUOUS
 62
7
 10
337.739
 20
234.939
 40
6.5
  0
CIRCLE
  8
Layer2
  6
CONTINUOUS
 62
7
 10
420.739
 20
234.939
 40
6.5
  0
POLYLINE
  8
Layer2
  6
CONTINUOUS
 62
7
 66
1
 10
0
 20
0
 30
0
 70
1
  0
VERTEX
  8
Layer2
 10
337.739
 20
296.369
  0
VERTEX
  8
Layer2
 10
334.768
 20
294.654
  0
VERTEX
  8
Layer2
 10
334.768
 20
291.224
  0
VERTEX
  8
Layer2
 10
337.739
 20
289.509
  0
VERTEX
  8
Layer2
 10
340.709
 20
291.224
  0
VERTEX
  8
Layer2
 10
340.709
 20
294.654
  0
SEQEND
  0
POLYLINE
  8
Layer2
  6
CONTINUOUS
 62
7
 66
1
 10
0
 20
0
 30
0
 70
1
  0
VERTEX
  8
Layer2
 10
420.739
 20
296.369
  0
VERTEX
  8
Layer2
 10
417.768
 20
294.654
  0
VERTEX
  8
Layer2
 10
417.768
 20
291.224
  0
VERTEX
  8
Layer2
 10
420.739
 20
289.509
  0
VERTEX
  8
Layer2
 10
423.709
 20
291.224
  0
VERTEX
  8
Layer2
 10
423.709
 20
294.654
  0
SEQEND
  0
POLYLINE
  8
Layer2
  6
CONTINUOUS
 62
7
 66
1
 10
0
 20
0
 30
0
 70
1
  0
VERTEX
  8
Layer2
 10
420.739
 20
238.369
  0
VERTEX
  8
Layer2
 10
417.768
 20
236.654
  0
VERTEX
  8
Layer2
 10
417.768
 20
233.224
  0
VERTEX
  8
Layer2
 10
420.739
 20
231.509
  0
VERTEX
  8
Layer2
 10
423.709
 20
233.224
  0
VERTEX
  8
Layer2
 10
423.709
 20
236.654
  0
SEQEND
  0
POLYLINE
  8
Layer2
  6
CONTINUOUS
 62
7
 66
1
 10
0
 20
0
 30
0
 70
1
  0
VERTEX
  8
Layer2
 10
337.739
 20
238.369
  0
VERTEX
  8
Layer2
 10
334.768
 20
236.654
  0
VERTEX
  8
Layer2
 10
334.768
 20
233.224
  0
VERTEX
  8
Layer2
 10
337.739
 20
231.509
  0
VERTEX
  8
Layer2
 10
340.709
 20
233.224
  0
VERTEX
  8
Layer2
 10
340.709
 20
236.654
  0
SEQEND
  0
LINE
  8
Layer2
  6
CENTER1
 62
7
 10
412.138
 20
292.939
 11
434.818
 21
292.939
  0
LINE
  8
Layer2
  6
CENTER1
 62
7
 10
411.689
 20
234.939
 11
431.45
 21
234.939
  0
LINE
  8
Layer2
  6
CENTER1
 62
7
 10
337.739
 20
243.53
 11
337.739
 21
223.32
  0
LINE
  8
Layer2
  6
CENTER1
 62
7
 10
420.739
 20
244.428
 11
420.739
 21
223.32
  0
LINE
  8
Layer2
  6
CENTER1
 62
7
 10
326.659
 20
292.939
 11
347.318
 21
292.939
  0
LINE
  8
Layer2
  6
CENTER1
 62
7
 10
337.739
 20
303.261
 11
337.739
 21
284.847
  0
LINE
  8
Layer2
  6
CENTER1
 62
7
 10
420.739
 20
303.261
 11
420.739
 21
284.847
  0
LINE
  8
Layer2
  6
CONTINUOUS
 62
7
 10
790.224
 20
394.539
 11
712.224
 21
394.539
  0
LINE
  8
Layer2
  6
CONTINUOUS
 62
7
 10
708.224
 20
318.439
 11
612.224
 21
318.439
  0
LINE
  8
Layer2
  6
CONTINUOUS
 62
7
 10
767.224
 20
279.539
 11
786.224
 21
279.539
  0
LINE
  8
Layer2
  6
CONTINUOUS
 62
7
 10
604.224
 20
226.439
 11
583.224
 21
226.439
  0
LINE
  8
Layer2
  6
CONTINUOUS
 62
7
 10
612.224
 20
203.939
 11
790.224
 21
203.939
  0
LINE
  8
Layer2
  6
CONTINUOUS
 62
7
 10
791.224
 20
310.939
 11
791.224
 21
224.939
  0
LINE
  8
Layer2
  6
CONTINUOUS
 62
7
 10
809.224
 20
224.939
 11
809.224
 21
310.939
  0
LINE
  8
Layer2
  6
CONTINUOUS
 62
7
 10
609.724
 20
227.939
 11
609.724
 21
300.439
  0
LINE
  8
Layer2
  6
CONTINUOUS
 62
7
 10
605.224
 20
288.939
 11
605.224
 21
227.439
  0
LINE
  8
Layer2
  6
CONTINUOUS
 62
7
 10
582.224
 20
227.439
 11
582.224
 21
300.439
  0
LINE
  8
Layer2
  6
PHANTOM1
 62
7
 10
711.224
 20
346.939
 11
791.224
 21
346.939
  0
LINE
  8
Layer2
  6
CONTINUOUS
 62
7
 10
711.224
 20
379.539
 11
711.224
 21
393.539
  0
LINE
  8
Layer2
  6
CONTINUOUS
 62
7
 10
610.724
 20
301.439
 11
748.848
 21
301.439
  0
LINE
  8
Layer2
  6
CONTINUOUS
 62
7
 10
790.224
 20
378.539
 11
712.224
 21
378.539
  0
LINE
  8
Layer2
  6
PHANTOM1
 62
7
 10
711.224
 20
330.939
 11
791.224
 21
330.939
  0
LINE
  8
Layer2
  6
CENTER1
 62
7
 10
578.103
 20
292.939
 11
628.936
 21
292.939
  0
LINE
  8
Layer2
  6
CONTINUOUS
 62
7
 10
611.224
 20
302.439
 11
611.224
 21
317.439
  0
LINE
  8
Layer2
  6
CONTINUOUS
 62
7
 10
611.224
 20
317.439
 11
612.224
 21
318.439
  0
LINE
  8
Layer2
  6
CONTINUOUS
 62
7
 10
612.224
 20
301.439
 11
611.224
 21
302.439
  0
LINE
  8
Layer2
  6
CONTINUOUS
 62
7
 10
606.224
 20
301.439
 11
608.724
 21
301.439
  0
LINE
  8
Layer2
  6
CONTINUOUS
 62
7
 10
583.224
 20
301.439
 11
604.224
 21
301.439
  0
LINE
  8
Layer2
  6
CONTINUOUS
 62
7
 10
605.224
 20
300.439
 11
604.224
 21
301.439
  0
LINE
  8
Layer2
  6
CONTINUOUS
 62
7
 10
582.224
 20
227.439
 11
583.224
 21
226.439
  0
LINE
  8
Layer2
  6
CONTINUOUS
 62
7
 10
606.224
 20
226.439
 11
608.724
 21
226.439
  0
LINE
  8
Layer2
  6
CONTINUOUS
 62
7
 10
605.224
 20
227.439
 11
604.224
 21
226.439
  0
LINE
  8
Layer2
  6
CONTINUOUS
 62
7
 10
605.224
 20
227.439
 11
606.224
 21
226.439
  0
LINE
  8
Layer2
  6
CONTINUOUS
 62
7
 10
610.724
 20
226.939
 11
692.828
 21
226.939
  0
LINE
  8
Layer2
  6
CONTINUOUS
 62
7
 10
790.224
 20
226.439
 11
765.224
 21
226.439
  0
LINE
  8
Layer2
  6
CONTINUOUS
 62
7
 10
711.224
 20
379.539
 11
711.224
 21
346.277
  0
LINE
  8
Layer2
  6
CONTINUOUS
 62
7
 10
791.224
 20
393.539
 11
791.224
 21
379.539
  0
LINE
  8
Layer2
  6
CONTINUOUS
 62
7
 10
711.224
 20
393.539
 11
712.224
 21
394.539
  0
LINE
  8
Layer2
  6
CONTINUOUS
 62
7
 10
711.224
 20
379.539
 11
712.224
 21
378.539
  0
LINE
  8
Layer2
  6
CONTINUOUS
 62
7
 10
790.224
 20
378.539
 11
791.224
 21
379.539
  0
LINE
  8
Layer2
  6
CONTINUOUS
 62
7
 10
791.224
 20
393.539
 11
790.224
 21
394.539
  0
LINE
  8
Layer2
  6
CONTINUOUS
 62
7
 10
791.224
 20
250.937
 11
711.224
 21
346.277
  0
LINE
  8
Layer2
  6
PHANTOM1
 62
7
 10
711.224
 20
346.277
 11
711.224
 21
298.607
  0
LINE
  8
Layer2
  6
CONTINUOUS
 62
7
 10
792.224
 20
223.939
 11
808.224
 21
223.939
  0
LINE
  8
Layer2
  6
CONTINUOUS
 62
7
 10
792.224
 20
311.939
 11
808.224
 21
311.939
  0
LINE
  8
Layer2
  6
CONTINUOUS
 62
7
 10
808.224
 20
311.939
 11
809.224
 21
310.939
  0
LINE
  8
Layer2
  6
CONTINUOUS
 62
7
 10
809.224
 20
224.939
 11
808.224
 21
223.939
  0
LINE
  8
Layer2
  6
CONTINUOUS
 62
7
 10
792.224
 20
223.939
 11
791.224
 21
224.939
  0
LINE
  8
Layer2
  6
CONTINUOUS
 62
7
 10
791.224
 20
310.939
 11
792.224
 21
311.939
  0
LINE
  8
Layer2
  6
CONTINUOUS
 62
7
 10
791.224
 20
225.439
 11
791.224
 21
204.939
  0
LINE
  8
Layer2
  6
CONTINUOUS
 62
7
 10
791.224
 20
204.939
 11
790.224
 21
203.939
  0
LINE
  8
Layer2
  6
CONTINUOUS
 62
7
 10
612.224
 20
226.939
 11
611.224
 21
225.939
  0
LINE
  8
Layer2
  6
CONTINUOUS
 62
7
 10
790.224
 20
226.439
 11
791.224
 21
225.439
  0
LINE
  8
Layer2
  6
CONTINUOUS
 62
7
 10
791.224
 20
284.539
 11
791.224
 21
379.539
  0
LINE
  8
Layer2
  6
PHANTOM1
 62
7
 10
751.224
 20
250.937
 11
708.589
 21
301.748
  0
LINE
  8
Layer2
  6
PHANTOM1
 62
7
 10
751.224
 20
250.937
 11
751.224
 21
226.439
  0
LINE
  8
Layer2
  6
CENTER1
 62
7
 10
759.224
 20
249.736
 11
759.224
 21
202.17
  0
LINE
  8
Layer2
  6
CONTINUOUS
 62
7
 10
753.224
 20
226.439
 11
753.224
 21
229.439
  0
LINE
  8
Layer2
  6
CONTINUOUS
 62
7
 10
765.224
 20
229.439
 11
765.224
 21
226.439
  0
LINE
  8
Layer2
  6
CONTINUOUS
 62
7
 10
753.224
 20
229.439
 11
765.224
 21
229.439
  0
LINE
  8
Layer2
  6
CONTINUOUS
 62
7
 10
753.224
 20
226.439
 11
697.013
 21
226.439
  0
LINE
  8
Layer2
  6
CONTINUOUS
 62
7
 10
606.224
 20
301.439
 11
605.224
 21
300.439
  0
LINE
  8
Layer2
  6
CONTINUOUS
 62
7
 10
609.724
 20
300.439
 11
610.724
 21
301.439
  0
LINE
  8
Layer2
  6
CENTER1
 62
7
 10
577.958
 20
234.939
 11
618.157
 21
234.939
  0
LINE
  8
Layer2
  6
CONTINUOUS
 62
7
 10
765.224
 20
207.439
 11
765.224
 21
229.439
  0
LINE
  8
Layer2
  6
CONTINUOUS
 62
7
 10
753.224
 20
207.439
 11
753.224
 21
229.439
  0
LINE
  8
Layer2
  6
CONTINUOUS
 62
7
 10
753.224
 20
229.439
 11
765.224
 21
229.439
  0
LINE
  8
Layer2
  6
DASHED1
 62
7
 10
756.224
 20
220.049
 11
756.224
 21
241.439
  0
LINE
  8
Layer2
  6
DASHED1
 62
7
 10
762.224
 20
230.439
 11
762.224
 21
241.439
  0
LINE
  8
Layer2
  6
DASHED1
 62
7
 10
756.224
 20
241.439
 11
762.224
 21
241.439
  0
LINE
  8
Layer2
  6
DASHED1
 62
7
 10
756.724
 20
220.065
 11
756.724
 21
244.995
  0
LINE
  8
Layer2
  6
DASHED1
 62
7
 10
761.724
 20
220.425
 11
761.724
 21
244.995
  0
LINE
  8
Layer2
  6
CONTINUOUS
 62
7
 10
759.224
 20
246.439
 11
761.724
 21
244.995
  0
LINE
  8
Layer2
  6
CONTINUOUS
 62
7
 10
759.224
 20
246.439
 11
756.724
 21
244.995
  0
LINE
  8
Layer2
  6
DASHED1
 62
7
 10
756.724
 20
244.995
 11
761.724
 21
244.995
  0
LINE
  8
Layer2
  6
CONTINUOUS
 62
7
 10
761.724
 20
244.995
 11
761.404
 21
244.995
  0
LINE
  8
Layer2
  6
CONTINUOUS
 62
7
 10
762.224
 20
241.439
 11
761.1
 21
241.439
  0
LINE
  8
Layer2
  6
CONTINUOUS
 62
7
 10
756.224
 20
241.439
 11
756.224
 21
240.538
  0
LINE
  8
Layer2
  6
DASHED1
 62
7
 10
762.224
 20
241.439
 11
762.224
 21
220.82
  0
LINE
  8
Layer2
  6
CONTINUOUS
 62
7
 10
765.224
 20
207.439
 11
753.224
 21
207.439
  0
LINE
  8
Layer2
  6
CONTINUOUS
 62
7
 10
763.224
 20
208.439
 11
755.224
 21
208.439
  0
LINE
  8
Layer2
  6
CONTINUOUS
 62
7
 10
754.224
 20
209.439
 11
754.224
 21
214.439
  0
LINE
  8
Layer2
  6
CONTINUOUS
 62
7
 10
764.224
 20
209.439
 11
764.224
 21
214.439
  0
LINE
  8
Layer2
  6
CONTINUOUS
 62
7
 10
753.724
 20
214.439
 11
764.724
 21
214.439
  0
LINE
  8
Layer2
  6
CONTINUOUS
 62
7
 10
755.224
 20
208.439
 11
754.224
 21
209.439
  0
LINE
  8
Layer2
  6
CONTINUOUS
 62
7
 10
763.224
 20
208.439
 11
764.224
 21
209.439
  0
LINE
  8
Layer2
  6
CONTINUOUS
 62
7
 10
754.224
 20
209.439
 11
764.224
 21
209.439
  0
LINE
  8
Layer2
  6
CONTINUOUS
 62
7
 10
762.224
 20
241.439
 11
761.724
 21
242.305
  0
LINE
  8
Layer2
  6
CONTINUOUS
 62
7
 10
756.224
 20
241.439
 11
756.724
 21
242.305
  0
LINE
  8
Layer2
  6
DASHED1
 62
7
 10
756.724
 20
242.305
 11
761.724
 21
242.305
  0
POLYLINE
  8
Layer2
  6
CONTINUOUS
 62
7
 66
1
 10
0
 20
0
 30
0
  0
VERTEX
  8
Layer2
 10
753.224
 20
218.439
  0
VERTEX
  8
Layer2
 10
753.411
 20
218.579
  0
VERTEX
  8
Layer2
 10
753.598
 20
218.719
  0
VERTEX
  8
Layer2
 10
753.784
 20
218.857
  0
VERTEX
  8
Layer2
 10
753.972
 20
218.992
  0
VERTEX
  8
Layer2
 10
754.159
 20
219.124
  0
VERTEX
  8
Layer2
 10
754.347
 20
219.251
  0
VERTEX
  8
Layer2
 10
754.536
 20
219.372
  0
VERTEX
  8
Layer2
 10
754.725
 20
219.486
  0
VERTEX
  8
Layer2
 10
754.916
 20
219.594
  0
VERTEX
  8
Layer2
 10
755.107
 20
219.692
  0
VERTEX
  8
Layer2
 10
755.299
 20
219.782
  0
VERTEX
  8
Layer2
 10
755.492
 20
219.861
  0
VERTEX
  8
Layer2
 10
755.686
 20
219.929
  0
VERTEX
  8
Layer2
 10
755.882
 20
219.985
  0
VERTEX
  8
Layer2
 10
756.078
 20
220.028
  0
VERTEX
  8
Layer2
 10
756.277
 20
220.057
  0
VERTEX
  8
Layer2
 10
756.477
 20
220.071
  0
VERTEX
  8
Layer2
 10
756.679
 20
220.069
  0
VERTEX
  8
Layer2
 10
756.882
 20
220.05
  0
VERTEX
  8
Layer2
 10
757.087
 20
220.017
  0
VERTEX
  8
Layer2
 10
757.293
 20
219.972
  0
VERTEX
  8
Layer2
 10
757.5
 20
219.917
  0
VERTEX
  8
Layer2
 10
757.708
 20
219.856
  0
VERTEX
  8
Layer2
 10
757.916
 20
219.792
  0
VERTEX
  8
Layer2
 10
758.124
 20
219.726
  0
VERTEX
  8
Layer2
 10
758.332
 20
219.663
  0
VERTEX
  8
Layer2
 10
758.539
 20
219.604
  0
VERTEX
  8
Layer2
 10
758.745
 20
219.553
  0
VERTEX
  8
Layer2
 10
758.95
 20
219.512
  0
VERTEX
  8
Layer2
 10
759.153
 20
219.484
  0
VERTEX
  8
Layer2
 10
759.354
 20
219.472
  0
VERTEX
  8
Layer2
 10
759.554
 20
219.476
  0
VERTEX
  8
Layer2
 10
759.751
 20
219.496
  0
VERTEX
  8
Layer2
 10
759.947
 20
219.531
  0
VERTEX
  8
Layer2
 10
760.141
 20
219.579
  0
VERTEX
  8
Layer2
 10
760.333
 20
219.64
  0
VERTEX
  8
Layer2
 10
760.524
 20
219.713
  0
VERTEX
  8
Layer2
 10
760.713
 20
219.798
  0
VERTEX
  8
Layer2
 10
760.9
 20
219.892
  0
VERTEX
  8
Layer2
 10
761.086
 20
219.997
  0
VERTEX
  8
Layer2
 10
761.27
 20
220.11
  0
VERTEX
  8
Layer2
 10
761.453
 20
220.231
  0
VERTEX
  8
Layer2
 10
761.634
 20
220.358
  0
VERTEX
  8
Layer2
 10
761.814
 20
220.492
  0
VERTEX
  8
Layer2
 10
761.993
 20
220.631
  0
VERTEX
  8
Layer2
 10
762.171
 20
220.775
  0
VERTEX
  8
Layer2
 10
762.347
 20
220.922
  0
VERTEX
  8
Layer2
 10
762.522
 20
221.072
  0
VERTEX
  8
Layer2
 10
762.697
 20
221.224
  0
VERTEX
  8
Layer2
 10
762.87
 20
221.376
  0
VERTEX
  8
Layer2
 10
763.042
 20
221.529
  0
VERTEX
  8
Layer2
 10
763.214
 20
221.681
  0
VERTEX
  8
Layer2
 10
763.385
 20
221.832
  0
VERTEX
  8
Layer2
 10
763.554
 20
221.98
  0
VERTEX
  8
Layer2
 10
763.724
 20
222.124
  0
VERTEX
  8
Layer2
 10
763.892
 20
222.265
  0
VERTEX
  8
Layer2
 10
764.06
 20
222.403
  0
VERTEX
  8
Layer2
 10
764.227
 20
222.537
  0
VERTEX
  8
Layer2
 10
764.394
 20
222.668
  0
VERTEX
  8
Layer2
 10
764.561
 20
222.797
  0
VERTEX
  8
Layer2
 10
764.727
 20
222.924
  0
VERTEX
  8
Layer2
 10
764.893
 20
223.05
  0
VERTEX
  8
Layer2
 10
765.059
 20
223.175
  0
VERTEX
  8
Layer2
 10
765.224
 20
223.299
  0
SEQEND
  0
LINE
  8
Layer2
  6
CONTINUOUS
 62
7
 10
762.224
 20
220.82
 11
762.224
 21
214.439
  0
LINE
  8
Layer2
  6
CONTINUOUS
 62
7
 10
761.724
 20
220.425
 11
761.724
 21
214.439
  0
LINE
  8
Layer2
  6
CONTINUOUS
 62
7
 10
756.724
 20
220.066
 11
756.724
 21
214.439
  0
LINE
  8
Layer2
  6
CONTINUOUS
 62
7
 10
756.224
 20
220.049
 11
756.224
 21
214.439
  0
LINE
  8
Layer2
  6
CONTINUOUS
 62
7
 10
754.224
 20
214.439
 11
754.224
 21
209.439
  0
LINE
  8
Layer2
  6
CONTINUOUS
 62
7
 10
764.224
 20
214.439
 11
764.224
 21
209.439
  0
LINE
  8
Layer2
  6
CONTINUOUS
 62
7
 10
753.724
 20
207.439
 11
753.724
 21
214.439
  0
LINE
  8
Layer2
  6
CONTINUOUS
 62
7
 10
764.724
 20
207.439
 11
764.724
 21
214.439
  0
LINE
  8
Layer2
  6
DASHED1
 62
7
 10
737.371
 20
206.262
 11
739.949
 21
206.262
  0
LINE
  8
Layer2
  6
CONTINUOUS
 62
7
 10
753.224
 20
224.262
 11
751.292
 21
224.262
  0
LINE
  8
Layer2
  6
DASHED1
 62
7
 10
735.652
 20
221.281
 11
738.23
 21
221.281
  0
LINE
  8
Layer2
  6
DASHED1
 62
7
 10
737.371
 20
211.286
 11
739.949
 21
211.286
  0
LINE
  8
Layer2
  6
DASHED1
 62
7
 10
738.23
 20
226.278
 11
738.23
 21
221.281
  0
LINE
  8
Layer2
  6
DASHED1
 62
7
 10
735.652
 20
226.278
 11
735.652
 21
221.281
  0
LINE
  8
Layer2
  6
DASHED1
 62
7
 10
737.371
 20
211.286
 11
737.371
 21
206.262
  0
LINE
  8
Layer2
  6
DASHED1
 62
7
 10
739.949
 20
211.286
 11
739.949
 21
206.262
  0
LINE
  8
Layer2
  6
DASHED1
 62
7
 10
735.652
 20
221.281
 11
737.371
 21
211.286
  0
LINE
  8
Layer2
  6
DASHED1
 62
7
 10
738.23
 20
221.281
 11
739.949
 21
211.286
  0
LINE
  8
Layer2
  6
DASHED1
 62
7
 10
736.512
 20
216.283
 11
737.371
 21
206.262
  0
LINE
  8
Layer2
  6
DASHED1
 62
7
 10
738.445
 20
226.278
 11
739.089
 21
216.283
  0
LINE
  8
Layer2
  6
CONTINUOUS
 62
7
 10
742.527
 20
206.262
 11
745.104
 21
206.262
  0
LINE
  8
Layer2
  6
CONTINUOUS
 62
7
 10
743.386
 20
226.278
 11
740.808
 21
226.278
  0
LINE
  8
Layer2
  6
CONTINUOUS
 62
7
 10
740.808
 20
221.281
 11
743.386
 21
221.281
  0
LINE
  8
Layer2
  6
CONTINUOUS
 62
7
 10
742.527
 20
211.286
 11
745.104
 21
211.286
  0
LINE
  8
Layer2
  6
CONTINUOUS
 62
7
 10
743.386
 20
226.278
 11
743.386
 21
221.281
  0
LINE
  8
Layer2
  6
CONTINUOUS
 62
7
 10
740.808
 20
226.278
 11
740.808
 21
221.281
  0
LINE
  8
Layer2
  6
CONTINUOUS
 62
7
 10
742.527
 20
211.286
 11
742.527
 21
206.262
  0
LINE
  8
Layer2
  6
CONTINUOUS
 62
7
 10
745.104
 20
211.286
 11
745.104
 21
206.262
  0
LINE
  8
Layer2
  6
CONTINUOUS
 62
7
 10
740.808
 20
221.281
 11
742.527
 21
211.286
  0
LINE
  8
Layer2
  6
CONTINUOUS
 62
7
 10
743.386
 20
221.281
 11
745.104
 21
211.286
  0
LINE
  8
Layer2
  6
CONTINUOUS
 62
7
 10
741.667
 20
216.283
 11
742.527
 21
206.262
  0
LINE
  8
Layer2
  6
CONTINUOUS
 62
7
 10
743.601
 20
226.278
 11
744.245
 21
216.283
  0
LINE
  8
Layer2
  6
CONTINUOUS
 62
7
 10
747.682
 20
206.262
 11
750.26
 21
206.262
  0
LINE
  8
Layer2
  6
CONTINUOUS
 62
7
 10
748.542
 20
226.278
 11
745.964
 21
226.278
  0
LINE
  8
Layer2
  6
CONTINUOUS
 62
7
 10
745.964
 20
221.281
 11
748.542
 21
221.281
  0
LINE
  8
Layer2
  6
CONTINUOUS
 62
7
 10
747.682
 20
211.286
 11
750.26
 21
211.286
  0
LINE
  8
Layer2
  6
CONTINUOUS
 62
7
 10
748.542
 20
226.278
 11
748.542
 21
221.281
  0
LINE
  8
Layer2
  6
CONTINUOUS
 62
7
 10
745.964
 20
226.278
 11
745.964
 21
221.281
  0
LINE
  8
Layer2
  6
CONTINUOUS
 62
7
 10
747.682
 20
211.286
 11
747.682
 21
206.262
  0
LINE
  8
Layer2
  6
CONTINUOUS
 62
7
 10
750.26
 20
211.286
 11
750.26
 21
206.262
  0
LINE
  8
Layer2
  6
CONTINUOUS
 62
7
 10
745.964
 20
221.281
 11
747.682
 21
211.286
  0
LINE
  8
Layer2
  6
CONTINUOUS
 62
7
 10
748.542
 20
221.281
 11
750.26
 21
211.286
  0
LINE
  8
Layer2
  6
CONTINUOUS
 62
7
 10
746.823
 20
216.283
 11
747.682
 21
206.262
  0
LINE
  8
Layer2
  6
CONTINUOUS
 62
7
 10
748.756
 20
226.278
 11
749.401
 21
216.283
  0
LINE
  8
Layer2
  6
CONTINUOUS
 62
7
 10
751.292
 20
219.768
 11
753.224
 21
219.762
  0
LINE
  8
Layer2
  6
CONTINUOUS
 62
7
 10
752.838
 20
210.78
 11
753.224
 21
210.762
  0
LINE
  8
Layer2
  6
CONTINUOUS
 62
7
 10
751.119
 20
226.278
 11
751.119
 21
221.281
  0
LINE
  8
Layer2
  6
CONTINUOUS
 62
7
 10
752.838
 20
211.286
 11
752.838
 21
206.262
  0
LINE
  8
Layer2
  6
CONTINUOUS
 62
7
 10
751.119
 20
221.281
 11
752.838
 21
211.286
  0
LINE
  8
Layer2
  6
CONTINUOUS
 62
7
 10
751.979
 20
216.283
 11
752.838
 21
206.262
  0
LINE
  8
Layer2
  6
DASHED1
 62
7
 10
738.23
 20
226.278
 11
735.652
 21
226.278
  0
LINE
  8
Layer2
  6
DASHED1
 62
7
 10
733.075
 20
226.278
 11
730.497
 21
226.278
  0
LINE
  8
Layer2
  6
DASHED1
 62
7
 10
727.919
 20
226.278
 11
725.341
 21
226.278
  0
LINE
  8
Layer2
  6
DASHED1
 62
7
 10
727.06
 20
206.262
 11
729.637
 21
206.262
  0
LINE
  8
Layer2
  6
CONTINUOUS
 62
7
 10
727.919
 20
226.278
 11
725.341
 21
226.278
  0
LINE
  8
Layer2
  6
CONTINUOUS
 62
7
 10
725.341
 20
221.281
 11
727.919
 21
221.281
  0
LINE
  8
Layer2
  6
CONTINUOUS
 62
7
 10
727.06
 20
211.286
 11
729.637
 21
211.286
  0
LINE
  8
Layer2
  6
CONTINUOUS
 62
7
 10
727.919
 20
226.278
 11
727.919
 21
221.281
  0
LINE
  8
Layer2
  6
CONTINUOUS
 62
7
 10
725.341
 20
226.278
 11
725.341
 21
221.281
  0
LINE
  8
Layer2
  6
DASHED1
 62
7
 10
727.06
 20
211.286
 11
727.06
 21
206.262
  0
LINE
  8
Layer2
  6
DASHED1
 62
7
 10
729.637
 20
209.635
 11
729.637
 21
206.262
  0
LINE
  8
Layer2
  6
CONTINUOUS
 62
7
 10
725.341
 20
221.281
 11
726.805
 21
212.767
  0
LINE
  8
Layer2
  6
CONTINUOUS
 62
7
 10
727.919
 20
221.281
 11
729.637
 21
211.286
  0
LINE
  8
Layer2
  6
DASHED1
 62
7
 10
726.442
 20
213.47
 11
727.06
 21
206.262
  0
LINE
  8
Layer2
  6
CONTINUOUS
 62
7
 10
728.134
 20
226.278
 11
728.778
 21
216.283
  0
LINE
  8
Layer2
  6
DASHED1
 62
7
 10
732.215
 20
206.262
 11
734.793
 21
206.262
  0
LINE
  8
Layer2
  6
CONTINUOUS
 62
7
 10
737.371
 20
206.262
 11
739.949
 21
206.262
  0
LINE
  8
Layer2
  6
CONTINUOUS
 62
7
 10
738.23
 20
226.278
 11
735.652
 21
226.278
  0
LINE
  8
Layer2
  6
CONTINUOUS
 62
7
 10
735.652
 20
221.281
 11
738.23
 21
221.281
  0
LINE
  8
Layer2
  6
CONTINUOUS
 62
7
 10
737.371
 20
211.286
 11
739.949
 21
211.286
  0
LINE
  8
Layer2
  6
CONTINUOUS
 62
7
 10
738.23
 20
226.278
 11
738.23
 21
221.281
  0
LINE
  8
Layer2
  6
CONTINUOUS
 62
7
 10
735.652
 20
226.278
 11
735.652
 21
221.281
  0
LINE
  8
Layer2
  6
CONTINUOUS
 62
7
 10
737.371
 20
211.286
 11
737.371
 21
206.262
  0
LINE
  8
Layer2
  6
CONTINUOUS
 62
7
 10
739.949
 20
211.286
 11
739.949
 21
206.262
  0
LINE
  8
Layer2
  6
CONTINUOUS
 62
7
 10
735.652
 20
221.281
 11
737.371
 21
211.286
  0
LINE
  8
Layer2
  6
CONTINUOUS
 62
7
 10
738.23
 20
221.281
 11
739.949
 21
211.286
  0
LINE
  8
Layer2
  6
CONTINUOUS
 62
7
 10
736.512
 20
216.283
 11
737.371
 21
206.262
  0
LINE
  8
Layer2
  6
CONTINUOUS
 62
7
 10
738.445
 20
226.278
 11
739.089
 21
216.283
  0
LINE
  8
Layer2
  6
CONTINUOUS
 62
7
 10
729.637
 20
209.635
 11
729.637
 21
211.286
  0
LINE
  8
Layer2
  6
CONTINUOUS
 62
7
 10
726.442
 20
213.47
 11
726.2
 21
216.283
  0
LINE
  8
Layer2
  6
CONTINUOUS
 62
7
 10
726.805
 20
212.767
 11
727.06
 21
211.286
  0
LINE
  8
Layer2
  6
CONTINUOUS
 62
7
 10
733.075
 20
226.278
 11
730.497
 21
226.278
  0
LINE
  8
Layer2
  6
CONTINUOUS
 62
7
 10
730.497
 20
221.281
 11
733.075
 21
221.281
  0
LINE
  8
Layer2
  6
CONTINUOUS
 62
7
 10
732.215
 20
211.286
 11
734.793
 21
211.286
  0
LINE
  8
Layer2
  6
CONTINUOUS
 62
7
 10
733.075
 20
226.278
 11
733.075
 21
221.281
  0
LINE
  8
Layer2
  6
CONTINUOUS
 62
7
 10
730.497
 20
226.278
 11
730.497
 21
221.281
  0
LINE
  8
Layer2
  6
CONTINUOUS
 62
7
 10
732.215
 20
211.286
 11
732.215
 21
208.039
  0
LINE
  8
Layer2
  6
CONTINUOUS
 62
7
 10
734.793
 20
211.286
 11
734.793
 21
206.887
  0
LINE
  8
Layer2
  6
CONTINUOUS
 62
7
 10
730.497
 20
221.281
 11
732.215
 21
211.286
  0
LINE
  8
Layer2
  6
CONTINUOUS
 62
7
 10
733.075
 20
221.281
 11
734.793
 21
211.286
  0
LINE
  8
Layer2
  6
CONTINUOUS
 62
7
 10
731.356
 20
216.283
 11
732.056
 21
208.125
  0
LINE
  8
Layer2
  6
CONTINUOUS
 62
7
 10
733.289
 20
226.278
 11
733.934
 21
216.283
  0
LINE
  8
Layer2
  6
DASHED1
 62
7
 10
732.215
 20
206.262
 11
732.024
 21
208.497
  0
LINE
  8
Layer2
  6
DASHED1
 62
7
 10
732.215
 20
208.039
 11
732.215
 21
206.262
  0
LINE
  8
Layer2
  6
CONTINUOUS
 62
7
 10
734.793
 20
206.887
 11
734.793
 21
206.262
  0
LINE
  8
Layer2
  6
DASHED1
 62
7
 10
750.442
 20
299.539
 11
791.224
 21
299.539
  0
LINE
  8
Layer2
  6
CONTINUOUS
 62
7
 10
605.224
 20
300.439
 11
605.224
 21
296.939
  0
LINE
  8
Layer2
  6
CONTINUOUS
 62
7
 10
582.224
 20
300.439
 11
583.224
 21
301.439
  0
POLYLINE
  8
Layer2
  6
CONTINUOUS
 62
7
 66
1
 10
0
 20
0
 30
0
  0
VERTEX
  8
Layer2
 10
607.844
 20
301.439
  0
VERTEX
  8
Layer2
 10
607.852
 20
301.119
  0
VERTEX
  8
Layer2
 10
607.86
 20
300.798
  0
VERTEX
  8
Layer2
 10
607.868
 20
300.477
  0
VERTEX
  8
Layer2
 10
607.876
 20
300.154
  0
VERTEX
  8
Layer2
 10
607.884
 20
299.83
  0
VERTEX
  8
Layer2
 10
607.893
 20
299.503
  0
VERTEX
  8
Layer2
 10
607.902
 20
299.174
  0
VERTEX
  8
Layer2
 10
607.912
 20
298.841
  0
VERTEX
  8
Layer2
 10
607.922
 20
298.505
  0
VERTEX
  8
Layer2
 10
607.932
 20
298.164
  0
VERTEX
  8
Layer2
 10
607.944
 20
297.819
  0
VERTEX
  8
Layer2
 10
607.956
 20
297.469
  0
VERTEX
  8
Layer2
 10
607.969
 20
297.114
  0
VERTEX
  8
Layer2
 10
607.982
 20
296.753
  0
VERTEX
  8
Layer2
 10
607.997
 20
296.385
  0
VERTEX
  8
Layer2
 10
608.011
 20
296.012
  0
VERTEX
  8
Layer2
 10
608.024
 20
295.636
  0
VERTEX
  8
Layer2
 10
608.033
 20
295.258
  0
VERTEX
  8
Layer2
 10
608.039
 20
294.879
  0
VERTEX
  8
Layer2
 10
608.038
 20
294.501
  0
VERTEX
  8
Layer2
 10
608.031
 20
294.126
  0
VERTEX
  8
Layer2
 10
608.015
 20
293.755
  0
VERTEX
  8
Layer2
 10
607.989
 20
293.39
  0
VERTEX
  8
Layer2
 10
607.953
 20
293.032
  0
VERTEX
  8
Layer2
 10
607.903
 20
292.683
  0
VERTEX
  8
Layer2
 10
607.84
 20
292.345
  0
VERTEX
  8
Layer2
 10
607.761
 20
292.018
  0
VERTEX
  8
Layer2
 10
607.666
 20
291.705
  0
VERTEX
  8
Layer2
 10
607.553
 20
291.407
  0
VERTEX
  8
Layer2
 10
607.42
 20
291.126
  0
VERTEX
  8
Layer2
 10
607.267
 20
290.863
  0
VERTEX
  8
Layer2
 10
607.091
 20
290.619
  0
VERTEX
  8
Layer2
 10
606.893
 20
290.397
  0
VERTEX
  8
Layer2
 10
606.669
 20
290.198
  0
VERTEX
  8
Layer2
 10
606.42
 20
290.021
  0
VERTEX
  8
Layer2
 10
606.15
 20
289.864
  0
VERTEX
  8
Layer2
 10
605.861
 20
289.722
  0
VERTEX
  8
Layer2
 10
605.557
 20
289.592
  0
VERTEX
  8
Layer2
 10
605.241
 20
289.469
  0
VERTEX
  8
Layer2
 10
604.917
 20
289.349
  0
VERTEX
  8
Layer2
 10
604.588
 20
289.23
  0
VERTEX
  8
Layer2
 10
604.258
 20
289.106
  0
VERTEX
  8
Layer2
 10
603.929
 20
288.974
  0
VERTEX
  8
Layer2
 10
603.605
 20
288.83
  0
VERTEX
  8
Layer2
 10
603.29
 20
288.67
  0
VERTEX
  8
Layer2
 10
602.984
 20
288.494
  0
VERTEX
  8
Layer2
 10
602.686
 20
288.305
  0
VERTEX
  8
Layer2
 10
602.395
 20
288.105
  0
VERTEX
  8
Layer2
 10
602.111
 20
287.897
  0
VERTEX
  8
Layer2
 10
601.831
 20
287.683
  0
VERTEX
  8
Layer2
 10
601.556
 20
287.465
  0
VERTEX
  8
Layer2
 10
601.284
 20
287.246
  0
VERTEX
  8
Layer2
 10
601.014
 20
287.03
  0
VERTEX
  8
Layer2
 10
600.745
 20
286.817
  0
VERTEX
  8
Layer2
 10
600.476
 20
286.611
  0
VERTEX
  8
Layer2
 10
600.206
 20
286.414
  0
VERTEX
  8
Layer2
 10
599.934
 20
286.229
  0
VERTEX
  8
Layer2
 10
599.659
 20
286.058
  0
VERTEX
  8
Layer2
 10
599.38
 20
285.903
  0
VERTEX
  8
Layer2
 10
599.096
 20
285.768
  0
VERTEX
  8
Layer2
 10
598.806
 20
285.655
  0
VERTEX
  8
Layer2
 10
598.51
 20
285.565
  0
VERTEX
  8
Layer2
 10
598.205
 20
285.502
  0
VERTEX
  8
Layer2
 10
597.893
 20
285.464
  0
VERTEX
  8
Layer2
 10
597.573
 20
285.449
  0
VERTEX
  8
Layer2
 10
597.248
 20
285.452
  0
VERTEX
  8
Layer2
 10
596.917
 20
285.471
  0
VERTEX
  8
Layer2
 10
596.582
 20
285.503
  0
VERTEX
  8
Layer2
 10
596.243
 20
285.544
  0
VERTEX
  8
Layer2
 10
595.902
 20
285.592
  0
VERTEX
  8
Layer2
 10
595.558
 20
285.643
  0
VERTEX
  8
Layer2
 10
595.213
 20
285.694
  0
VERTEX
  8
Layer2
 10
594.868
 20
285.743
  0
VERTEX
  8
Layer2
 10
594.523
 20
285.786
  0
VERTEX
  8
Layer2
 10
594.179
 20
285.819
  0
VERTEX
  8
Layer2
 10
593.838
 20
285.841
  0
VERTEX
  8
Layer2
 10
593.499
 20
285.847
  0
VERTEX
  8
Layer2
 10
593.164
 20
285.835
  0
VERTEX
  8
Layer2
 10
592.833
 20
285.802
  0
VERTEX
  8
Layer2
 10
592.506
 20
285.751
  0
VERTEX
  8
Layer2
 10
592.183
 20
285.682
  0
VERTEX
  8
Layer2
 10
591.863
 20
285.597
  0
VERTEX
  8
Layer2
 10
591.545
 20
285.499
  0
VERTEX
  8
Layer2
 10
591.23
 20
285.388
  0
VERTEX
  8
Layer2
 10
590.918
 20
285.267
  0
VERTEX
  8
Layer2
 10
590.607
 20
285.137
  0
VERTEX
  8
Layer2
 10
590.297
 20
284.999
  0
VERTEX
  8
Layer2
 10
589.989
 20
284.856
  0
VERTEX
  8
Layer2
 10
589.681
 20
284.709
  0
VERTEX
  8
Layer2
 10
589.373
 20
284.56
  0
VERTEX
  8
Layer2
 10
589.066
 20
284.41
  0
VERTEX
  8
Layer2
 10
588.758
 20
284.261
  0
VERTEX
  8
Layer2
 10
588.449
 20
284.115
  0
VERTEX
  8
Layer2
 10
588.139
 20
283.974
  0
VERTEX
  8
Layer2
 10
587.828
 20
283.839
  0
VERTEX
  8
Layer2
 10
587.515
 20
283.711
  0
VERTEX
  8
Layer2
 10
587.199
 20
283.593
  0
VERTEX
  8
Layer2
 10
586.882
 20
283.486
  0
VERTEX
  8
Layer2
 10
586.561
 20
283.392
  0
VERTEX
  8
Layer2
 10
586.238
 20
283.309
  0
VERTEX
  8
Layer2
 10
585.912
 20
283.237
  0
VERTEX
  8
Layer2
 10
585.584
 20
283.175
  0
VERTEX
  8
Layer2
 10
585.254
 20
283.122
  0
VERTEX
  8
Layer2
 10
584.922
 20
283.077
  0
VERTEX
  8
Layer2
 10
584.588
 20
283.04
  0
VERTEX
  8
Layer2
 10
584.253
 20
283.009
  0
VERTEX
  8
Layer2
 10
583.917
 20
282.983
  0
VERTEX
  8
Layer2
 10
583.58
 20
282.962
  0
VERTEX
  8
Layer2
 10
583.241
 20
282.944
  0
VERTEX
  8
Layer2
 10
582.903
 20
282.93
  0
VERTEX
  8
Layer2
 10
582.564
 20
282.917
  0
VERTEX
  8
Layer2
 10
582.224
 20
282.905
  0
SEQEND
  0
LINE
  8
Layer2
  6
CENTER1
 62
7
 10
660.224
 20
305.223
 11
660.224
 21
329.355
  0
LINE
  8
Layer2
  6
CENTER1
 62
7
 10
698.224
 20
323.415
 11
698.224
 21
295.091
  0
LINE
  8
Layer2
  6
CONTINUOUS
 62
7
 10
709.224
 20
302.439
 11
709.224
 21
317.439
  0
LINE
  8
Layer2
  6
CONTINUOUS
 62
7
 10
708.224
 20
318.439
 11
709.224
 21
317.439
  0
LINE
  8
Layer2
  6
CONTINUOUS
 62
7
 10
708.224
 20
301.439
 11
709.224
 21
302.439
  0
LINE
  8
Layer2
  6
CENTER1
 62
7
 10
726.224
 20
397.485
 11
726.224
 21
370.614
  0
LINE
  8
Layer2
  6
CENTER1
 62
7
 10
776.224
 20
397.726
 11
776.224
 21
370.465
  0
ARC
  8
Layer2
  6
CONTINUOUS
 62
7
 10
786.224
 20
284.539
 40
5
 50
270
 51
2.03555e-013
  0
LINE
  8
Layer2
  6
CONTINUOUS
 62
7
 10
809.224
 20
450.563
 11
809.224
 21
593.563
  0
LINE
  8
Layer2
  6
CONTINUOUS
 62
7
 10
791.224
 20
455.063
 11
791.224
 21
589.063
  0
LINE
  8
Layer2
  6
CONTINUOUS
 62
7
 10
711.224
 20
450.563
 11
711.224
 21
593.563
  0
LINE
  8
Layer2
  6
CONTINUOUS
 62
7
 10
611.224
 20
615.063
 11
611.224
 21
429.063
  0
LINE
  8
Layer2
  6
CONTINUOUS
 62
7
 10
605.224
 20
473.063
 11
605.224
 21
571.063
  0
LINE
  8
Layer2
  6
CONTINUOUS
 62
7
 10
582.224
 20
473.063
 11
582.224
 21
571.063
  0
LINE
  8
Layer2
  6
CONTINUOUS
 62
7
 10
709.224
 20
450.563
 11
709.224
 21
593.563
  0
LINE
  8
Layer2
  6
CONTINUOUS
 62
7
 10
809.224
 20
591.063
 11
818.624
 21
591.063
  0
LINE
  8
Layer2
  6
CONTINUOUS
 62
7
 10
809.224
 20
575.063
 11
818.624
 21
575.063
  0
LINE
  8
Layer2
  6
CONTINUOUS
 62
7
 10
818.624
 20
591.063
 11
818.624
 21
575.063
  0
LINE
  8
Layer2
  6
CONTINUOUS
 62
7
 10
819.224
 20
590.463
 11
819.224
 21
575.663
  0
LINE
  8
Layer2
  6
CONTINUOUS
 62
7
 10
818.624
 20
591.063
 11
819.224
 21
590.463
  0
LINE
  8
Layer2
  6
CONTINUOUS
 62
7
 10
818.624
 20
575.063
 11
819.224
 21
575.663
  0
LINE
  8
Layer2
  6
CONTINUOUS
 62
7
 10
809.224
 20
575.063
 11
809.224
 21
591.063
  0
LINE
  8
Layer2
  6
CENTER1
 62
7
 10
567.859
 20
522.063
 11
816.563
 21
522.063
  0
LINE
  8
Layer2
  6
CONTINUOUS
 62
7
 10
791.224
 20
615.063
 11
791.224
 21
429.063
  0
LINE
  8
Layer2
  6
CENTER1
 62
7
 10
776.224
 20
572.063
 11
776.224
 21
594.656
  0
LINE
  8
Layer2
  6
CENTER1
 62
7
 10
698.224
 20
453.694
 11
698.224
 21
470.031
  0
LINE
  8
Layer2
  6
CENTER1
 62
7
 10
698.224
 20
575.665
 11
698.224
 21
594.563
  0
LINE
  8
Layer2
  6
CENTER1
 62
7
 10
660.224
 20
575.665
 11
660.224
 21
594.563
  0
LINE
  8
Layer2
  6
CENTER1
 62
7
 10
622.224
 20
575.665
 11
622.224
 21
594.563
  0
LINE
  8
Layer2
  6
CENTER1
 62
7
 10
660.224
 20
453.694
 11
660.224
 21
470.031
  0
LINE
  8
Layer2
  6
CENTER1
 62
7
 10
622.224
 20
453.694
 11
622.224
 21
470.031
  0
LINE
  8
Layer2
  6
CENTER1
 62
7
 10
613.849
 20
583.063
 11
630.627
 21
583.063
  0
LINE
  8
Layer2
  6
CENTER1
 62
7
 10
651.379
 20
583.063
 11
670.366
 21
583.063
  0
LINE
  8
Layer2
  6
CENTER1
 62
7
 10
688.027
 20
583.063
 11
706.13
 21
583.063
  0
LINE
  8
Layer2
  6
CENTER1
 62
7
 10
611.224
 20
461.063
 11
630.627
 21
461.063
  0
LINE
  8
Layer2
  6
CENTER1
 62
7
 10
652.704
 20
461.063
 11
669.924
 21
461.063
  0
LINE
  8
Layer2
  6
CENTER1
 62
7
 10
691.56
 20
461.063
 11
704.364
 21
461.063
  0
CIRCLE
  8
Layer2
  6
CONTINUOUS
 62
7
 10
622.238
 20
583.063
 40
6.5
  0
POLYLINE
  8
Layer2
  6
CONTINUOUS
 62
7
 66
1
 10
0
 20
0
 30
0
 70
1
  0
VERTEX
  8
Layer2
 10
619.267
 20
581.348
  0
VERTEX
  8
Layer2
 10
622.238
 20
579.633
  0
VERTEX
  8
Layer2
 10
625.208
 20
581.348
  0
VERTEX
  8
Layer2
 10
625.208
 20
584.778
  0
VERTEX
  8
Layer2
 10
622.238
 20
586.493
  0
VERTEX
  8
Layer2
 10
619.267
 20
584.778
  0
SEQEND
  0
CIRCLE
  8
Layer2
  6
CONTINUOUS
 62
7
 10
660.224
 20
583.063
 40
6.5
  0
POLYLINE
  8
Layer2
  6
CONTINUOUS
 62
7
 66
1
 10
0
 20
0
 30
0
 70
1
  0
VERTEX
  8
Layer2
 10
657.254
 20
581.348
  0
VERTEX
  8
Layer2
 10
660.224
 20
579.633
  0
VERTEX
  8
Layer2
 10
663.195
 20
581.348
  0
VERTEX
  8
Layer2
 10
663.195
 20
584.778
  0
VERTEX
  8
Layer2
 10
660.224
 20
586.493
  0
VERTEX
  8
Layer2
 10
657.254
 20
584.778
  0
SEQEND
  0
CIRCLE
  8
Layer2
  6
CONTINUOUS
 62
7
 10
698.224
 20
583.063
 40
6.5
  0
POLYLINE
  8
Layer2
  6
CONTINUOUS
 62
7
 66
1
 10
0
 20
0
 30
0
 70
1
  0
VERTEX
  8
Layer2
 10
695.254
 20
581.348
  0
VERTEX
  8
Layer2
 10
698.224
 20
579.633
  0
VERTEX
  8
Layer2
 10
701.195
 20
581.348
  0
VERTEX
  8
Layer2
 10
701.195
 20
584.778
  0
VERTEX
  8
Layer2
 10
698.224
 20
586.493
  0
VERTEX
  8
Layer2
 10
695.254
 20
584.778
  0
SEQEND
  0
CIRCLE
  8
Layer2
  6
CONTINUOUS
 62
7
 10
622.224
 20
461.063
 40
6.5
  0
POLYLINE
  8
Layer2
  6
CONTINUOUS
 62
7
 66
1
 10
0
 20
0
 30
0
 70
1
  0
VERTEX
  8
Layer2
 10
619.254
 20
459.348
  0
VERTEX
  8
Layer2
 10
622.224
 20
457.633
  0
VERTEX
  8
Layer2
 10
625.195
 20
459.348
  0
VERTEX
  8
Layer2
 10
625.195
 20
462.778
  0
VERTEX
  8
Layer2
 10
622.224
 20
464.493
  0
VERTEX
  8
Layer2
 10
619.254
 20
462.778
  0
SEQEND
  0
CIRCLE
  8
Layer2
  6
CONTINUOUS
 62
7
 10
660.224
 20
461.063
 40
6.5
  0
POLYLINE
  8
Layer2
  6
CONTINUOUS
 62
7
 66
1
 10
0
 20
0
 30
0
 70
1
  0
VERTEX
  8
Layer2
 10
657.254
 20
459.348
  0
VERTEX
  8
Layer2
 10
660.224
 20
457.633
  0
VERTEX
  8
Layer2
 10
663.195
 20
459.348
  0
VERTEX
  8
Layer2
 10
663.195
 20
462.778
  0
VERTEX
  8
Layer2
 10
660.224
 20
464.493
  0
VERTEX
  8
Layer2
 10
657.254
 20
462.778
  0
SEQEND
  0
CIRCLE
  8
Layer2
  6
CONTINUOUS
 62
7
 10
698.224
 20
461.063
 40
6.5
  0
POLYLINE
  8
Layer2
  6
CONTINUOUS
 62
7
 66
1
 10
0
 20
0
 30
0
 70
1
  0
VERTEX
  8
Layer2
 10
695.254
 20
459.348
  0
VERTEX
  8
Layer2
 10
698.224
 20
457.633
  0
VERTEX
  8
Layer2
 10
701.195
 20
459.348
  0
VERTEX
  8
Layer2
 10
701.195
 20
462.778
  0
VERTEX
  8
Layer2
 10
698.224
 20
464.493
  0
VERTEX
  8
Layer2
 10
695.254
 20
462.778
  0
SEQEND
  0
LINE
  8
Layer2
  6
CENTER1
 62
7
 10
631.224
 20
625.636
 11
631.224
 21
593.907
  0
LINE
  8
Layer2
  6
CENTER1
 62
7
 10
701.224
 20
624.843
 11
701.224
 21
593.51
  0
LINE
  8
Layer2
  6
CENTER1
 62
7
 10
631.224
 20
448.563
 11
631.224
 21
427.711
  0
LINE
  8
Layer2
  6
CENTER1
 62
7
 10
701.224
 20
449.897
 11
701.224
 21
428.145
  0
LINE
  8
Layer2
  6
CENTER1
 62
7
 10
776.224
 20
452.489
 11
776.224
 21
469.638
  0
LINE
  8
Layer2
  6
CENTER1
 62
7
 10
620.076
 20
606.063
 11
781.95
 21
606.063
  0
LINE
  8
Layer2
  6
CENTER1
 62
7
 10
620.213
 20
438.063
 11
781.926
 21
438.063
  0
LINE
  8
Layer2
  6
CENTER1
 62
7
 10
771.224
 20
622.445
 11
771.224
 21
595.563
  0
LINE
  8
Layer2
  6
CENTER1
 62
7
 10
771.224
 20
448.428
 11
771.224
 21
428.243
  0
LINE
  8
Layer2
  6
CENTER1
 62
7
 10
726.224
 20
453.783
 11
726.224
 21
470.932
  0
LINE
  8
Layer2
  6
CENTER1
 62
7
 10
726.224
 20
573.218
 11
726.224
 21
593.373
  0
CIRCLE
  8
Layer2
  6
CONTINUOUS
 62
7
 10
631.224
 20
606.063
 40
5.5
  0
CIRCLE
  8
Layer2
  6
CONTINUOUS
 62
7
 10
631.224
 20
606.063
 40
8.5
  0
CIRCLE
  8
Layer2
  6
CONTINUOUS
 62
7
 10
701.224
 20
606.063
 40
5.5
  0
CIRCLE
  8
Layer2
  6
CONTINUOUS
 62
7
 10
701.224
 20
606.063
 40
8.5
  0
CIRCLE
  8
Layer2
  6
CONTINUOUS
 62
7
 10
771.224
 20
606.063
 40
5.5
  0
CIRCLE
  8
Layer2
  6
CONTINUOUS
 62
7
 10
771.224
 20
606.063
 40
8.5
  0
CIRCLE
  8
Layer2
  6
CONTINUOUS
 62
7
 10
771.224
 20
438.063
 40
5.5
  0
CIRCLE
  8
Layer2
  6
CONTINUOUS
 62
7
 10
771.224
 20
438.063
 40
8.5
  0
CIRCLE
  8
Layer2
  6
CONTINUOUS
 62
7
 10
701.224
 20
438.063
 40
5.5
  0
CIRCLE
  8
Layer2
  6
CONTINUOUS
 62
7
 10
701.224
 20
438.063
 40
8.5
  0
CIRCLE
  8
Layer2
  6
CONTINUOUS
 62
7
 10
631.224
 20
438.063
 40
5.5
  0
CIRCLE
  8
Layer2
  6
CONTINUOUS
 62
7
 10
631.224
 20
438.063
 40
8.5
  0
CIRCLE
  8
Layer2
  6
CONTINUOUS
 62
7
 10
776.224
 20
583.063
 40
5.5
  0
CIRCLE
  8
Layer2
  6
DASHED1
 62
7
 10
776.224
 20
583.063
 40
8.5
  0
CIRCLE
  8
Layer2
  6
CONTINUOUS
 62
7
 10
726.224
 20
583.063
 40
5.5
  0
CIRCLE
  8
Layer2
  6
DASHED1
 62
7
 10
726.224
 20
583.063
 40
8.5
  0
CIRCLE
  8
Layer2
  6
CONTINUOUS
 62
7
 10
776.224
 20
461.063
 40
5.5
  0
CIRCLE
  8
Layer2
  6
DASHED1
 62
7
 10
776.224
 20
461.063
 40
8.5
  0
CIRCLE
  8
Layer2
  6
CONTINUOUS
 62
7
 10
726.224
 20
461.063
 40
5.5
  0
CIRCLE
  8
Layer2
  6
DASHED1
 62
7
 10
726.224
 20
461.063
 40
8.5
  0
LINE
  8
Layer2
  6
CENTER1
 62
7
 10
714.28
 20
461.063
 11
788.336
 21
461.063
  0
LINE
  8
Layer2
  6
CENTER1
 62
7
 10
715.912
 20
583.063
 11
788.699
 21
583.063
  0
LINE
  8
Layer2
  6
CENTER1
 62
7
 10
785.866
 20
583.063
 11
819.634
 21
583.063
  0
LINE
  8
Layer2
  6
CENTER1
 62
7
 10
788.42
 20
461.063
 11
821.824
 21
461.063
  0
LINE
  8
Layer2
  6
CONTINUOUS
 62
7
 10
809.224
 20
469.063
 11
818.624
 21
469.063
  0
LINE
  8
Layer2
  6
CONTINUOUS
 62
7
 10
809.224
 20
453.063
 11
818.624
 21
453.063
  0
LINE
  8
Layer2
  6
CONTINUOUS
 62
7
 10
818.624
 20
469.063
 11
818.624
 21
453.063
  0
LINE
  8
Layer2
  6
CONTINUOUS
 62
7
 10
819.224
 20
468.463
 11
819.224
 21
453.663
  0
LINE
  8
Layer2
  6
CONTINUOUS
 62
7
 10
818.624
 20
469.063
 11
819.224
 21
468.463
  0
LINE
  8
Layer2
  6
CONTINUOUS
 62
7
 10
818.624
 20
453.063
 11
819.224
 21
453.663
  0
LINE
  8
Layer2
  6
CONTINUOUS
 62
7
 10
809.224
 20
453.063
 11
809.224
 21
469.063
  0
LINE
  8
Layer2
  6
CENTER1
 62
7
 10
660.224
 20
531.798
 11
660.224
 21
510.912
  0
CIRCLE
  8
Layer2
  6
CONTINUOUS
 62
7
 10
660.224
 20
522.063
 40
3.76681
  0
ARC
  8
Layer2
  6
CONTINUOUS
 62
7
 10
655.751
 20
522.098
 40
1
 50
140.711
 51
225
  0
LINE
  8
Layer2
  6
CONTINUOUS
 62
7
 10
664.734
 20
523.707
 11
666.998
 21
523.707
  0
LINE
  8
Layer2
  6
CONTINUOUS
 62
7
 10
664.734
 20
520.222
 11
666.998
 21
520.222
  0
LINE
  8
Layer2
  6
CONTINUOUS
 62
7
 10
666.998
 20
523.707
 11
666.998
 21
520.222
  0
ARC
  8
Layer2
  6
CONTINUOUS
 62
7
 10
660.224
 20
522.063
 40
4.80058
 50
20.031
 51
140.098
  0
ARC
  8
Layer2
  6
CONTINUOUS
 62
7
 10
660.224
 20
522.063
 40
4.80058
 50
218.056
 51
337.793
  0
ARC
  8
Layer2
  6
CONTINUOUS
 62
7
 10
647.332
 20
514.813
 40
10.1292
 50
24.1178
 51
40.4581
  0
ARC
  8
Layer2
  6
CONTINUOUS
 62
7
 10
647.27
 20
529.304
 40
10.1292
 50
319.542
 51
335.882
  0
ARC
  8
Layer2
  6
CONTINUOUS
 62
7
 10
665.866
 20
523.707
 40
0.542282
 50
0
 51
180
  0
ARC
  8
Layer2
  6
CONTINUOUS
 62
7
 10
665.866
 20
520.222
 40
0.657613
 50
180
 51
2.03555e-013
  0
LINE
  8
Layer2
  6
CENTER1
 62
7
 10
763.326
 20
238.439
 11
801.401
 21
238.439
  0
LINE
  8
Layer2
  6
DASHED1
 62
7
 10
773.224
 20
245.439
 11
773.224
 21
231.439
  0
LINE
  8
Layer2
  6
DASHED1
 62
7
 10
768.224
 20
244.439
 11
791.224
 21
244.439
  0
LINE
  8
Layer2
  6
DASHED1
 62
7
 10
768.224
 20
232.439
 11
791.224
 21
232.439
  0
LINE
  8
Layer2
  6
DASHED1
 62
7
 10
773.224
 20
245.439
 11
791.224
 21
245.439
  0
LINE
  8
Layer2
  6
DASHED1
 62
7
 10
773.224
 20
231.439
 11
791.224
 21
231.439
  0
LINE
  8
Layer2
  6
DASHED1
 62
7
 10
768.224
 20
244.439
 11
768.224
 21
232.439
  0
LINE
  8
Layer2
  6
DASHED1
 62
7
 10
764.621
 20
238.198
 11
768.224
 21
244.439
  0
LINE
  8
Layer2
  6
DASHED1
 62
7
 10
764.621
 20
238.198
 11
767.874
 21
232.563
  0
LINE
  8
Layer2
  6
DASHED1
 62
7
 10
773.224
 20
245.439
 11
771.492
 21
244.439
  0
LINE
  8
Layer2
  6
DASHED1
 62
7
 10
773.224
 20
231.439
 11
771.492
 21
232.439
  0
LINE
  8
Layer2
  6
DASHED1
 62
7
 10
771.492
 20
244.439
 11
771.492
 21
232.439
  0
LINE
  8
Layer2
  6
CONTINUOUS
 62
7
 10
663.224
 20
317.439
 11
664.224
 21
318.439
  0
LINE
  8
Layer2
  6
CENTER1
 62
7
 10
791.062
 20
253.939
 11
817.344
 21
253.939
  0
LINE
  8
Layer2
  6
DASHED1
 62
7
 10
791.206
 20
257.939
 11
809.224
 21
257.939
  0
LINE
  8
Layer2
  6
DASHED1
 62
7
 10
791.196
 20
249.939
 11
809.224
 21
249.939
  0
LINE
  8
Layer2
  6
DASHED1
 62
7
 10
791.132
 20
258.439
 11
809.224
 21
258.439
  0
LINE
  8
Layer2
  6
DASHED1
 62
7
 10
791.189
 20
249.439
 11
809.224
 21
249.439
  0
LINE
  8
Layer2
  6
CENTER1
 62
7
 10
786.067
 20
236.939
 11
825.617
 21
236.939
  0
LINE
  8
Layer2
  6
CENTER1
 62
7
 10
823.542
 20
264.939
 11
789.854
 21
264.939
  0
LINE
  8
Layer2
  6
CENTER1
 62
7
 10
788.344
 20
292.939
 11
824.042
 21
292.939
  0
TEXT
  8
Layer2
 62
7
 10
617.673
 20
338.68
 72
1
 11
617.673
 21
338.68
 40
4
 41
1
  1
4.5
  0
LINE
  8
Layer2
  6
CONTINUOUS
 62
7
 10
605.224
 20
300.689
 11
605.224
 21
340.539
  0
LINE
  8
Layer2
  6
CONTINUOUS
 62
7
 10
609.724
 20
300.439
 11
609.724
 21
340.518
  0
POLYLINE
  8
Layer2
  6
CONTINUOUS
 62
7
 66
1
 10
0
 20
0
 30
0
  0
VERTEX
  8
Layer2
 10
605.224
 20
338.539
  0
VERTEX
  8
Layer2
 10
609.724
 20
338.539
  0
SEQEND
  0
TEXT
  8
Layer2
 62
7
 10
593.724
 20
339.539
 72
1
 11
593.724
 21
339.539
 40
4
 41
1
  1
 23 
  0
LINE
  8
Layer2
  6
CONTINUOUS
 62
7
 10
582.224
 20
298.851
 11
582.224
 21
340.539
  0
POLYLINE
  8
Layer2
  6
CONTINUOUS
 62
7
 66
1
 10
0
 20
0
 30
0
  0
VERTEX
  8
Layer2
 10
582.224
 20
338.539
  0
VERTEX
  8
Layer2
 10
605.224
 20
338.539
  0
SEQEND
  0
POLYLINE
  8
Layer2
  6
CONTINUOUS
 62
7
 66
1
 10
0
 20
0
 30
0
  0
VERTEX
  8
Layer2
 10
585.122
 20
337.762
  0
VERTEX
  8
Layer2
 10
582.224
 20
338.539
  0
VERTEX
  8
Layer2
 10
585.122
 20
339.315
  0
SEQEND
  0
POLYLINE
  8
Layer2
  6
CONTINUOUS
 62
7
 66
1
 10
0
 20
0
 30
0
  0
VERTEX
  8
Layer2
 10
602.326
 20
339.315
  0
VERTEX
  8
Layer2
 10
605.224
 20
338.539
  0
VERTEX
  8
Layer2
 10
602.326
 20
337.762
  0
SEQEND
  0
LINE
  8
Layer2
  6
DASHED1
 62
7
 10
387.239
 20
280.539
 11
387.239
 21
291.539
  0
LINE
  8
Layer2
  6
DASHED1
 62
7
 10
371.239
 20
280.539
 11
371.239
 21
291.539
  0
ARC
  8
Layer2
  6
DASHED1
 62
7
 10
379.239
 20
291.539
 40
8
 50
0
 51
180
  0
LINE
  8
Layer2
  6
DASHED1
 62
7
 10
427.239
 20
279.539
 11
388.239
 21
279.539
  0
LINE
  8
Layer2
  6
DASHED1
 62
7
 10
371.239
 20
280.539
 11
370.239
 21
279.539
  0
LINE
  8
Layer2
  6
DASHED1
 62
7
 10
387.239
 20
280.539
 11
388.239
 21
279.539
  0
LINE
  8
Layer2
  6
CONTINUOUS
 62
7
 10
284.239
 20
204.939
 11
284.239
 21
225.939
  0
LINE
  8
Layer2
  6
CONTINUOUS
 62
7
 10
474.239
 20
204.939
 11
474.239
 21
225.939
  0
LINE
  8
Layer2
  6
CONTINUOUS
 62
7
 10
451.739
 20
300.439
 11
451.739
 21
231.939
  0
LINE
  8
Layer2
  6
CONTINUOUS
 62
7
 10
306.739
 20
300.439
 11
306.739
 21
231.939
  0
LINE
  8
Layer2
  6
CONTINUOUS
 62
7
 10
429.239
 20
226.439
 11
429.239
 21
300.439
  0
LINE
  8
Layer2
  6
CONTINUOUS
 62
7
 10
329.239
 20
226.439
 11
329.239
 21
300.439
  0
LINE
  8
Layer2
  6
CONTINUOUS
 62
7
 10
306.739
 20
302.439
 11
306.739
 21
317.439
  0
LINE
  8
Layer2
  6
CONTINUOUS
 62
7
 10
451.739
 20
302.439
 11
451.739
 21
317.439
  0
LINE
  8
Layer2
  6
CONTINUOUS
 62
7
 10
307.739
 20
318.439
 11
306.739
 21
317.439
  0
LINE
  8
Layer2
  6
CONTINUOUS
 62
7
 10
307.739
 20
301.439
 11
306.739
 21
302.439
  0
LINE
  8
Layer2
  6
CONTINUOUS
 62
7
 10
450.739
 20
318.439
 11
451.739
 21
317.439
  0
LINE
  8
Layer2
  6
CONTINUOUS
 62
7
 10
451.739
 20
302.439
 11
450.739
 21
301.439
  0
LINE
  8
Layer2
  6
CONTINUOUS
 62
7
 10
306.739
 20
300.439
 11
307.739
 21
301.439
  0
LINE
  8
Layer2
  6
CONTINUOUS
 62
7
 10
328.239
 20
301.439
 11
329.239
 21
300.439
  0
LINE
  8
Layer2
  6
CONTINUOUS
 62
7
 10
329.239
 20
300.439
 11
330.239
 21
301.439
  0
LINE
  8
Layer2
  6
CONTINUOUS
 62
7
 10
428.239
 20
301.439
 11
429.239
 21
300.439
  0
LINE
  8
Layer2
  6
CONTINUOUS
 62
7
 10
429.239
 20
300.439
 11
430.239
 21
301.439
  0
LINE
  8
Layer2
  6
CONTINUOUS
 62
7
 10
450.739
 20
301.439
 11
451.739
 21
300.439
  0
LINE
  8
Layer2
  6
CENTER1
 62
7
 10
440.239
 20
323.893
 11
440.239
 21
294.464
  0
LINE
  8
Layer2
  6
CENTER1
 62
7
 10
318.239
 20
323.577
 11
318.239
 21
295.096
  0
LINE
  8
Layer2
  6
CONTINUOUS
 62
7
 10
330.239
 20
226.439
 11
329.239
 21
227.439
  0
LINE
  8
Layer2
  6
CONTINUOUS
 62
7
 10
429.239
 20
227.439
 11
428.239
 21
226.439
  0
ARC
  8
Layer2
  6
CONTINUOUS
 62
7
 10
301.739
 20
231.939
 40
5
 50
270
 51
2.03555e-013
  0
ARC
  8
Layer2
  6
CONTINUOUS
 62
7
 10
456.739
 20
231.939
 40
5
 50
180
 51
270
  0
LINE
  8
Layer2
  6
CONTINUOUS
 62
7
 10
473.239
 20
226.939
 11
474.239
 21
225.939
  0
LINE
  8
Layer2
  6
CONTINUOUS
 62
7
 10
474.239
 20
204.939
 11
473.239
 21
203.939
  0
LINE
  8
Layer2
  6
CONTINUOUS
 62
7
 10
284.239
 20
225.939
 11
285.239
 21
226.939
  0
LINE
  8
Layer2
  6
CONTINUOUS
 62
7
 10
284.239
 20
204.939
 11
285.239
 21
203.939
  0
LINE
  8
Layer2
  6
CENTER1
 62
7
 10
463.239
 20
232.055
 11
463.239
 21
198.76
  0
LINE
  8
Layer2
  6
CENTER1
 62
7
 10
295.239
 20
233.714
 11
295.239
 21
199.153
  0
LINE
  8
Layer2
  6
DASHED1
 62
7
 10
429.239
 20
281.539
 11
429.239
 21
317.439
  0
LINE
  8
Layer2
  6
DASHED1
 62
7
 10
329.239
 20
281.539
 11
329.239
 21
318.439
  0
LINE
  8
Layer2
  6
CONTINUOUS
 62
7
 10
451.739
 20
393.539
 11
451.739
 21
379.539
  0
LINE
  8
Layer2
  6
CONTINUOUS
 62
7
 10
306.739
 20
379.539
 11
306.739
 21
393.539
  0
ARC
  8
Layer2
  6
CONTINUOUS
 62
7
 10
324.239
 20
373.539
 40
5
 50
0
 51
90
  0
ARC
  8
Layer2
  6
CONTINUOUS
 62
7
 10
434.239
 20
373.539
 40
5
 50
90
 51
180
  0
LINE
  8
Layer2
  6
CENTER1
 62
7
 10
440.239
 20
371.958
 11
440.239
 21
398.633
  0
LINE
  8
Layer2
  6
CENTER1
 62
7
 10
318.239
 20
373.907
 11
318.239
 21
400.725
  0
LINE
  8
Layer2
  6
CONTINUOUS
 62
7
 10
306.739
 20
393.539
 11
307.739
 21
394.539
  0
LINE
  8
Layer2
  6
CONTINUOUS
 62
7
 10
306.739
 20
379.539
 11
307.739
 21
378.539
  0
LINE
  8
Layer2
  6
CONTINUOUS
 62
7
 10
450.739
 20
378.539
 11
451.739
 21
379.539
  0
LINE
  8
Layer2
  6
CONTINUOUS
 62
7
 10
451.739
 20
393.539
 11
450.739
 21
394.539
  0
LINE
  8
Layer2
  6
CONTINUOUS
 62
7
 10
329.239
 20
318.439
 11
329.239
 21
373.539
  0
LINE
  8
Layer2
  6
CONTINUOUS
 62
7
 10
429.239
 20
318.439
 11
429.239
 21
373.539
  0
LINE
  8
Layer2
  6
DASHED1
 62
7
 10
331.239
 20
279.539
 11
329.239
 21
281.539
  0
LINE
  8
Layer2
  6
DASHED1
 62
7
 10
427.239
 20
279.539
 11
429.239
 21
281.539
  0
LINE
  8
Layer2
  6
DASHED1
 62
7
 10
791.162
 20
246.939
 11
809.224
 21
246.939
  0
LINE
  8
Layer2
  6
DASHED1
 62
7
 10
791.162
 20
229.939
 11
809.224
 21
229.939
  0
LINE
  8
Layer2
  6
CONTINUOUS
 62
7
 10
613.224
 20
617.063
 11
789.224
 21
617.063
  0
LINE
  8
Layer2
  6
CONTINUOUS
 62
7
 10
613.224
 20
427.063
 11
789.224
 21
427.063
  0
LINE
  8
Layer2
  6
DASHED1
 62
7
 10
611.224
 20
572.063
 11
791.224
 21
572.063
  0
LINE
  8
Layer2
  6
DASHED1
 62
7
 10
611.224
 20
472.063
 11
791.224
 21
472.063
  0
LINE
  8
Layer2
  6
CONTINUOUS
 62
7
 10
708.224
 20
594.563
 11
611.224
 21
594.563
  0
LINE
  8
Layer2
  6
CONTINUOUS
 62
7
 10
612.224
 20
449.563
 11
708.224
 21
449.563
  0
LINE
  8
Layer2
  6
CONTINUOUS
 62
7
 10
608.724
 20
572.063
 11
606.224
 21
572.063
  0
LINE
  8
Layer2
  6
CONTINUOUS
 62
7
 10
608.724
 20
472.063
 11
606.224
 21
472.063
  0
LINE
  8
Layer2
  6
CONTINUOUS
 62
7
 10
604.224
 20
472.063
 11
583.224
 21
472.063
  0
LINE
  8
Layer2
  6
CONTINUOUS
 62
7
 10
604.224
 20
572.063
 11
583.224
 21
572.063
  0
LINE
  8
Layer2
  6
CONTINUOUS
 62
7
 10
583.224
 20
572.063
 11
582.224
 21
571.063
  0
LINE
  8
Layer2
  6
CONTINUOUS
 62
7
 10
582.224
 20
473.063
 11
583.224
 21
472.063
  0
LINE
  8
Layer2
  6
CONTINUOUS
 62
7
 10
604.224
 20
472.063
 11
605.224
 21
473.063
  0
LINE
  8
Layer2
  6
CONTINUOUS
 62
7
 10
605.224
 20
571.063
 11
604.224
 21
572.063
  0
LINE
  8
Layer2
  6
CONTINUOUS
 62
7
 10
606.224
 20
572.063
 11
605.224
 21
571.063
  0
LINE
  8
Layer2
  6
CONTINUOUS
 62
7
 10
605.224
 20
473.063
 11
606.224
 21
472.063
  0
LINE
  8
Layer2
  6
CONTINUOUS
 62
7
 10
708.224
 20
594.563
 11
709.224
 21
593.563
  0
LINE
  8
Layer2
  6
CONTINUOUS
 62
7
 10
709.224
 20
450.563
 11
708.224
 21
449.563
  0
LINE
  8
Layer2
  6
CONTINUOUS
 62
7
 10
612.224
 20
449.563
 11
611.224
 21
450.563
  0
LINE
  8
Layer2
  6
CONTINUOUS
 62
7
 10
789.224
 20
617.063
 11
791.224
 21
615.063
  0
LINE
  8
Layer2
  6
CONTINUOUS
 62
7
 10
791.224
 20
429.063
 11
789.224
 21
427.063
  0
LINE
  8
Layer2
  6
CONTINUOUS
 62
7
 10
613.224
 20
427.063
 11
611.224
 21
429.063
  0
LINE
  8
Layer2
  6
CONTINUOUS
 62
7
 10
611.224
 20
615.063
 11
613.224
 21
617.063
  0
LINE
  8
Layer2
  6
CONTINUOUS
 62
7
 10
790.224
 20
594.563
 11
712.224
 21
594.563
  0
LINE
  8
Layer2
  6
CONTINUOUS
 62
7
 10
790.224
 20
449.563
 11
712.224
 21
449.563
  0
LINE
  8
Layer2
  6
CONTINUOUS
 62
7
 10
712.224
 20
594.563
 11
711.224
 21
593.563
  0
LINE
  8
Layer2
  6
CONTINUOUS
 62
7
 10
711.224
 20
450.563
 11
712.224
 21
449.563
  0
LINE
  8
Layer2
  6
CONTINUOUS
 62
7
 10
790.224
 20
449.563
 11
791.224
 21
450.563
  0
LINE
  8
Layer2
  6
CONTINUOUS
 62
7
 10
791.224
 20
593.563
 11
790.224
 21
594.563
  0
LINE
  8
Layer2
  6
CONTINUOUS
 62
7
 10
792.224
 20
594.563
 11
808.224
 21
594.563
  0
LINE
  8
Layer2
  6
CONTINUOUS
 62
7
 10
792.224
 20
449.563
 11
808.224
 21
449.563
  0
LINE
  8
Layer2
  6
CONTINUOUS
 62
7
 10
808.224
 20
594.563
 11
809.224
 21
593.563
  0
LINE
  8
Layer2
  6
CONTINUOUS
 62
7
 10
809.224
 20
450.563
 11
808.224
 21
449.563
  0
LINE
  8
Layer2
  6
CONTINUOUS
 62
7
 10
792.224
 20
449.563
 11
791.224
 21
450.563
  0
LINE
  8
Layer2
  6
CONTINUOUS
 62
7
 10
792.224
 20
594.563
 11
791.224
 21
593.563
  0
LINE
  8
Layer2
  6
CENTER1
 62
7
 10
575.803
 20
563.563
 11
621.154
 21
563.563
  0
LINE
  8
Layer2
  6
CENTER1
 62
7
 10
574.575
 20
480.563
 11
620.46
 21
480.563
  0
LINE
  8
Layer2
  6
CENTER1
 62
7
 10
396.239
 20
223.381
 11
396.239
 21
207.454
  0
LINE
  8
Layer2
  6
CENTER1
 62
7
 10
362.239
 20
223.303
 11
362.239
 21
207.91
  0
LINE
  8
Layer2
  6
CENTER1
 62
7
 10
404.311
 20
215.239
 11
353.864
 21
215.239
  0
LINE
  8
Layer2
  6
CONTINUOUS
 62
7
 10
809.224
 20
300.939
 11
809.224
 21
284.939
  0
LINE
  8
Layer2
  6
CONTINUOUS
 62
7
 10
809.224
 20
300.939
 11
818.624
 21
300.939
  0
LINE
  8
Layer2
  6
CONTINUOUS
 62
7
 10
809.224
 20
284.939
 11
818.624
 21
284.939
  0
LINE
  8
Layer2
  6
CONTINUOUS
 62
7
 10
818.624
 20
300.939
 11
818.624
 21
284.939
  0
LINE
  8
Layer2
  6
CONTINUOUS
 62
7
 10
819.224
 20
300.339
 11
819.224
 21
285.539
  0
LINE
  8
Layer2
  6
CONTINUOUS
 62
7
 10
818.624
 20
300.939
 11
819.224
 21
300.339
  0
LINE
  8
Layer2
  6
CONTINUOUS
 62
7
 10
818.624
 20
284.939
 11
819.224
 21
285.539
  0
LINE
  8
Layer2
  6
CONTINUOUS
 62
7
 10
809.811
 20
299.939
 11
818.037
 21
299.939
  0
LINE
  8
Layer2
  6
CONTINUOUS
 62
7
 10
810.399
 20
298.939
 11
817.449
 21
298.939
  0
LINE
  8
Layer2
  6
CONTINUOUS
 62
7
 10
810.986
 20
297.939
 11
816.861
 21
297.939
  0
LINE
  8
Layer2
  6
CONTINUOUS
 62
7
 10
811.574
 20
296.939
 11
816.274
 21
296.939
  0
LINE
  8
Layer2
  6
CONTINUOUS
 62
7
 10
812.162
 20
295.939
 11
815.686
 21
295.939
  0
LINE
  8
Layer2
  6
CONTINUOUS
 62
7
 10
812.749
 20
294.939
 11
815.099
 21
294.939
  0
LINE
  8
Layer2
  6
CONTINUOUS
 62
7
 10
809.224
 20
272.939
 11
809.224
 21
256.939
  0
LINE
  8
Layer2
  6
CONTINUOUS
 62
7
 10
809.224
 20
272.939
 11
818.624
 21
272.939
  0
LINE
  8
Layer2
  6
CONTINUOUS
 62
7
 10
809.224
 20
256.939
 11
818.624
 21
256.939
  0
LINE
  8
Layer2
  6
CONTINUOUS
 62
7
 10
818.624
 20
272.939
 11
818.624
 21
256.939
  0
LINE
  8
Layer2
  6
CONTINUOUS
 62
7
 10
819.224
 20
272.339
 11
819.224
 21
257.539
  0
LINE
  8
Layer2
  6
CONTINUOUS
 62
7
 10
818.624
 20
272.939
 11
819.224
 21
272.339
  0
LINE
  8
Layer2
  6
CONTINUOUS
 62
7
 10
818.624
 20
256.939
 11
819.224
 21
257.539
  0
LINE
  8
Layer2
  6
CONTINUOUS
 62
7
 10
809.811
 20
271.939
 11
818.037
 21
271.939
  0
LINE
  8
Layer2
  6
CONTINUOUS
 62
7
 10
810.399
 20
270.939
 11
817.449
 21
270.939
  0
LINE
  8
Layer2
  6
CONTINUOUS
 62
7
 10
810.986
 20
269.939
 11
816.861
 21
269.939
  0
LINE
  8
Layer2
  6
CONTINUOUS
 62
7
 10
811.574
 20
268.939
 11
816.274
 21
268.939
  0
LINE
  8
Layer2
  6
CONTINUOUS
 62
7
 10
812.162
 20
267.939
 11
815.686
 21
267.939
  0
LINE
  8
Layer2
  6
CONTINUOUS
 62
7
 10
812.749
 20
266.939
 11
815.099
 21
266.939
  0
LINE
  8
Layer2
  6
PHANTOM1
 62
7
 10
809.224
 20
244.939
 11
809.224
 21
228.939
  0
LINE
  8
Layer2
  6
PHANTOM1
 62
7
 10
809.224
 20
244.939
 11
818.624
 21
244.939
  0
LINE
  8
Layer2
  6
PHANTOM1
 62
7
 10
809.224
 20
228.939
 11
818.624
 21
228.939
  0
LINE
  8
Layer2
  6
PHANTOM1
 62
7
 10
818.624
 20
244.939
 11
818.624
 21
228.939
  0
LINE
  8
Layer2
  6
PHANTOM1
 62
7
 10
819.224
 20
244.339
 11
819.224
 21
229.539
  0
LINE
  8
Layer2
  6
PHANTOM1
 62
7
 10
818.624
 20
244.939
 11
819.224
 21
244.339
  0
LINE
  8
Layer2
  6
PHANTOM1
 62
7
 10
818.624
 20
228.939
 11
819.224
 21
229.539
  0
LINE
  8
Layer2
  6
PHANTOM1
 62
7
 10
809.811
 20
243.939
 11
818.037
 21
243.939
  0
LINE
  8
Layer2
  6
PHANTOM1
 62
7
 10
810.399
 20
242.939
 11
817.449
 21
242.939
  0
LINE
  8
Layer2
  6
PHANTOM1
 62
7
 10
810.986
 20
241.939
 11
816.861
 21
241.939
  0
LINE
  8
Layer2
  6
PHANTOM1
 62
7
 10
811.574
 20
240.939
 11
816.274
 21
240.939
  0
LINE
  8
Layer2
  6
PHANTOM1
 62
7
 10
812.162
 20
239.939
 11
815.686
 21
239.939
  0
LINE
  8
Layer2
  6
PHANTOM1
 62
7
 10
812.749
 20
238.939
 11
815.099
 21
238.939
  0
TEXT
  8
Layer2
 62
7
 10
901.315
 20
321.992
 72
1
 11
901.315
 21
321.992
 40
4
 41
1
 50
90
  1
(オープンハイト）
  0
TEXT
  8
Layer2
 62
7
 10
887.008
 20
295.954
 72
1
 11
887.008
 21
295.954
 40
4
 41
1
 50
90
  1
(シャットハイト） 
  0
LINE
  8
Layer2
  6
CONTINUOUS
 62
7
 10
731.224
 20
549.563
 11
731.224
 21
494.563
  0
LINE
  8
Layer2
  6
CONTINUOUS
 62
7
 10
771.224
 20
549.563
 11
771.224
 21
494.563
  0
LINE
  8
Layer2
  6
CONTINUOUS
 62
7
 10
731.224
 20
549.563
 11
771.224
 21
549.563
  0
LINE
  8
Layer2
  6
CONTINUOUS
 62
7
 10
731.224
 20
494.563
 11
771.224
 21
494.563
  0
LINE
  8
Layer2
  6
DASHED1
 62
7
 10
731.224
 20
394.539
 11
731.224
 21
353.063
  0
LINE
  8
Layer2
  6
DASHED1
 62
7
 10
771.224
 20
394.539
 11
771.224
 21
334.539
  0
LINE
  8
Layer2
  6
DASHED1
 62
7
 10
771.224
 20
334.539
 11
746.767
 21
334.539
  0
LINE
  8
Layer2
  6
DASHED1
 62
7
 10
746.767
 20
334.539
 11
731.224
 21
353.063
  0
LINE
  8
Layer2
  6
PHANTOM1
 62
7
 10
564.224
 20
226.439
 11
543.224
 21
226.439
  0
LINE
  8
Layer2
  6
PHANTOM1
 62
7
 10
565.224
 20
300.439
 11
565.224
 21
227.439
  0
LINE
  8
Layer2
  6
PHANTOM1
 62
7
 10
542.224
 20
227.439
 11
542.224
 21
300.439
  0
LINE
  8
Layer2
  6
PHANTOM1
 62
7
 10
543.224
 20
301.439
 11
564.224
 21
301.439
  0
LINE
  8
Layer2
  6
PHANTOM1
 62
7
 10
565.224
 20
300.439
 11
564.224
 21
301.439
  0
LINE
  8
Layer2
  6
PHANTOM1
 62
7
 10
542.224
 20
227.439
 11
543.224
 21
226.439
  0
LINE
  8
Layer2
  6
PHANTOM1
 62
7
 10
565.224
 20
227.439
 11
564.224
 21
226.439
  0
LINE
  8
Layer2
  6
PHANTOM1
 62
7
 10
542.224
 20
300.439
 11
543.224
 21
301.439
  0
TEXT
  8
Layer2
 62
7
 10
562.589
 20
197.025
 72
1
 11
562.589
 21
197.025
 40
4
 41
1
  1
(ストローク)
  0
LINE
  8
Layer2
  6
CONTINUOUS
 62
7
 10
542.224
 20
227.439
 11
542.224
 21
199.939
  0
LINE
  8
Layer2
  6
CONTINUOUS
 62
7
 10
582.224
 20
227.439
 11
582.224
 21
199.939
  0
POLYLINE
  8
Layer2
  6
CONTINUOUS
 62
7
 66
1
 10
0
 20
0
 30
0
  0
VERTEX
  8
Layer2
 10
542.224
 20
203.939
  0
VERTEX
  8
Layer2
 10
582.224
 20
203.939
  0
SEQEND
  0
POLYLINE
  8
Layer2
  6
CONTINUOUS
 62
7
 66
1
 10
0
 20
0
 30
0
  0
VERTEX
  8
Layer2
 10
544.156
 20
203.421
  0
VERTEX
  8
Layer2
 10
542.224
 20
203.939
  0
VERTEX
  8
Layer2
 10
544.156
 20
204.457
  0
SEQEND
  0
POLYLINE
  8
Layer2
  6
CONTINUOUS
 62
7
 66
1
 10
0
 20
0
 30
0
  0
VERTEX
  8
Layer2
 10
580.292
 20
204.457
  0
VERTEX
  8
Layer2
 10
582.224
 20
203.939
  0
VERTEX
  8
Layer2
 10
580.292
 20
203.421
  0
SEQEND
  0
POLYLINE
  8
Layer2
  6
CONTINUOUS
 62
7
 66
1
 10
0
 20
0
 30
0
  0
VERTEX
  8
Layer2
 10
641.5
 20
301.439
  0
VERTEX
  8
Layer2
 10
642.034
 20
299.749
  0
VERTEX
  8
Layer2
 10
642.6
 20
298.104
  0
VERTEX
  8
Layer2
 10
643.228
 20
296.546
  0
VERTEX
  8
Layer2
 10
643.95
 20
295.121
  0
VERTEX
  8
Layer2
 10
644.797
 20
293.872
  0
VERTEX
  8
Layer2
 10
645.801
 20
292.844
  0
VERTEX
  8
Layer2
 10
646.991
 20
292.077
  0
VERTEX
  8
Layer2
 10
648.358
 20
291.554
  0
VERTEX
  8
Layer2
 10
649.869
 20
291.213
  0
VERTEX
  8
Layer2
 10
651.487
 20
290.994
  0
VERTEX
  8
Layer2
 10
653.178
 20
290.833
  0
VERTEX
  8
Layer2
 10
654.904
 20
290.67
  0
VERTEX
  8
Layer2
 10
656.636
 20
290.449
  0
VERTEX
  8
Layer2
 10
658.362
 20
290.159
  0
VERTEX
  8
Layer2
 10
660.079
 20
289.802
  0
VERTEX
  8
Layer2
 10
661.786
 20
289.38
  0
VERTEX
  8
Layer2
 10
663.477
 20
288.895
  0
VERTEX
  8
Layer2
 10
665.151
 20
288.347
  0
VERTEX
  8
Layer2
 10
666.803
 20
287.74
  0
VERTEX
  8
Layer2
 10
668.431
 20
287.074
  0
VERTEX
  8
Layer2
 10
670.032
 20
286.352
  0
VERTEX
  8
Layer2
 10
671.603
 20
285.574
  0
VERTEX
  8
Layer2
 10
673.14
 20
284.744
  0
VERTEX
  8
Layer2
 10
674.639
 20
283.862
  0
VERTEX
  8
Layer2
 10
676.099
 20
282.93
  0
VERTEX
  8
Layer2
 10
677.516
 20
281.95
  0
VERTEX
  8
Layer2
 10
678.887
 20
280.924
  0
VERTEX
  8
Layer2
 10
680.208
 20
279.853
  0
VERTEX
  8
Layer2
 10
681.476
 20
278.74
  0
VERTEX
  8
Layer2
 10
682.689
 20
277.585
  0
VERTEX
  8
Layer2
 10
683.842
 20
276.391
  0
VERTEX
  8
Layer2
 10
684.934
 20
275.16
  0
VERTEX
  8
Layer2
 10
685.96
 20
273.892
  0
VERTEX
  8
Layer2
 10
686.918
 20
272.59
  0
VERTEX
  8
Layer2
 10
687.804
 20
271.256
  0
VERTEX
  8
Layer2
 10
688.616
 20
269.891
  0
VERTEX
  8
Layer2
 10
689.349
 20
268.497
  0
VERTEX
  8
Layer2
 10
690.002
 20
267.075
  0
VERTEX
  8
Layer2
 10
690.57
 20
265.628
  0
VERTEX
  8
Layer2
 10
691.051
 20
264.158
  0
VERTEX
  8
Layer2
 10
691.442
 20
262.665
  0
VERTEX
  8
Layer2
 10
691.739
 20
261.151
  0
VERTEX
  8
Layer2
 10
691.946
 20
259.62
  0
VERTEX
  8
Layer2
 10
692.074
 20
258.071
  0
VERTEX
  8
Layer2
 10
692.132
 20
256.509
  0
VERTEX
  8
Layer2
 10
692.131
 20
254.934
  0
VERTEX
  8
Layer2
 10
692.079
 20
253.348
  0
VERTEX
  8
Layer2
 10
691.989
 20
251.755
  0
VERTEX
  8
Layer2
 10
691.869
 20
250.155
  0
VERTEX
  8
Layer2
 10
691.729
 20
248.551
  0
VERTEX
  8
Layer2
 10
691.58
 20
246.945
  0
VERTEX
  8
Layer2
 10
691.431
 20
245.339
  0
VERTEX
  8
Layer2
 10
691.293
 20
243.735
  0
VERTEX
  8
Layer2
 10
691.176
 20
242.135
  0
VERTEX
  8
Layer2
 10
691.089
 20
240.541
  0
VERTEX
  8
Layer2
 10
691.043
 20
238.955
  0
VERTEX
  8
Layer2
 10
691.047
 20
237.38
  0
VERTEX
  8
Layer2
 10
691.113
 20
235.816
  0
VERTEX
  8
Layer2
 10
691.248
 20
234.267
  0
VERTEX
  8
Layer2
 10
691.452
 20
232.732
  0
VERTEX
  8
Layer2
 10
691.722
 20
231.21
  0
VERTEX
  8
Layer2
 10
692.054
 20
229.701
  0
VERTEX
  8
Layer2
 10
692.447
 20
228.203
  0
VERTEX
  8
Layer2
 10
692.895
 20
226.717
  0
VERTEX
  8
Layer2
 10
693.396
 20
225.242
  0
VERTEX
  8
Layer2
 10
693.947
 20
223.777
  0
VERTEX
  8
Layer2
 10
694.543
 20
222.321
  0
VERTEX
  8
Layer2
 10
695.183
 20
220.873
  0
VERTEX
  8
Layer2
 10
695.863
 20
219.434
  0
VERTEX
  8
Layer2
 10
696.578
 20
218.002
  0
VERTEX
  8
Layer2
 10
697.327
 20
216.577
  0
VERTEX
  8
Layer2
 10
698.105
 20
215.157
  0
VERTEX
  8
Layer2
 10
698.91
 20
213.743
  0
VERTEX
  8
Layer2
 10
699.738
 20
212.334
  0
VERTEX
  8
Layer2
 10
700.586
 20
210.929
  0
VERTEX
  8
Layer2
 10
701.45
 20
209.527
  0
VERTEX
  8
Layer2
 10
702.327
 20
208.128
  0
VERTEX
  8
Layer2
 10
703.214
 20
206.73
  0
VERTEX
  8
Layer2
 10
704.108
 20
205.334
  0
VERTEX
  8
Layer2
 10
705.006
 20
203.939
  0
SEQEND
  0
LINE
  8
Layer2
  6
DASHED1
 62
7
 10
615.724
 20
318.439
 11
615.724
 21
310.439
  0
LINE
  8
Layer2
  6
DASHED1
 62
7
 10
628.724
 20
318.439
 11
628.724
 21
310.439
  0
LINE
  8
Layer2
  6
DASHED1
 62
7
 10
626.224
 20
310.446
 11
626.224
 21
301.439
  0
LINE
  8
Layer2
  6
DASHED1
 62
7
 10
618.224
 20
310.512
 11
618.224
 21
301.439
  0
LINE
  8
Layer2
  6
DASHED1
 62
7
 10
615.686
 20
310.439
 11
628.724
 21
310.439
  0
LINE
  8
Layer2
  6
CENTER1
 62
7
 10
622.224
 20
323.035
 11
622.224
 21
297.939
  0
LINE
  8
Layer2
  6
DASHED1
 62
7
 10
628.724
 20
310.439
 11
628.724
 21
317.939
  0
LINE
  8
Layer2
  6
DASHED1
 62
7
 10
615.724
 20
310.439
 11
615.724
 21
317.939
  0
LINE
  8
Layer2
  6
DASHED1
 62
7
 10
628.724
 20
317.939
 11
615.724
 21
317.939
  0
LINE
  8
Layer2
  6
DASHED1
 62
7
 10
628.224
 20
318.439
 11
616.224
 21
318.439
  0
LINE
  8
Layer2
  6
DASHED1
 62
7
 10
628.724
 20
317.939
 11
628.224
 21
318.439
  0
LINE
  8
Layer2
  6
DASHED1
 62
7
 10
615.724
 20
317.939
 11
616.224
 21
318.439
  0
LINE
  8
Layer2
  6
DASHED1
 62
7
 10
615.724
 20
310.439
 11
628.724
 21
310.439
  0
LINE
  8
Layer2
  6
DASHED1
 62
7
 10
616.724
 20
311.016
 11
616.724
 21
317.362
  0
LINE
  8
Layer2
  6
DASHED1
 62
7
 10
617.724
 20
311.593
 11
617.724
 21
316.785
  0
LINE
  8
Layer2
  6
DASHED1
 62
7
 10
618.724
 20
312.17
 11
618.724
 21
316.208
  0
LINE
  8
Layer2
  6
DASHED1
 62
7
 10
619.724
 20
312.747
 11
619.724
 21
315.631
  0
TEXT
  8
Layer2
 62
7
 10
494.031
 20
237.722
 73
3
 11
494.031
 21
237.722
 40
4
 41
1
 50
90
  1
(中心間距離）
  0
LINE
  8
Layer2
  6
CONTINUOUS
 62
7
 10
429.239
 20
346.277
 11
329.239
 21
346.277
  0
CIRCLE
  8
Layer2
  6
CONTINUOUS
 62
7
 10
396.239
 20
215.239
 40
5
  0
CIRCLE
  8
Layer2
  6
CONTINUOUS
 62
7
 10
396.239
 20
215.239
 40
4
  0
CIRCLE
  8
Layer2
  6
CONTINUOUS
 62
7
 10
362.239
 20
215.239
 40
4
  0
CIRCLE
  8
Layer2
  6
CONTINUOUS
 62
7
 10
362.239
 20
215.239
 40
5
  0
LINE
  8
Layer2
  6
CONTINUOUS
 62
7
 10
611.224
 20
204.939
 11
612.224
 21
203.939
  0
LINE
  8
Layer2
  6
PHANTOM1
 62
7
 10
637.852
 20
206.658
 11
748.77
 21
206.658
  0
LINE
  8
Layer2
  6
PHANTOM1
 62
7
 10
752.136
 20
223.754
 11
636.367
 21
223.754
  0
LINE
  8
Layer2
  6
DASHED1
 62
7
 10
650.618
 20
210.239
 11
650.619
 21
220.275
  0
LINE
  8
Layer2
  6
DASHED1
 62
7
 10
641.124
 20
204.304
 11
644.04
 21
204.304
  0
LINE
  8
Layer2
  6
DASHED1
 62
7
 10
642.096
 20
226.601
 11
639.18
 21
226.601
  0
LINE
  8
Layer2
  6
DASHED1
 62
7
 10
639.18
 20
221.034
 11
642.096
 21
221.034
  0
LINE
  8
Layer2
  6
DASHED1
 62
7
 10
641.124
 20
209.9
 11
644.04
 21
209.9
  0
LINE
  8
Layer2
  6
DASHED1
 62
7
 10
642.096
 20
226.601
 11
642.096
 21
221.034
  0
LINE
  8
Layer2
  6
DASHED1
 62
7
 10
639.18
 20
226.601
 11
639.18
 21
221.034
  0
LINE
  8
Layer2
  6
DASHED1
 62
7
 10
641.124
 20
209.9
 11
641.124
 21
204.304
  0
LINE
  8
Layer2
  6
DASHED1
 62
7
 10
644.04
 20
209.9
 11
644.04
 21
204.304
  0
LINE
  8
Layer2
  6
DASHED1
 62
7
 10
639.18
 20
221.034
 11
641.124
 21
209.9
  0
LINE
  8
Layer2
  6
DASHED1
 62
7
 10
642.096
 20
221.034
 11
644.04
 21
209.9
  0
LINE
  8
Layer2
  6
DASHED1
 62
7
 10
640.152
 20
215.467
 11
641.124
 21
204.304
  0
LINE
  8
Layer2
  6
DASHED1
 62
7
 10
642.339
 20
226.601
 11
643.068
 21
215.467
  0
LINE
  8
Layer2
  6
DASHED1
 62
7
 10
638.937
 20
204.304
 11
640.395
 21
204.304
  0
LINE
  8
Layer2
  6
DASHED1
 62
7
 10
640.395
 20
209.871
 11
638.937
 21
209.871
  0
LINE
  8
Layer2
  6
DASHED1
 62
7
 10
640.395
 20
204.304
 11
640.395
 21
209.871
  0
LINE
  8
Layer2
  6
DASHED1
 62
7
 10
640.395
 20
209.871
 11
639.423
 21
215.438
  0
LINE
  8
Layer2
  6
DASHED1
 62
7
 10
638.937
 20
204.304
 11
638.937
 21
215.438
  0
LINE
  8
Layer2
  6
DASHED1
 62
7
 10
639.423
 20
215.438
 11
638.937
 21
215.438
  0
LINE
  8
Layer2
  6
CONTINUOUS
 62
7
 10
638.937
 20
226.587
 11
638.937
 21
204.29
  0
LINE
  8
Layer2
  6
DASHED1
 62
7
 10
611.224
 20
220.239
 11
650.619
 21
220.275
  0
LINE
  8
Layer2
  6
DASHED1
 62
7
 10
611.224
 20
210.239
 11
650.618
 21
210.239
  0
LINE
  8
Layer2
  6
CONTINUOUS
 62
7
 10
608.724
 20
301.439
 11
609.724
 21
300.439
  0
LINE
  8
Layer2
  6
CONTINUOUS
 62
7
 10
609.724
 20
227.439
 11
608.724
 21
226.439
  0
TEXT
  8
Layer2
 62
7
 10
827.794
 20
628.502
 40
6
 41
1
  1
アッパー取付穴
  0
POLYLINE
  8
Layer2
  6
CONTINUOUS
 62
7
 66
1
 10
0
 20
0
 30
0
  0
VERTEX
  8
Layer2
 10
780.113
 20
586.952
  0
VERTEX
  8
Layer2
 10
827.946
 20
634.442
  0
VERTEX
  8
Layer2
 10
827.946
 20
634.442
  0
SEQEND
  0
POLYLINE
  8
Layer2
  6
CONTINUOUS
 62
7
 66
1
 10
0
 20
0
 30
0
  0
VERTEX
  8
Layer2
 10
781.849
 20
587.946
  0
VERTEX
  8
Layer2
 10
780.113
 20
586.952
  0
VERTEX
  8
Layer2
 10
781.119
 20
588.681
  0
SEQEND
  0
LINE
  8
Layer2
  6
CONTINUOUS
 62
7
 10
827.946
 20
634.442
 11
859.946
 21
634.442
  0
TEXT
  8
Layer2
 62
7
 10
859.946
 20
634.442
 72
2
 11
859.946
 21
634.442
 40
8
 41
1
  1
4-11キリ
  0
TEXT
  8
Layer2
 62
7
 10
564.804
 20
624.616
 40
6
 41
1
  1
ベース取付穴
  0
POLYLINE
  8
Layer2
  6
CONTINUOUS
 62
7
 66
1
 10
0
 20
0
 30
0
  0
VERTEX
  8
Layer2
 10
626.556
 20
608.971
  0
VERTEX
  8
Layer2
 10
600.476
 20
630.643
  0
VERTEX
  8
Layer2
 10
600.476
 20
630.643
  0
SEQEND
  0
POLYLINE
  8
Layer2
  6
CONTINUOUS
 62
7
 66
1
 10
0
 20
0
 30
0
  0
VERTEX
  8
Layer2
 10
625.401
 20
610.604
  0
VERTEX
  8
Layer2
 10
626.556
 20
608.971
  0
VERTEX
  8
Layer2
 10
624.739
 20
609.808
  0
SEQEND
  0
LINE
  8
Layer2
  6
CONTINUOUS
 62
7
 10
600.476
 20
630.643
 11
568.476
 21
630.643
  0
TEXT
  8
Layer2
 62
7
 10
568.476
 20
630.643
 40
8
 41
1
  1
6-11キリ
  0
LINE
  8
Layer2
  6
CENTER1
 62
7
 10
407.739
 20
237.856
 11
407.739
 21
232.104
  0
LINE
  8
Layer2
  6
CENTER1
 62
7
 10
405.468
 20
234.939
 11
410.659
 21
234.939
  0
CIRCLE
  8
Layer2
  6
CONTINUOUS
 62
7
 10
407.739
 20
234.939
 40
1.25
  0
LINE
  8
Layer2
  6
CENTER1
 62
7
 10
350.739
 20
295.856
 11
350.739
 21
290.104
  0
LINE
  8
Layer2
  6
CENTER1
 62
7
 10
348.468
 20
292.939
 11
353.659
 21
292.939
  0
CIRCLE
  8
Layer2
  6
CONTINUOUS
 62
7
 10
350.739
 20
292.939
 40
1.25
  0
POLYLINE
  8
Layer2
  6
CONTINUOUS
 62
7
 66
1
 10
0
 20
0
 30
0
  0
VERTEX
  8
Layer2
 10
408.623
 20
235.823
  0
VERTEX
  8
Layer2
 10
461.237
 20
306.407
  0
VERTEX
  8
Layer2
 10
461.237
 20
306.407
  0
SEQEND
  0
POLYLINE
  8
Layer2
  6
CONTINUOUS
 62
7
 66
1
 10
0
 20
0
 30
0
  0
VERTEX
  8
Layer2
 10
410.193
 20
237.062
  0
VERTEX
  8
Layer2
 10
408.623
 20
235.823
  0
VERTEX
  8
Layer2
 10
409.362
 20
237.681
  0
SEQEND
  0
LINE
  8
Layer2
  6
CONTINUOUS
 62
7
 10
461.237
 20
306.407
 11
529.237
 21
306.407
  0
TEXT
  8
Layer2
 62
7
 10
529.237
 20
306.407
 72
2
 11
529.237
 21
306.407
 40
8
 41
1
  1
2-φ2.5センター穴
  0
LINE
  8
Layer2
  6
CENTER1
 62
7
 10
751.224
 20
574.778
 11
751.224
 21
592.183
  0
LINE
  8
Layer2
  6
CENTER1
 62
7
 10
751.224
 20
469.348
 11
751.224
 21
451.943
  0
TEXT
  8
Layer2
 62
7
 10
562.563
 20
204.278
 72
1
 11
562.563
 21
204.278
 40
4
 41
1
  1
40
  0
TEXT
  8
Layer2
 62
7
 10
768.206
 20
314.179
 72
1
 11
768.206
 21
314.179
 40
4
 41
1
 50
20
  1
 40°
  0
ARC
  8
Layer2
  6
CONTINUOUS
 62
7
 10
791.224
 20
250.937
 40
67.3009
 50
90
 51
130
  0
TEXT
  8
Layer2
 62
7
 10
817.451
 20
386.539
 72
1
 11
817.451
 21
386.539
 40
4
 41
1
 50
90
  1
 16 
  0
LINE
  8
Layer2
  6
CONTINUOUS
 62
7
 10
783.879
 20
378.539
 11
819.451
 21
378.539
  0
LINE
  8
Layer2
  6
CONTINUOUS
 62
7
 10
790.224
 20
394.539
 11
819.451
 21
394.539
  0
POLYLINE
  8
Layer2
  6
CONTINUOUS
 62
7
 66
1
 10
0
 20
0
 30
0
  0
VERTEX
  8
Layer2
 10
817.451
 20
378.539
  0
VERTEX
  8
Layer2
 10
817.451
 20
394.539
  0
SEQEND
  0
POLYLINE
  8
Layer2
  6
CONTINUOUS
 62
7
 66
1
 10
0
 20
0
 30
0
  0
VERTEX
  8
Layer2
 10
817.968
 20
380.471
  0
VERTEX
  8
Layer2
 10
817.451
 20
378.539
  0
VERTEX
  8
Layer2
 10
816.933
 20
380.471
  0
SEQEND
  0
POLYLINE
  8
Layer2
  6
CONTINUOUS
 62
7
 66
1
 10
0
 20
0
 30
0
  0
VERTEX
  8
Layer2
 10
816.933
 20
392.607
  0
VERTEX
  8
Layer2
 10
817.451
 20
394.539
  0
VERTEX
  8
Layer2
 10
817.968
 20
392.607
  0
SEQEND
  0
TEXT
  8
Layer2
 62
7
 10
902.761
 20
299.239
 72
1
 11
902.761
 21
299.239
 40
4
 41
1
 50
90
  1
 190.6 
  0
LINE
  8
Layer2
  6
CONTINUOUS
 62
7
 10
790.224
 20
394.539
 11
904.761
 21
394.539
  0
LINE
  8
Layer2
  6
CONTINUOUS
 62
7
 10
786.644
 20
203.939
 11
904.761
 21
203.939
  0
POLYLINE
  8
Layer2
  6
CONTINUOUS
 62
7
 66
1
 10
0
 20
0
 30
0
  0
VERTEX
  8
Layer2
 10
902.761
 20
394.539
  0
VERTEX
  8
Layer2
 10
902.761
 20
203.939
  0
SEQEND
  0
POLYLINE
  8
Layer2
  6
CONTINUOUS
 62
7
 66
1
 10
0
 20
0
 30
0
  0
VERTEX
  8
Layer2
 10
902.244
 20
392.607
  0
VERTEX
  8
Layer2
 10
902.761
 20
394.539
  0
VERTEX
  8
Layer2
 10
903.279
 20
392.607
  0
SEQEND
  0
POLYLINE
  8
Layer2
  6
CONTINUOUS
 62
7
 66
1
 10
0
 20
0
 30
0
  0
VERTEX
  8
Layer2
 10
903.279
 20
205.871
  0
VERTEX
  8
Layer2
 10
902.761
 20
203.939
  0
VERTEX
  8
Layer2
 10
902.244
 20
205.871
  0
SEQEND
  0
TEXT
  8
Layer2
 62
7
 10
888.34
 20
275.439
 72
1
 11
888.34
 21
275.439
 40
4
 41
1
 50
90
  1
 143 
  0
LINE
  8
Layer2
  6
CONTINUOUS
 62
7
 10
791.224
 20
346.939
 11
890.34
 21
346.939
  0
LINE
  8
Layer2
  6
CONTINUOUS
 62
7
 10
877.484
 20
203.939
 11
890.34
 21
203.939
  0
POLYLINE
  8
Layer2
  6
CONTINUOUS
 62
7
 66
1
 10
0
 20
0
 30
0
  0
VERTEX
  8
Layer2
 10
888.34
 20
346.939
  0
VERTEX
  8
Layer2
 10
888.34
 20
203.939
  0
SEQEND
  0
POLYLINE
  8
Layer2
  6
CONTINUOUS
 62
7
 66
1
 10
0
 20
0
 30
0
  0
VERTEX
  8
Layer2
 10
887.822
 20
345.007
  0
VERTEX
  8
Layer2
 10
888.34
 20
346.939
  0
VERTEX
  8
Layer2
 10
888.858
 20
345.007
  0
SEQEND
  0
POLYLINE
  8
Layer2
  6
CONTINUOUS
 62
7
 66
1
 10
0
 20
0
 30
0
  0
VERTEX
  8
Layer2
 10
888.858
 20
205.871
  0
VERTEX
  8
Layer2
 10
888.34
 20
203.939
  0
VERTEX
  8
Layer2
 10
887.822
 20
205.871
  0
SEQEND
  0
TEXT
  8
Layer2
 62
7
 10
379.239
 20
245.603
 72
1
 11
379.239
 21
245.603
 40
4
 41
1
  1
 83 
  0
LINE
  8
Layer2
  6
CONTINUOUS
 62
7
 10
337.739
 20
243.53
 11
337.739
 21
247.603
  0
LINE
  8
Layer2
  6
CONTINUOUS
 62
7
 10
420.739
 20
244.428
 11
420.739
 21
247.603
  0
POLYLINE
  8
Layer2
  6
CONTINUOUS
 62
7
 66
1
 10
0
 20
0
 30
0
  0
VERTEX
  8
Layer2
 10
337.739
 20
245.603
  0
VERTEX
  8
Layer2
 10
420.739
 20
245.603
  0
SEQEND
  0
POLYLINE
  8
Layer2
  6
CONTINUOUS
 62
7
 66
1
 10
0
 20
0
 30
0
  0
VERTEX
  8
Layer2
 10
339.671
 20
245.086
  0
VERTEX
  8
Layer2
 10
337.739
 20
245.603
  0
VERTEX
  8
Layer2
 10
339.671
 20
246.121
  0
SEQEND
  0
POLYLINE
  8
Layer2
  6
CONTINUOUS
 62
7
 66
1
 10
0
 20
0
 30
0
  0
VERTEX
  8
Layer2
 10
418.807
 20
246.121
  0
VERTEX
  8
Layer2
 10
420.739
 20
245.603
  0
VERTEX
  8
Layer2
 10
418.807
 20
245.086
  0
SEQEND
  0
TEXT
  8
Layer2
 62
7
 10
379.239
 20
255.24
 72
1
 11
379.239
 21
255.24
 40
4
 41
1
  1
 100 
  0
LINE
  8
Layer2
  6
CONTINUOUS
 62
7
 10
329.239
 20
256.254
 11
329.239
 21
253.24
  0
LINE
  8
Layer2
  6
CONTINUOUS
 62
7
 10
429.239
 20
253.972
 11
429.239
 21
257.24
  0
POLYLINE
  8
Layer2
  6
CONTINUOUS
 62
7
 66
1
 10
0
 20
0
 30
0
  0
VERTEX
  8
Layer2
 10
329.239
 20
255.24
  0
VERTEX
  8
Layer2
 10
429.239
 20
255.24
  0
SEQEND
  0
POLYLINE
  8
Layer2
  6
CONTINUOUS
 62
7
 66
1
 10
0
 20
0
 30
0
  0
VERTEX
  8
Layer2
 10
331.171
 20
254.722
  0
VERTEX
  8
Layer2
 10
329.239
 20
255.24
  0
VERTEX
  8
Layer2
 10
331.171
 20
255.758
  0
SEQEND
  0
POLYLINE
  8
Layer2
  6
CONTINUOUS
 62
7
 66
1
 10
0
 20
0
 30
0
  0
VERTEX
  8
Layer2
 10
427.307
 20
255.758
  0
VERTEX
  8
Layer2
 10
429.239
 20
255.24
  0
VERTEX
  8
Layer2
 10
427.307
 20
254.722
  0
SEQEND
  0
TEXT
  8
Layer2
 62
7
 10
414.239
 20
211.368
 72
1
 11
414.239
 21
211.368
 40
4
 41
1
  1
 13 
  0
LINE
  8
Layer2
  6
CONTINUOUS
 62
7
 10
407.739
 20
232.104
 11
407.739
 21
207.368
  0
LINE
  8
Layer2
  6
CONTINUOUS
 62
7
 10
420.739
 20
223.32
 11
420.739
 21
207.368
  0
LINE
  8
Layer2
  6
CONTINUOUS
 62
7
 10
407.739
 20
211.368
 11
420.739
 21
211.368
  0
POLYLINE
  8
Layer2
  6
CONTINUOUS
 62
7
 66
1
 10
0
 20
0
 30
0
  0
VERTEX
  8
Layer2
 10
409.671
 20
210.85
  0
VERTEX
  8
Layer2
 10
407.739
 20
211.368
  0
VERTEX
  8
Layer2
 10
409.671
 20
211.886
  0
SEQEND
  0
POLYLINE
  8
Layer2
  6
CONTINUOUS
 62
7
 66
1
 10
0
 20
0
 30
0
  0
VERTEX
  8
Layer2
 10
418.807
 20
211.886
  0
VERTEX
  8
Layer2
 10
420.739
 20
211.368
  0
VERTEX
  8
Layer2
 10
418.807
 20
210.85
  0
SEQEND
  0
TEXT
  8
Layer2
 62
7
 10
500.172
 20
233.939
 72
1
 11
500.172
 21
233.939
 40
4
 41
1
 50
90
  1
 60 
  0
LINE
  8
Layer2
  6
CONTINUOUS
 62
7
 10
437.317
 20
263.939
 11
502.172
 21
263.939
  0
LINE
  8
Layer2
  6
CONTINUOUS
 62
7
 10
473.239
 20
203.939
 11
502.172
 21
203.939
  0
POLYLINE
  8
Layer2
  6
CONTINUOUS
 62
7
 66
1
 10
0
 20
0
 30
0
  0
VERTEX
  8
Layer2
 10
500.172
 20
263.939
  0
VERTEX
  8
Layer2
 10
500.172
 20
203.939
  0
SEQEND
  0
POLYLINE
  8
Layer2
  6
CONTINUOUS
 62
7
 66
1
 10
0
 20
0
 30
0
  0
VERTEX
  8
Layer2
 10
499.655
 20
262.007
  0
VERTEX
  8
Layer2
 10
500.172
 20
263.939
  0
VERTEX
  8
Layer2
 10
500.69
 20
262.007
  0
SEQEND
  0
POLYLINE
  8
Layer2
  6
CONTINUOUS
 62
7
 66
1
 10
0
 20
0
 30
0
  0
VERTEX
  8
Layer2
 10
500.69
 20
205.871
  0
VERTEX
  8
Layer2
 10
500.172
 20
203.939
  0
VERTEX
  8
Layer2
 10
499.655
 20
205.871
  0
SEQEND
  0
TEXT
  8
Layer2
 62
7
 10
511.584
 20
263.939
 72
1
 11
511.584
 21
263.939
 40
4
 41
1
 50
90
  1
 58 
  0
LINE
  8
Layer2
  6
CONTINUOUS
 62
7
 10
431.45
 20
234.939
 11
513.584
 21
234.939
  0
LINE
  8
Layer2
  6
CONTINUOUS
 62
7
 10
434.818
 20
292.939
 11
513.584
 21
292.939
  0
POLYLINE
  8
Layer2
  6
CONTINUOUS
 62
7
 66
1
 10
0
 20
0
 30
0
  0
VERTEX
  8
Layer2
 10
511.584
 20
234.939
  0
VERTEX
  8
Layer2
 10
511.584
 20
292.939
  0
SEQEND
  0
POLYLINE
  8
Layer2
  6
CONTINUOUS
 62
7
 66
1
 10
0
 20
0
 30
0
  0
VERTEX
  8
Layer2
 10
512.102
 20
236.871
  0
VERTEX
  8
Layer2
 10
511.584
 20
234.939
  0
VERTEX
  8
Layer2
 10
511.067
 20
236.871
  0
SEQEND
  0
POLYLINE
  8
Layer2
  6
CONTINUOUS
 62
7
 66
1
 10
0
 20
0
 30
0
  0
VERTEX
  8
Layer2
 10
511.067
 20
291.007
  0
VERTEX
  8
Layer2
 10
511.584
 20
292.939
  0
VERTEX
  8
Layer2
 10
512.102
 20
291.007
  0
SEQEND
  0
TEXT
  8
Layer2
 62
7
 10
523.503
 20
263.939
 72
1
 11
523.503
 21
263.939
 40
4
 41
1
 50
90
  1
 75 
  0
LINE
  8
Layer2
  6
CONTINUOUS
 62
7
 10
450.739
 20
301.439
 11
525.503
 21
301.439
  0
LINE
  8
Layer2
  6
CONTINUOUS
 62
7
 10
429.239
 20
226.439
 11
525.503
 21
226.439
  0
POLYLINE
  8
Layer2
  6
CONTINUOUS
 62
7
 66
1
 10
0
 20
0
 30
0
  0
VERTEX
  8
Layer2
 10
523.503
 20
301.439
  0
VERTEX
  8
Layer2
 10
523.503
 20
226.439
  0
SEQEND
  0
POLYLINE
  8
Layer2
  6
CONTINUOUS
 62
7
 66
1
 10
0
 20
0
 30
0
  0
VERTEX
  8
Layer2
 10
522.985
 20
299.507
  0
VERTEX
  8
Layer2
 10
523.503
 20
301.439
  0
VERTEX
  8
Layer2
 10
524.021
 20
299.507
  0
SEQEND
  0
POLYLINE
  8
Layer2
  6
CONTINUOUS
 62
7
 66
1
 10
0
 20
0
 30
0
  0
VERTEX
  8
Layer2
 10
524.021
 20
228.371
  0
VERTEX
  8
Layer2
 10
523.503
 20
226.439
  0
VERTEX
  8
Layer2
 10
522.985
 20
228.371
  0
SEQEND
  0
TEXT
  8
Layer2
 62
7
 10
535.867
 20
261.189
 72
1
 11
535.867
 21
261.189
 40
4
 41
1
 50
90
  1
 114.5 
  0
LINE
  8
Layer2
  6
CONTINUOUS
 62
7
 10
450.739
 20
318.439
 11
537.867
 21
318.439
  0
LINE
  8
Layer2
  6
CONTINUOUS
 62
7
 10
500.172
 20
203.939
 11
537.867
 21
203.939
  0
POLYLINE
  8
Layer2
  6
CONTINUOUS
 62
7
 66
1
 10
0
 20
0
 30
0
  0
VERTEX
  8
Layer2
 10
535.867
 20
318.439
  0
VERTEX
  8
Layer2
 10
535.867
 20
203.939
  0
SEQEND
  0
POLYLINE
  8
Layer2
  6
CONTINUOUS
 62
7
 66
1
 10
0
 20
0
 30
0
  0
VERTEX
  8
Layer2
 10
535.35
 20
316.507
  0
VERTEX
  8
Layer2
 10
535.867
 20
318.439
  0
VERTEX
  8
Layer2
 10
536.385
 20
316.507
  0
SEQEND
  0
POLYLINE
  8
Layer2
  6
CONTINUOUS
 62
7
 66
1
 10
0
 20
0
 30
0
  0
VERTEX
  8
Layer2
 10
536.385
 20
205.871
  0
VERTEX
  8
Layer2
 10
535.867
 20
203.939
  0
VERTEX
  8
Layer2
 10
535.35
 20
205.871
  0
SEQEND
  0
TEXT
  8
Layer2
 62
7
 10
839.282
 20
522.063
 72
1
 11
839.282
 21
522.063
 40
4
 41
1
 50
90
  1
 122 
  0
LINE
  8
Layer2
  6
CONTINUOUS
 62
7
 10
819.634
 20
583.063
 11
841.282
 21
583.063
  0
LINE
  8
Layer2
  6
CONTINUOUS
 62
7
 10
821.824
 20
461.063
 11
841.282
 21
461.063
  0
POLYLINE
  8
Layer2
  6
CONTINUOUS
 62
7
 66
1
 10
0
 20
0
 30
0
  0
VERTEX
  8
Layer2
 10
839.282
 20
583.063
  0
VERTEX
  8
Layer2
 10
839.282
 20
461.063
  0
SEQEND
  0
POLYLINE
  8
Layer2
  6
CONTINUOUS
 62
7
 66
1
 10
0
 20
0
 30
0
  0
VERTEX
  8
Layer2
 10
838.764
 20
581.131
  0
VERTEX
  8
Layer2
 10
839.282
 20
583.063
  0
VERTEX
  8
Layer2
 10
839.8
 20
581.131
  0
SEQEND
  0
POLYLINE
  8
Layer2
  6
CONTINUOUS
 62
7
 66
1
 10
0
 20
0
 30
0
  0
VERTEX
  8
Layer2
 10
839.8
 20
462.995
  0
VERTEX
  8
Layer2
 10
839.282
 20
461.063
  0
VERTEX
  8
Layer2
 10
838.764
 20
462.995
  0
SEQEND
  0
TEXT
  8
Layer2
 62
7
 10
869.795
 20
522.063
 72
1
 11
869.795
 21
522.063
 40
4
 41
1
 50
90
  1
 168 
  0
LINE
  8
Layer2
  6
CONTINUOUS
 62
7
 10
781.95
 20
606.063
 11
871.795
 21
606.063
  0
LINE
  8
Layer2
  6
CONTINUOUS
 62
7
 10
781.926
 20
438.063
 11
871.795
 21
438.063
  0
POLYLINE
  8
Layer2
  6
CONTINUOUS
 62
7
 66
1
 10
0
 20
0
 30
0
  0
VERTEX
  8
Layer2
 10
869.795
 20
606.063
  0
VERTEX
  8
Layer2
 10
869.795
 20
438.063
  0
SEQEND
  0
POLYLINE
  8
Layer2
  6
CONTINUOUS
 62
7
 66
1
 10
0
 20
0
 30
0
  0
VERTEX
  8
Layer2
 10
869.277
 20
604.131
  0
VERTEX
  8
Layer2
 10
869.795
 20
606.063
  0
VERTEX
  8
Layer2
 10
870.313
 20
604.131
  0
SEQEND
  0
POLYLINE
  8
Layer2
  6
CONTINUOUS
 62
7
 66
1
 10
0
 20
0
 30
0
  0
VERTEX
  8
Layer2
 10
870.313
 20
439.995
  0
VERTEX
  8
Layer2
 10
869.795
 20
438.063
  0
VERTEX
  8
Layer2
 10
869.277
 20
439.995
  0
SEQEND
  0
TEXT
  8
Layer2
 62
7
 10
884.88
 20
522.563
 72
1
 11
884.88
 21
522.563
 40
4
 41
1
 50
90
  1
 189 
  0
LINE
  8
Layer2
  6
CONTINUOUS
 62
7
 10
789.224
 20
617.063
 11
886.88
 21
617.063
  0
LINE
  8
Layer2
  6
CONTINUOUS
 62
7
 10
790.224
 20
428.063
 11
886.88
 21
428.063
  0
POLYLINE
  8
Layer2
  6
CONTINUOUS
 62
7
 66
1
 10
0
 20
0
 30
0
  0
VERTEX
  8
Layer2
 10
884.88
 20
617.063
  0
VERTEX
  8
Layer2
 10
884.88
 20
428.063
  0
SEQEND
  0
POLYLINE
  8
Layer2
  6
CONTINUOUS
 62
7
 66
1
 10
0
 20
0
 30
0
  0
VERTEX
  8
Layer2
 10
884.362
 20
615.131
  0
VERTEX
  8
Layer2
 10
884.88
 20
617.063
  0
VERTEX
  8
Layer2
 10
885.398
 20
615.131
  0
SEQEND
  0
POLYLINE
  8
Layer2
  6
CONTINUOUS
 62
7
 66
1
 10
0
 20
0
 30
0
  0
VERTEX
  8
Layer2
 10
885.398
 20
429.995
  0
VERTEX
  8
Layer2
 10
884.88
 20
428.063
  0
VERTEX
  8
Layer2
 10
884.362
 20
429.995
  0
SEQEND
  0
TEXT
  8
Layer2
 62
7
 10
666.224
 20
627.993
 72
1
 11
666.224
 21
627.993
 40
4
 41
1
  1
 70 
  0
LINE
  8
Layer2
  6
CONTINUOUS
 62
7
 10
631.224
 20
625.636
 11
631.224
 21
629.993
  0
LINE
  8
Layer2
  6
CONTINUOUS
 62
7
 10
701.224
 20
624.843
 11
701.224
 21
629.993
  0
POLYLINE
  8
Layer2
  6
CONTINUOUS
 62
7
 66
1
 10
0
 20
0
 30
0
  0
VERTEX
  8
Layer2
 10
631.224
 20
627.993
  0
VERTEX
  8
Layer2
 10
701.224
 20
627.993
  0
SEQEND
  0
POLYLINE
  8
Layer2
  6
CONTINUOUS
 62
7
 66
1
 10
0
 20
0
 30
0
  0
VERTEX
  8
Layer2
 10
633.156
 20
627.475
  0
VERTEX
  8
Layer2
 10
631.224
 20
627.993
  0
VERTEX
  8
Layer2
 10
633.156
 20
628.51
  0
SEQEND
  0
POLYLINE
  8
Layer2
  6
CONTINUOUS
 62
7
 66
1
 10
0
 20
0
 30
0
  0
VERTEX
  8
Layer2
 10
699.292
 20
628.51
  0
VERTEX
  8
Layer2
 10
701.224
 20
627.993
  0
VERTEX
  8
Layer2
 10
699.292
 20
627.475
  0
SEQEND
  0
TEXT
  8
Layer2
 62
7
 10
736.224
 20
627.993
 72
1
 11
736.224
 21
627.993
 40
4
 41
1
  1
 70 
  0
LINE
  8
Layer2
  6
CONTINUOUS
 62
7
 10
771.224
 20
622.445
 11
771.224
 21
629.993
  0
POLYLINE
  8
Layer2
  6
CONTINUOUS
 62
7
 66
1
 10
0
 20
0
 30
0
  0
VERTEX
  8
Layer2
 10
701.224
 20
627.993
  0
VERTEX
  8
Layer2
 10
771.224
 20
627.993
  0
SEQEND
  0
POLYLINE
  8
Layer2
  6
CONTINUOUS
 62
7
 66
1
 10
0
 20
0
 30
0
  0
VERTEX
  8
Layer2
 10
703.156
 20
627.475
  0
VERTEX
  8
Layer2
 10
701.224
 20
627.993
  0
VERTEX
  8
Layer2
 10
703.156
 20
628.51
  0
SEQEND
  0
POLYLINE
  8
Layer2
  6
CONTINUOUS
 62
7
 66
1
 10
0
 20
0
 30
0
  0
VERTEX
  8
Layer2
 10
769.292
 20
628.51
  0
VERTEX
  8
Layer2
 10
771.224
 20
627.993
  0
VERTEX
  8
Layer2
 10
769.292
 20
627.475
  0
SEQEND
  0
TEXT
  8
Layer2
 62
7
 10
701.224
 20
641.363
 72
1
 11
701.224
 21
641.363
 40
4
 41
1
  1
 180 
  0
LINE
  8
Layer2
  6
CONTINUOUS
 62
7
 10
791.224
 20
615.063
 11
791.224
 21
643.363
  0
LINE
  8
Layer2
  6
CONTINUOUS
 62
7
 10
611.224
 20
615.063
 11
611.224
 21
643.363
  0
POLYLINE
  8
Layer2
  6
CONTINUOUS
 62
7
 66
1
 10
0
 20
0
 30
0
  0
VERTEX
  8
Layer2
 10
791.224
 20
641.363
  0
VERTEX
  8
Layer2
 10
611.224
 20
641.363
  0
SEQEND
  0
POLYLINE
  8
Layer2
  6
CONTINUOUS
 62
7
 66
1
 10
0
 20
0
 30
0
  0
VERTEX
  8
Layer2
 10
789.292
 20
641.881
  0
VERTEX
  8
Layer2
 10
791.224
 20
641.363
  0
VERTEX
  8
Layer2
 10
789.292
 20
640.846
  0
SEQEND
  0
POLYLINE
  8
Layer2
  6
CONTINUOUS
 62
7
 66
1
 10
0
 20
0
 30
0
  0
VERTEX
  8
Layer2
 10
613.156
 20
640.846
  0
VERTEX
  8
Layer2
 10
611.224
 20
641.363
  0
VERTEX
  8
Layer2
 10
613.156
 20
641.881
  0
SEQEND
  0
TEXT
  8
Layer2
 62
7
 10
760.364
 20
481.599
 72
1
 11
760.364
 21
481.599
 40
4
 41
1
  1
 40 
  0
LINE
  8
Layer2
  6
CONTINUOUS
 62
7
 10
751.224
 20
469.348
 11
751.224
 21
483.599
  0
LINE
  8
Layer2
  6
CONTINUOUS
 62
7
 10
791.224
 20
483.313
 11
791.224
 21
479.599
  0
POLYLINE
  8
Layer2
  6
CONTINUOUS
 62
7
 66
1
 10
0
 20
0
 30
0
  0
VERTEX
  8
Layer2
 10
751.224
 20
481.599
  0
VERTEX
  8
Layer2
 10
791.224
 20
481.599
  0
SEQEND
  0
POLYLINE
  8
Layer2
  6
CONTINUOUS
 62
7
 66
1
 10
0
 20
0
 30
0
  0
VERTEX
  8
Layer2
 10
753.156
 20
481.082
  0
VERTEX
  8
Layer2
 10
751.224
 20
481.599
  0
VERTEX
  8
Layer2
 10
753.156
 20
482.117
  0
SEQEND
  0
POLYLINE
  8
Layer2
  6
CONTINUOUS
 62
7
 66
1
 10
0
 20
0
 30
0
  0
VERTEX
  8
Layer2
 10
789.292
 20
482.117
  0
VERTEX
  8
Layer2
 10
791.224
 20
481.599
  0
VERTEX
  8
Layer2
 10
789.292
 20
481.082
  0
SEQEND
  0
TEXT
  8
Layer2
 62
7
 10
783.724
 20
415.431
 72
1
 11
783.724
 21
415.431
 40
4
 41
1
  1
 15 
  0
LINE
  8
Layer2
  6
CONTINUOUS
 62
7
 10
776.224
 20
452.489
 11
776.224
 21
413.431
  0
LINE
  8
Layer2
  6
CONTINUOUS
 62
7
 10
791.224
 20
429.063
 11
791.224
 21
413.431
  0
POLYLINE
  8
Layer2
  6
CONTINUOUS
 62
7
 66
1
 10
0
 20
0
 30
0
  0
VERTEX
  8
Layer2
 10
776.224
 20
415.431
  0
VERTEX
  8
Layer2
 10
791.224
 20
415.431
  0
SEQEND
  0
POLYLINE
  8
Layer2
  6
CONTINUOUS
 62
7
 66
1
 10
0
 20
0
 30
0
  0
VERTEX
  8
Layer2
 10
778.156
 20
414.913
  0
VERTEX
  8
Layer2
 10
776.224
 20
415.431
  0
VERTEX
  8
Layer2
 10
778.156
 20
415.948
  0
SEQEND
  0
POLYLINE
  8
Layer2
  6
CONTINUOUS
 62
7
 66
1
 10
0
 20
0
 30
0
  0
VERTEX
  8
Layer2
 10
789.292
 20
415.948
  0
VERTEX
  8
Layer2
 10
791.224
 20
415.431
  0
VERTEX
  8
Layer2
 10
789.292
 20
414.913
  0
SEQEND
  0
TEXT
  8
Layer2
 62
7
 10
751.224
 20
415.431
 72
1
 11
751.224
 21
415.431
 40
4
 41
1
  1
 50 
  0
LINE
  8
Layer2
  6
CONTINUOUS
 62
7
 10
726.224
 20
455.563
 11
726.224
 21
413.431
  0
POLYLINE
  8
Layer2
  6
CONTINUOUS
 62
7
 66
1
 10
0
 20
0
 30
0
  0
VERTEX
  8
Layer2
 10
776.224
 20
415.431
  0
VERTEX
  8
Layer2
 10
726.224
 20
415.431
  0
SEQEND
  0
POLYLINE
  8
Layer2
  6
CONTINUOUS
 62
7
 66
1
 10
0
 20
0
 30
0
  0
VERTEX
  8
Layer2
 10
774.292
 20
415.948
  0
VERTEX
  8
Layer2
 10
776.224
 20
415.431
  0
VERTEX
  8
Layer2
 10
774.292
 20
414.913
  0
SEQEND
  0
POLYLINE
  8
Layer2
  6
CONTINUOUS
 62
7
 66
1
 10
0
 20
0
 30
0
  0
VERTEX
  8
Layer2
 10
728.156
 20
414.913
  0
VERTEX
  8
Layer2
 10
726.224
 20
415.431
  0
VERTEX
  8
Layer2
 10
728.156
 20
415.948
  0
SEQEND
  0
TEXT
  8
Layer2
 62
7
 10
751.224
 20
405.145
 72
1
 11
751.224
 21
405.145
 40
4
 41
1
  1
 80 
  0
LINE
  8
Layer2
  6
CONTINUOUS
 62
7
 10
711.224
 20
450.563
 11
711.224
 21
403.145
  0
LINE
  8
Layer2
  6
CONTINUOUS
 62
7
 10
791.224
 20
415.431
 11
791.224
 21
403.145
  0
POLYLINE
  8
Layer2
  6
CONTINUOUS
 62
7
 66
1
 10
0
 20
0
 30
0
  0
VERTEX
  8
Layer2
 10
711.224
 20
405.145
  0
VERTEX
  8
Layer2
 10
791.224
 20
405.145
  0
SEQEND
  0
POLYLINE
  8
Layer2
  6
CONTINUOUS
 62
7
 66
1
 10
0
 20
0
 30
0
  0
VERTEX
  8
Layer2
 10
713.156
 20
404.628
  0
VERTEX
  8
Layer2
 10
711.224
 20
405.145
  0
VERTEX
  8
Layer2
 10
713.156
 20
405.663
  0
SEQEND
  0
POLYLINE
  8
Layer2
  6
CONTINUOUS
 62
7
 66
1
 10
0
 20
0
 30
0
  0
VERTEX
  8
Layer2
 10
789.292
 20
405.663
  0
VERTEX
  8
Layer2
 10
791.224
 20
405.145
  0
VERTEX
  8
Layer2
 10
789.292
 20
404.628
  0
SEQEND
  0
LINE
  8
Layer2
  6
CENTER1
 62
7
 10
751.224
 20
285.56
 11
751.224
 21
402.191
  0
LINE
  8
Layer2
  6
CENTER1
 62
7
 10
666.224
 20
612.659
 11
666.224
 21
599.35
  0
LINE
  8
Layer2
  6
CENTER1
 62
7
 10
666.224
 20
431.467
 11
666.224
 21
444.776
  0
TEXT
  8
Layer2
 62
7
 10
728.724
 20
560.11
 72
1
 11
728.724
 21
560.11
 40
4
 41
1
  1
 125 
  0
LINE
  8
Layer2
  6
CONTINUOUS
 62
7
 10
666.224
 20
599.35
 11
666.224
 21
558.11
  0
LINE
  8
Layer2
  6
CONTINUOUS
 62
7
 10
791.224
 20
565.017
 11
791.224
 21
558.11
  0
POLYLINE
  8
Layer2
  6
CONTINUOUS
 62
7
 66
1
 10
0
 20
0
 30
0
  0
VERTEX
  8
Layer2
 10
666.224
 20
560.11
  0
VERTEX
  8
Layer2
 10
791.224
 20
560.11
  0
SEQEND
  0
POLYLINE
  8
Layer2
  6
CONTINUOUS
 62
7
 66
1
 10
0
 20
0
 30
0
  0
VERTEX
  8
Layer2
 10
668.156
 20
559.592
  0
VERTEX
  8
Layer2
 10
666.224
 20
560.11
  0
VERTEX
  8
Layer2
 10
668.156
 20
560.628
  0
SEQEND
  0
POLYLINE
  8
Layer2
  6
CONTINUOUS
 62
7
 66
1
 10
0
 20
0
 30
0
  0
VERTEX
  8
Layer2
 10
789.292
 20
560.628
  0
VERTEX
  8
Layer2
 10
791.224
 20
560.11
  0
VERTEX
  8
Layer2
 10
789.292
 20
559.592
  0
SEQEND
  0
TEXT
  8
Layer2
 62
7
 10
781.224
 20
627.993
 72
1
 11
781.224
 21
627.993
 40
4
 41
1
  1
 20 
  0
LINE
  8
Layer2
  6
CONTINUOUS
 62
7
 10
791.224
 20
628.117
 11
791.224
 21
625.993
  0
POLYLINE
  8
Layer2
  6
CONTINUOUS
 62
7
 66
1
 10
0
 20
0
 30
0
  0
VERTEX
  8
Layer2
 10
771.224
 20
627.993
  0
VERTEX
  8
Layer2
 10
791.224
 20
627.993
  0
SEQEND
  0
POLYLINE
  8
Layer2
  6
CONTINUOUS
 62
7
 66
1
 10
0
 20
0
 30
0
  0
VERTEX
  8
Layer2
 10
773.156
 20
627.475
  0
VERTEX
  8
Layer2
 10
771.224
 20
627.993
  0
VERTEX
  8
Layer2
 10
773.156
 20
628.51
  0
SEQEND
  0
POLYLINE
  8
Layer2
  6
CONTINUOUS
 62
7
 66
1
 10
0
 20
0
 30
0
  0
VERTEX
  8
Layer2
 10
789.292
 20
628.51
  0
VERTEX
  8
Layer2
 10
791.224
 20
627.993
  0
VERTEX
  8
Layer2
 10
789.292
 20
627.475
  0
SEQEND
  0
LINE
  8
Layer2
  6
CONTINUOUS
 62
7
 10
609.724
 20
338.539
 11
622.21
 21
338.539
  0
POLYLINE
  8
Layer2
  6
CONTINUOUS
 62
7
 66
1
 10
0
 20
0
 30
0
  0
VERTEX
  8
Layer2
 10
611.656
 20
338.021
  0
VERTEX
  8
Layer2
 10
609.724
 20
338.539
  0
VERTEX
  8
Layer2
 10
611.656
 20
339.057
  0
SEQEND
  0
POLYLINE
  8
Layer2
  6
CONTINUOUS
 62
7
 66
1
 10
0
 20
0
 30
0
  0
VERTEX
  8
Layer2
 10
663.796
 20
433.693
  0
VERTEX
  8
Layer2
 10
654.079
 20
411.586
  0
SEQEND
  0
POLYLINE
  8
Layer2
  6
CONTINUOUS
 62
7
 66
1
 10
0
 20
0
 30
0
  0
VERTEX
  8
Layer2
 10
662.544
 20
432.133
  0
VERTEX
  8
Layer2
 10
663.796
 20
433.693
  0
VERTEX
  8
Layer2
 10
663.492
 20
431.716
  0
SEQEND
  0
LINE
  8
Layer2
  6
CONTINUOUS
 62
7
 10
654.079
 20
411.586
 11
598.079
 21
411.586
  0
TEXT
  8
Layer2
 62
7
 10
598.079
 20
411.586
 40
8
 41
1
  1
2-φ10ノック穴
  0
POLYLINE
  8
Layer2
  6
CONTINUOUS
 62
7
 66
1
 10
0
 20
0
 30
0
  0
VERTEX
  8
Layer2
 10
754.77
 20
457.54
  0
VERTEX
  8
Layer2
 10
817.958
 20
414.378
  0
SEQEND
  0
POLYLINE
  8
Layer2
  6
CONTINUOUS
 62
7
 66
1
 10
0
 20
0
 30
0
  0
VERTEX
  8
Layer2
 10
756.074
 20
456.023
  0
VERTEX
  8
Layer2
 10
754.77
 20
457.54
  0
VERTEX
  8
Layer2
 10
756.658
 20
456.878
  0
SEQEND
  0
LINE
  8
Layer2
  6
CONTINUOUS
 62
7
 10
817.958
 20
414.378
 11
873.958
 21
414.378
  0
TEXT
  8
Layer2
 62
7
 10
873.958
 20
414.378
 72
2
 11
873.958
 21
414.378
 40
8
 41
1
  1
2-φ10ノック穴
  0
TEXT
  8
Layer2
 62
7
 10
834.514
 20
526.555
 73
3
 11
834.514
 21
526.555
 40
4
 41
1
 50
90
  1
±0.02(ノック穴)
  0
TEXT
  8
Layer2
 62
7
 10
864.53
 20
526.792
 73
3
 11
864.53
 21
526.792
 40
4
 41
1
 50
90
  1
±0.02(ノック穴)
  0
TEXT
  8
Layer2
 62
7
 10
733.523
 20
565.069
 73
3
 11
733.523
 21
565.069
 40
4
 41
1
 50
2.03555e-013
  1
±0.02(ノック穴)
  0
TEXT
  8
Layer2
 62
7
 10
763.461
 20
487.283
 73
3
 11
763.461
 21
487.283
 40
4
 41
1
 50
2.03555e-013
  1
±0.02(ノック穴)
  0
LINE
  8
Layer2
  6
CONTINUOUS
 62
7
 10
663.224
 20
311.547
 11
663.224
 21
307.439
  0
LINE
  8
Layer2
  6
CONTINUOUS
 62
7
 10
657.183
 20
311.567
 11
657.183
 21
307.439
  0
LINE
  8
Layer2
  6
CONTINUOUS
 62
7
 10
591.224
 20
299.939
 11
591.224
 21
285.939
  0
LINE
  8
Layer2
  6
CONTINUOUS
 62
7
 10
582.224
 20
299.939
 11
591.224
 21
299.939
  0
LINE
  8
Layer2
  6
CONTINUOUS
 62
7
 10
582.224
 20
285.939
 11
591.224
 21
285.939
  0
LINE
  8
Layer2
  6
CONTINUOUS
 62
7
 10
583.224
 20
287.439
 11
583.224
 21
298.439
  0
LINE
  8
Layer2
  6
CONTINUOUS
 62
7
 10
584.224
 20
299.439
 11
591.224
 21
299.439
  0
LINE
  8
Layer2
  6
CONTINUOUS
 62
7
 10
591.224
 20
299.439
 11
591.224
 21
286.439
  0
LINE
  8
Layer2
  6
CONTINUOUS
 62
7
 10
584.224
 20
286.439
 11
591.224
 21
286.439
  0
LINE
  8
Layer2
  6
CONTINUOUS
 62
7
 10
583.224
 20
298.439
 11
584.224
 21
299.439
  0
LINE
  8
Layer2
  6
CONTINUOUS
 62
7
 10
583.224
 20
287.439
 11
584.224
 21
286.439
  0
LINE
  8
Layer2
  6
CONTINUOUS
 62
7
 10
584.224
 20
286.439
 11
584.224
 21
299.439
  0
LINE
  8
Layer2
  6
CONTINUOUS
 62
7
 10
607.976
 20
296.939
 11
591.224
 21
296.939
  0
LINE
  8
Layer2
  6
DASHED1
 62
7
 10
626.224
 20
295.939
 11
626.224
 21
289.939
  0
LINE
  8
Layer2
  6
CONTINUOUS
 62
7
 10
603.449
 20
288.939
 11
591.224
 21
288.939
  0
LINE
  8
Layer2
  6
DASHED1
 62
7
 10
625.224
 20
288.939
 11
626.224
 21
289.939
  0
LINE
  8
Layer2
  6
DASHED1
 62
7
 10
626.224
 20
295.939
 11
625.224
 21
296.939
  0
LINE
  8
Layer2
  6
DASHED1
 62
7
 10
625.224
 20
288.939
 11
625.224
 21
296.939
  0
LINE
  8
Layer2
  6
CONTINUOUS
 62
7
 10
606.285
 20
289.962
 11
592.995
 21
289.962
  0
LINE
  8
Layer2
  6
CONTINUOUS
 62
7
 10
608.018
 20
295.939
 11
592.995
 21
295.939
  0
LINE
  8
Layer2
  6
CONTINUOUS
 62
7
 10
591.224
 20
288.939
 11
592.995
 21
289.962
  0
LINE
  8
Layer2
  6
CONTINUOUS
 62
7
 10
591.224
 20
296.939
 11
592.956
 21
295.939
  0
LINE
  8
Layer2
  6
CONTINUOUS
 62
7
 10
592.995
 20
288.939
 11
592.995
 21
296.939
  0
LINE
  8
Layer2
  6
DASHED1
 62
7
 10
625.224
 20
296.939
 11
607.975
 21
296.939
  0
LINE
  8
Layer2
  6
DASHED1
 62
7
 10
626.224
 20
295.939
 11
608.014
 21
295.939
  0
LINE
  8
Layer2
  6
DASHED1
 62
7
 10
625.224
 20
288.939
 11
603.85
 21
288.939
  0
LINE
  8
Layer2
  6
DASHED1
 62
7
 10
625.643
 20
289.962
 11
606.318
 21
289.962
  0
LINE
  8
Layer2
  6
CONTINUOUS
 62
7
 10
611.224
 20
301.444
 11
611.224
 21
204.939
  0
LINE
  8
Layer2
  6
CONTINUOUS
 62
7
 10
609.724
 20
227.939
 11
610.724
 21
226.939
  0
LINE
  8
Layer2
  6
CONTINUOUS
 62
7
 10
609.724
 20
473.063
 11
609.724
 21
571.063
  0
LINE
  8
Layer2
  6
CONTINUOUS
 62
7
 10
608.724
 20
572.063
 11
609.724
 21
571.063
  0
LINE
  8
Layer2
  6
CONTINUOUS
 62
7
 10
608.724
 20
472.063
 11
609.724
 21
473.063
  0
LINE
  8
Layer2
  6
CONTINUOUS
 62
7
 10
610.724
 20
472.063
 11
609.724
 21
473.063
  0
LINE
  8
Layer2
  6
CONTINUOUS
 62
7
 10
610.724
 20
572.063
 11
609.724
 21
571.063
  0
LINE
  8
Layer2
  6
CONTINUOUS
 62
7
 10
611.224
 20
472.063
 11
610.724
 21
472.063
  0
LINE
  8
Layer2
  6
CONTINUOUS
 62
7
 10
611.224
 20
572.063
 11
610.724
 21
572.063
  0
LINE
  8
Layer2
  6
CENTER1
 62
7
 10
604.585
 20
215.239
 11
654.444
 21
215.239
  0
TEXT
  8
Layer2
 62
7
 10
364.615
 20
510.418
 73
3
 11
364.615
 21
510.418
 40
10
 41
1
  1
N-EMC-75-100-40
  0
LINE
  8
Layer2
  6
CONTINUOUS
 62
7
 10
357.2
 20
514.31
 11
357.2
 21
496.87
  0
LINE
  8
Layer2
  6
CONTINUOUS
 62
7
 10
357.2
 20
496.87
 11
444.747
 21
496.87
  0
LINE
  8
Layer2
  6
CONTINUOUS
 62
7
 10
444.747
 20
514.31
 11
444.747
 21
496.87
  0
LINE
  8
Layer2
  6
CONTINUOUS
 62
7
 10
357.2
 20
514.31
 11
444.747
 21
514.31
  0
CIRCLE
  8
Layer2
  6
CONTINUOUS
 62
7
 10
666.224
 20
606.063
 40
5.00033
  0
CIRCLE
  8
Layer2
  6
CONTINUOUS
 62
7
 10
751.224
 20
583.063
 40
4.99983
  0
CIRCLE
  8
Layer2
  6
CONTINUOUS
 62
7
 10
751.224
 20
461.063
 40
4.99983
  0
CIRCLE
  8
Layer2
  6
CONTINUOUS
 62
7
 10
666.224
 20
438.063
 40
5.00033
  0
ENDSEC
  0
EOF
