  0
SECTION
  2
HEADER
  9
$EXTMIN
 10
0
 20
0
  9
$EXTMAX
 10
1189
 20
841
  9
$LTSCALE
 40
1
  9
$LIMMIN
 10
0
 20
0
  9
$LIMMAX
 10
1189
 20
841
  9
$DIMSCALE
 40
1
  0
ENDSEC
  0
SECTION
  2
TABLES
  0
TABLE
  2
LTYPE
 70
9
  0
LTYPE
  2
CONTINUOUS
 70
64
  3
----------
 72
65
 73
0
 40
0
  0
LTYPE
  2
DASHED1
 70
64
  3
--  --  --  --  --  --  --  --  
 72
65
 73
2
 40
2.5
 49
1.25
 49
-1.25
  0
LTYPE
  2
DASHED2
 70
64
  3
----    ----    ----    ----    
 72
65
 73
2
 40
5
 49
2.5
 49
-2.5
  0
LTYPE
  2
DASHED3
 70
64
  3
------  ------  ------  ------  
 72
65
 73
2
 40
5
 49
3.75
 49
-1.25
  0
LTYPE
  2
CENTER1
 70
64
  3
----- - ----- - ----- - ----- - 
 72
65
 73
4
 40
7.5
 49
3.75
 49
-1.25
 49
1.25
 49
-1.25
  0
LTYPE
  2
CENTER2
 70
64
  3
----------  --  ----------  --  
 72
65
 73
4
 40
13.75
 49
6.25
 49
-2.5
 49
2.5
 49
-2.5
  0
LTYPE
  2
PHANTOM1
 70
64
  3
--- - - --- - - --- - - --- - - 
 72
65
 73
6
 40
9.5
 49
3.25
 49
-1.25
 49
1.25
 49
-1.25
 49
1.25
 49
-1.25
  0
LTYPE
  2
PHANTOM2
 70
64
  3
--------  -  -  --------  -  -  
 72
65
 73
6
 40
18
 49
8
 49
-2.5
 49
1.25
 49
-2.5
 49
1.25
 49
-2.5
  0
LTYPE
  2
DOT
 70
64
  3
-   -   -   -   -   -   -   -   
 72
65
 73
2
 40
2.5
 49
0.625
 49
-1.875
  0
LTYPE
  2
HOJO
 70
64
  3
-   -   -   -   -   -   -   -   
 72
65
 73
2
 40
2.5
 49
0.625
 49
-1.875
  0
ENDTAB
  0
TABLE
  2
STYLE
 70
2
  0
STYLE
  2
STANDARD
 70
64
 40
0
 41
1
 42
0
 50
0
 71
0
  3
TXT
  4
BIGFONT
  0
STYLE
  2
TATEGAKI
 70
68
 40
0
 41
1
 42
0
 50
0
 71
0
  3
TXT
  4
EXTFONT
  0
ENDTAB
  0
TABLE
  2
LAYER
 70
1
  0
LAYER
  2
Layer1
 70
64
 62
7
  6
CONTINUOUS
  0
ENDTAB
  0
ENDSEC
  0
SECTION
  2
ENTITIES
  0
LINE
  8
Layer1
  6
CONTINUOUS
 62
7
 10
677.625
 20
320.463
 11
672.942
 21
315.779
  0
LINE
  8
Layer1
  6
CONTINUOUS
 62
7
 10
467.442
 20
239.98
 11
349.442
 21
239.98
  0
LINE
  8
Layer1
  6
CONTINUOUS
 62
7
 10
641.145
 20
239.98
 11
765.145
 21
239.98
  0
LINE
  8
Layer1
  6
CONTINUOUS
 62
7
 10
764.145
 20
588.707
 11
641.083
 21
588.707
  0
LINE
  8
Layer1
  6
CONTINUOUS
 62
7
 10
764.145
 20
468.707
 11
641.083
 21
468.707
  0
LINE
  8
Layer1
  6
CENTER1
 62
7
 10
610.044
 20
528.707
 11
785.343
 21
528.707
  0
CIRCLE
  8
Layer1
  6
CONTINUOUS
 62
7
 10
652.645
 20
578.707
 40
7
  0
CIRCLE
  8
Layer1
  6
CONTINUOUS
 62
7
 10
752.645
 20
578.707
 40
7
  0
CIRCLE
  8
Layer1
  6
CONTINUOUS
 62
7
 10
652.645
 20
478.707
 40
7
  0
CIRCLE
  8
Layer1
  6
CONTINUOUS
 62
7
 10
652.645
 20
578.707
 40
4.5
  0
CIRCLE
  8
Layer1
  6
CONTINUOUS
 62
7
 10
752.645
 20
578.707
 40
4.5
  0
LINE
  8
Layer1
  6
CONTINUOUS
 62
7
 10
640.083
 20
587.707
 11
641.083
 21
588.707
  0
LINE
  8
Layer1
  6
CONTINUOUS
 62
7
 10
640.083
 20
469.707
 11
641.083
 21
468.707
  0
LINE
  8
Layer1
  6
DASHED1
 62
7
 10
640.125
 20
252.98
 11
665.125
 21
252.98
  0
LINE
  8
Layer1
  6
DASHED1
 62
7
 10
640.125
 20
244.98
 11
665.125
 21
244.98
  0
LINE
  8
Layer1
  6
CONTINUOUS
 62
7
 10
765.145
 20
565.707
 11
765.145
 21
557.707
  0
LINE
  8
Layer1
  6
CONTINUOUS
 62
7
 10
777.145
 20
488.707
 11
777.145
 21
568.707
  0
LINE
  8
Layer1
  6
CONTINUOUS
 62
7
 10
766.145
 20
569.707
 11
776.145
 21
569.707
  0
LINE
  8
Layer1
  6
CONTINUOUS
 62
7
 10
766.145
 20
487.707
 11
776.145
 21
487.707
  0
LINE
  8
Layer1
  6
CONTINUOUS
 62
7
 10
776.145
 20
569.707
 11
777.145
 21
568.707
  0
LINE
  8
Layer1
  6
CONTINUOUS
 62
7
 10
777.145
 20
488.707
 11
776.145
 21
487.707
  0
LINE
  8
Layer1
  6
CONTINUOUS
 62
7
 10
765.145
 20
568.707
 11
765.145
 21
488.707
  0
LINE
  8
Layer1
  6
CONTINUOUS
 62
7
 10
765.145
 20
488.707
 11
766.145
 21
487.707
  0
LINE
  8
Layer1
  6
CONTINUOUS
 62
7
 10
765.145
 20
568.707
 11
766.145
 21
569.707
  0
LINE
  8
Layer1
  6
CONTINUOUS
 62
7
 10
636.645
 20
259.98
 11
640.145
 21
259.98
  0
LINE
  8
Layer1
  6
CONTINUOUS
 62
7
 10
683.125
 20
322.98
 11
683.125
 21
315.779
  0
LINE
  8
Layer1
  6
CONTINUOUS
 62
7
 10
678.125
 20
322.98
 11
678.125
 21
315.779
  0
LINE
  8
Layer1
  6
CONTINUOUS
 62
7
 10
677.584
 20
321.386
 11
677.584
 21
315.779
  0
LINE
  8
Layer1
  6
CONTINUOUS
 62
7
 10
683.625
 20
321.98
 11
683.625
 21
315.779
  0
LINE
  8
Layer1
  6
CENTER1
 62
7
 10
596.734
 20
284.98
 11
774.335
 21
284.98
  0
LINE
  8
Layer1
  6
DASHED1
 62
7
 10
656.125
 20
305.48
 11
656.125
 21
299.48
  0
LINE
  8
Layer1
  6
DASHED1
 62
7
 10
652.583
 20
304.98
 11
659.682
 21
304.98
  0
LINE
  8
Layer1
  6
DASHED1
 62
7
 10
652.583
 20
299.98
 11
659.682
 21
299.98
  0
LINE
  8
Layer1
  6
DASHED1
 62
7
 10
659.682
 20
304.98
 11
659.682
 21
299.98
  0
LINE
  8
Layer1
  6
DASHED1
 62
7
 10
659.682
 20
299.98
 11
659.682
 21
300.3
  0
LINE
  8
Layer1
  6
DASHED1
 62
7
 10
656.125
 20
299.48
 11
656.125
 21
300.604
  0
POLYLINE
  8
Layer1
  6
CONTINUOUS
 62
7
 66
1
 10
0
 20
0
 30
0
  0
VERTEX
  8
Layer1
 10
661.914
 20
309.653
  0
VERTEX
  8
Layer1
 10
662.165
 20
308.819
  0
VERTEX
  8
Layer1
 10
662.421
 20
307.988
  0
VERTEX
  8
Layer1
 10
662.683
 20
307.163
  0
VERTEX
  8
Layer1
 10
662.955
 20
306.346
  0
VERTEX
  8
Layer1
 10
663.242
 20
305.541
  0
VERTEX
  8
Layer1
 10
663.546
 20
304.752
  0
VERTEX
  8
Layer1
 10
663.87
 20
303.98
  0
VERTEX
  8
Layer1
 10
664.219
 20
303.228
  0
VERTEX
  8
Layer1
 10
664.596
 20
302.499
  0
VERTEX
  8
Layer1
 10
665.004
 20
301.797
  0
VERTEX
  8
Layer1
 10
665.447
 20
301.124
  0
VERTEX
  8
Layer1
 10
665.928
 20
300.483
  0
VERTEX
  8
Layer1
 10
666.451
 20
299.878
  0
VERTEX
  8
Layer1
 10
667.019
 20
299.31
  0
VERTEX
  8
Layer1
 10
667.635
 20
298.784
  0
VERTEX
  8
Layer1
 10
668.303
 20
298.301
  0
VERTEX
  8
Layer1
 10
669.013
 20
297.854
  0
VERTEX
  8
Layer1
 10
669.749
 20
297.43
  0
VERTEX
  8
Layer1
 10
670.493
 20
297.019
  0
VERTEX
  8
Layer1
 10
671.228
 20
296.604
  0
VERTEX
  8
Layer1
 10
671.937
 20
296.173
  0
VERTEX
  8
Layer1
 10
672.603
 20
295.713
  0
VERTEX
  8
Layer1
 10
673.208
 20
295.212
  0
VERTEX
  8
Layer1
 10
673.736
 20
294.654
  0
VERTEX
  8
Layer1
 10
674.172
 20
294.033
  0
VERTEX
  8
Layer1
 10
674.523
 20
293.349
  0
VERTEX
  8
Layer1
 10
674.804
 20
292.613
  0
VERTEX
  8
Layer1
 10
675.027
 20
291.834
  0
VERTEX
  8
Layer1
 10
675.209
 20
291.024
  0
VERTEX
  8
Layer1
 10
675.361
 20
290.19
  0
VERTEX
  8
Layer1
 10
675.5
 20
289.343
  0
VERTEX
  8
Layer1
 10
675.639
 20
288.492
  0
VERTEX
  8
Layer1
 10
675.791
 20
287.647
  0
VERTEX
  8
Layer1
 10
675.972
 20
286.817
  0
VERTEX
  8
Layer1
 10
676.193
 20
286.011
  0
VERTEX
  8
Layer1
 10
676.457
 20
285.231
  0
VERTEX
  8
Layer1
 10
676.761
 20
284.475
  0
VERTEX
  8
Layer1
 10
677.104
 20
283.742
  0
VERTEX
  8
Layer1
 10
677.483
 20
283.029
  0
VERTEX
  8
Layer1
 10
677.897
 20
282.339
  0
VERTEX
  8
Layer1
 10
678.342
 20
281.668
  0
VERTEX
  8
Layer1
 10
678.818
 20
281.015
  0
VERTEX
  8
Layer1
 10
679.321
 20
280.378
  0
VERTEX
  8
Layer1
 10
679.851
 20
279.757
  0
VERTEX
  8
Layer1
 10
680.404
 20
279.151
  0
VERTEX
  8
Layer1
 10
680.978
 20
278.557
  0
VERTEX
  8
Layer1
 10
681.573
 20
277.975
  0
VERTEX
  8
Layer1
 10
682.184
 20
277.404
  0
VERTEX
  8
Layer1
 10
682.811
 20
276.842
  0
VERTEX
  8
Layer1
 10
683.452
 20
276.288
  0
VERTEX
  8
Layer1
 10
684.103
 20
275.741
  0
VERTEX
  8
Layer1
 10
684.764
 20
275.199
  0
VERTEX
  8
Layer1
 10
685.432
 20
274.661
  0
VERTEX
  8
Layer1
 10
686.104
 20
274.128
  0
VERTEX
  8
Layer1
 10
686.779
 20
273.596
  0
VERTEX
  8
Layer1
 10
687.455
 20
273.064
  0
VERTEX
  8
Layer1
 10
688.13
 20
272.531
  0
VERTEX
  8
Layer1
 10
688.801
 20
271.998
  0
VERTEX
  8
Layer1
 10
689.466
 20
271.459
  0
VERTEX
  8
Layer1
 10
690.121
 20
270.916
  0
VERTEX
  8
Layer1
 10
690.762
 20
270.365
  0
VERTEX
  8
Layer1
 10
691.384
 20
269.803
  0
VERTEX
  8
Layer1
 10
691.984
 20
269.228
  0
VERTEX
  8
Layer1
 10
692.557
 20
268.637
  0
VERTEX
  8
Layer1
 10
693.099
 20
268.028
  0
VERTEX
  8
Layer1
 10
693.606
 20
267.398
  0
VERTEX
  8
Layer1
 10
694.073
 20
266.745
  0
VERTEX
  8
Layer1
 10
694.496
 20
266.065
  0
VERTEX
  8
Layer1
 10
694.871
 20
265.36
  0
VERTEX
  8
Layer1
 10
695.195
 20
264.622
  0
VERTEX
  8
Layer1
 10
695.47
 20
263.856
  0
VERTEX
  8
Layer1
 10
695.7
 20
263.065
  0
VERTEX
  8
Layer1
 10
695.89
 20
262.252
  0
VERTEX
  8
Layer1
 10
696.044
 20
261.418
  0
VERTEX
  8
Layer1
 10
696.167
 20
260.57
  0
VERTEX
  8
Layer1
 10
696.265
 20
259.707
  0
VERTEX
  8
Layer1
 10
696.34
 20
258.834
  0
VERTEX
  8
Layer1
 10
696.398
 20
257.955
  0
VERTEX
  8
Layer1
 10
696.444
 20
257.071
  0
VERTEX
  8
Layer1
 10
696.481
 20
256.185
  0
VERTEX
  8
Layer1
 10
696.515
 20
255.303
  0
VERTEX
  8
Layer1
 10
696.551
 20
254.427
  0
VERTEX
  8
Layer1
 10
696.592
 20
253.558
  0
VERTEX
  8
Layer1
 10
696.643
 20
252.7
  0
VERTEX
  8
Layer1
 10
696.709
 20
251.856
  0
VERTEX
  8
Layer1
 10
696.794
 20
251.031
  0
VERTEX
  8
Layer1
 10
696.904
 20
250.226
  0
VERTEX
  8
Layer1
 10
697.042
 20
249.446
  0
VERTEX
  8
Layer1
 10
697.213
 20
248.692
  0
VERTEX
  8
Layer1
 10
697.423
 20
247.968
  0
VERTEX
  8
Layer1
 10
697.674
 20
247.276
  0
VERTEX
  8
Layer1
 10
697.972
 20
246.62
  0
VERTEX
  8
Layer1
 10
698.322
 20
246.005
  0
VERTEX
  8
Layer1
 10
698.728
 20
245.43
  0
VERTEX
  8
Layer1
 10
699.189
 20
244.898
  0
VERTEX
  8
Layer1
 10
699.703
 20
244.404
  0
VERTEX
  8
Layer1
 10
700.266
 20
243.947
  0
VERTEX
  8
Layer1
 10
700.875
 20
243.527
  0
VERTEX
  8
Layer1
 10
701.528
 20
243.137
  0
VERTEX
  8
Layer1
 10
702.221
 20
242.779
  0
VERTEX
  8
Layer1
 10
702.951
 20
242.447
  0
VERTEX
  8
Layer1
 10
703.714
 20
242.142
  0
VERTEX
  8
Layer1
 10
704.509
 20
241.86
  0
VERTEX
  8
Layer1
 10
705.332
 20
241.599
  0
VERTEX
  8
Layer1
 10
706.179
 20
241.356
  0
VERTEX
  8
Layer1
 10
707.048
 20
241.129
  0
VERTEX
  8
Layer1
 10
707.936
 20
240.916
  0
VERTEX
  8
Layer1
 10
708.839
 20
240.714
  0
VERTEX
  8
Layer1
 10
709.754
 20
240.523
  0
VERTEX
  8
Layer1
 10
710.679
 20
240.338
  0
VERTEX
  8
Layer1
 10
711.609
 20
240.158
  0
VERTEX
  8
Layer1
 10
712.543
 20
239.98
  0
SEQEND
  0
LINE
  8
Layer1
  6
CONTINUOUS
 62
7
 10
721.156
 20
384.98
 11
764.175
 21
384.98
  0
LINE
  8
Layer1
  6
CONTINUOUS
 62
7
 10
721.1
 20
368.98
 11
764.175
 21
368.98
  0
LINE
  8
Layer1
  6
CONTINUOUS
 62
7
 10
764.175
 20
384.98
 11
765.175
 21
383.98
  0
LINE
  8
Layer1
  6
CENTER1
 62
7
 10
742.638
 20
389.837
 11
742.638
 21
296.408
  0
LINE
  8
Layer1
  6
CONTINUOUS
 62
7
 10
764.175
 20
368.98
 11
765.175
 21
369.98
  0
LINE
  8
Layer1
  6
CENTER1
 62
7
 10
747.145
 20
237.165
 11
747.145
 21
282.589
  0
LINE
  8
Layer1
  6
CENTER1
 62
7
 10
652.645
 20
568.346
 11
652.645
 21
592.399
  0
LINE
  8
Layer1
  6
CENTER1
 62
7
 10
752.645
 20
570.024
 11
752.645
 21
587.39
  0
LINE
  8
Layer1
  6
CENTER1
 62
7
 10
642.813
 20
578.707
 11
764.212
 21
578.707
  0
LINE
  8
Layer1
  6
CONTINUOUS
 62
7
 10
635.645
 20
504.707
 11
635.645
 21
552.707
  0
LINE
  8
Layer1
  6
CONTINUOUS
 62
7
 10
640.145
 20
469.707
 11
640.145
 21
587.707
  0
LINE
  8
Layer1
  6
CONTINUOUS
 62
7
 10
612.645
 20
504.707
 11
612.645
 21
552.707
  0
LINE
  8
Layer1
  6
CONTINUOUS
 62
7
 10
639.145
 20
503.707
 11
636.645
 21
503.707
  0
LINE
  8
Layer1
  6
DASHED1
 62
7
 10
659.682
 20
304.98
 11
661.125
 21
302.48
  0
LINE
  8
Layer1
  6
DASHED1
 62
7
 10
661.125
 20
302.48
 11
659.682
 21
299.98
  0
LINE
  8
Layer1
  6
DASHED1
 62
7
 10
653.583
 20
300.48
 11
653.583
 21
304.48
  0
LINE
  8
Layer1
  6
DASHED1
 62
7
 10
652.583
 20
305.48
 11
652.583
 21
299.48
  0
LINE
  8
Layer1
  6
DASHED1
 62
7
 10
652.583
 20
305.48
 11
653.583
 21
304.48
  0
LINE
  8
Layer1
  6
DASHED1
 62
7
 10
653.583
 20
300.48
 11
652.583
 21
299.48
  0
LINE
  8
Layer1
  6
DASHED1
 62
7
 10
656.125
 20
305.48
 11
652.583
 21
305.48
  0
LINE
  8
Layer1
  6
DASHED1
 62
7
 10
656.125
 20
299.48
 11
652.583
 21
299.48
  0
LINE
  8
Layer1
  6
DASHED1
 62
7
 10
656.125
 20
305.48
 11
656.992
 21
304.98
  0
LINE
  8
Layer1
  6
DASHED1
 62
7
 10
656.125
 20
299.48
 11
656.992
 21
299.98
  0
LINE
  8
Layer1
  6
DASHED1
 62
7
 10
656.992
 20
304.98
 11
656.992
 21
299.98
  0
LINE
  8
Layer1
  6
CENTER1
 62
7
 10
654.668
 20
242.25
 11
736.299
 21
242.25
  0
LINE
  8
Layer1
  6
CENTER1
 62
7
 10
736.716
 20
255.744
 11
653.495
 21
255.744
  0
LINE
  8
Layer1
  6
DASHED1
 62
7
 10
665.125
 20
244.98
 11
665.125
 21
252.98
  0
LINE
  8
Layer1
  6
CENTER1
 62
7
 10
661.547
 20
248.98
 11
632.217
 21
248.98
  0
LINE
  8
Layer1
  6
DASHED1
 62
7
 10
657.25
 20
239.991
 11
659.552
 21
239.991
  0
LINE
  8
Layer1
  6
DASHED1
 62
7
 10
658.017
 20
257.991
 11
655.715
 21
257.991
  0
LINE
  8
Layer1
  6
DASHED1
 62
7
 10
655.715
 20
253.497
 11
658.017
 21
253.497
  0
LINE
  8
Layer1
  6
DASHED1
 62
7
 10
657.25
 20
244.509
 11
659.552
 21
244.509
  0
LINE
  8
Layer1
  6
DASHED1
 62
7
 10
658.017
 20
257.991
 11
658.017
 21
253.497
  0
LINE
  8
Layer1
  6
DASHED1
 62
7
 10
655.715
 20
257.991
 11
655.715
 21
253.497
  0
LINE
  8
Layer1
  6
DASHED1
 62
7
 10
657.25
 20
244.509
 11
657.25
 21
239.991
  0
LINE
  8
Layer1
  6
DASHED1
 62
7
 10
659.552
 20
244.509
 11
659.552
 21
239.991
  0
LINE
  8
Layer1
  6
DASHED1
 62
7
 10
655.715
 20
253.497
 11
657.25
 21
244.509
  0
LINE
  8
Layer1
  6
DASHED1
 62
7
 10
658.017
 20
253.497
 11
659.552
 21
244.509
  0
LINE
  8
Layer1
  6
DASHED1
 62
7
 10
656.483
 20
249.003
 11
657.25
 21
239.991
  0
LINE
  8
Layer1
  6
DASHED1
 62
7
 10
658.209
 20
257.991
 11
658.785
 21
249.003
  0
LINE
  8
Layer1
  6
DASHED1
 62
7
 10
655.524
 20
239.991
 11
656.675
 21
239.991
  0
LINE
  8
Layer1
  6
DASHED1
 62
7
 10
656.675
 20
244.486
 11
655.524
 21
244.486
  0
LINE
  8
Layer1
  6
DASHED1
 62
7
 10
656.675
 20
239.991
 11
656.675
 21
244.486
  0
LINE
  8
Layer1
  6
DASHED1
 62
7
 10
656.675
 20
244.486
 11
655.907
 21
248.98
  0
LINE
  8
Layer1
  6
DASHED1
 62
7
 10
655.524
 20
239.991
 11
655.524
 21
248.98
  0
LINE
  8
Layer1
  6
DASHED1
 62
7
 10
655.907
 20
248.98
 11
655.524
 21
248.98
  0
LINE
  8
Layer1
  6
CONTINUOUS
 62
7
 10
777.145
 20
555.298
 11
784.645
 21
555.298
  0
LINE
  8
Layer1
  6
CONTINUOUS
 62
7
 10
777.145
 20
568.298
 11
784.645
 21
568.298
  0
LINE
  8
Layer1
  6
CONTINUOUS
 62
7
 10
784.645
 20
555.298
 11
784.645
 21
568.298
  0
LINE
  8
Layer1
  6
CONTINUOUS
 62
7
 10
785.145
 20
555.798
 11
785.145
 21
567.798
  0
LINE
  8
Layer1
  6
CONTINUOUS
 62
7
 10
784.645
 20
555.298
 11
785.145
 21
555.798
  0
LINE
  8
Layer1
  6
CONTINUOUS
 62
7
 10
784.645
 20
568.298
 11
785.145
 21
567.798
  0
LINE
  8
Layer1
  6
CONTINUOUS
 62
7
 10
777.145
 20
568.298
 11
777.145
 21
555.298
  0
LINE
  8
Layer1
  6
CONTINUOUS
 62
7
 10
777.722
 20
567.298
 11
784.068
 21
567.298
  0
LINE
  8
Layer1
  6
CONTINUOUS
 62
7
 10
778.299
 20
566.298
 11
783.491
 21
566.298
  0
LINE
  8
Layer1
  6
CONTINUOUS
 62
7
 10
778.876
 20
565.298
 11
782.914
 21
565.298
  0
LINE
  8
Layer1
  6
CONTINUOUS
 62
7
 10
779.453
 20
564.298
 11
782.337
 21
564.298
  0
LINE
  8
Layer1
  6
CONTINUOUS
 62
7
 10
777.145
 20
489.299
 11
784.645
 21
489.299
  0
LINE
  8
Layer1
  6
CONTINUOUS
 62
7
 10
777.145
 20
502.299
 11
784.645
 21
502.299
  0
LINE
  8
Layer1
  6
CONTINUOUS
 62
7
 10
784.645
 20
489.299
 11
784.645
 21
502.299
  0
LINE
  8
Layer1
  6
CONTINUOUS
 62
7
 10
785.145
 20
489.799
 11
785.145
 21
501.799
  0
LINE
  8
Layer1
  6
CONTINUOUS
 62
7
 10
784.645
 20
489.299
 11
785.145
 21
489.799
  0
LINE
  8
Layer1
  6
CONTINUOUS
 62
7
 10
784.645
 20
502.299
 11
785.145
 21
501.799
  0
LINE
  8
Layer1
  6
CONTINUOUS
 62
7
 10
777.145
 20
502.299
 11
777.145
 21
489.299
  0
LINE
  8
Layer1
  6
CONTINUOUS
 62
7
 10
777.722
 20
501.299
 11
784.068
 21
501.299
  0
LINE
  8
Layer1
  6
CONTINUOUS
 62
7
 10
778.299
 20
500.299
 11
783.491
 21
500.299
  0
LINE
  8
Layer1
  6
CONTINUOUS
 62
7
 10
778.876
 20
499.299
 11
782.914
 21
499.299
  0
LINE
  8
Layer1
  6
CONTINUOUS
 62
7
 10
779.453
 20
498.299
 11
782.337
 21
498.299
  0
LINE
  8
Layer1
  6
CENTER1
 62
7
 10
760.27
 20
301.98
 11
786.107
 21
301.98
  0
LINE
  8
Layer1
  6
CENTER1
 62
7
 10
758.053
 20
282.98
 11
785.27
 21
282.98
  0
LINE
  8
Layer1
  6
CENTER1
 62
7
 10
761.547
 20
263.98
 11
792.456
 21
263.98
  0
CIRCLE
  8
Layer1
  6
CONTINUOUS
 62
7
 10
679.78
 20
528.707
 40
3.76681
  0
ARC
  8
Layer1
  6
CONTINUOUS
 62
7
 10
675.307
 20
528.741
 40
1
 50
140.711
 51
225
  0
LINE
  8
Layer1
  6
CONTINUOUS
 62
7
 10
684.29
 20
530.351
 11
686.553
 21
530.351
  0
LINE
  8
Layer1
  6
CONTINUOUS
 62
7
 10
684.29
 20
526.866
 11
686.553
 21
526.866
  0
LINE
  8
Layer1
  6
CONTINUOUS
 62
7
 10
686.553
 20
530.351
 11
686.553
 21
526.866
  0
ARC
  8
Layer1
  6
CONTINUOUS
 62
7
 10
679.78
 20
528.707
 40
4.80058
 50
20.031
 51
140.098
  0
ARC
  8
Layer1
  6
CONTINUOUS
 62
7
 10
679.78
 20
528.707
 40
4.80058
 50
218.056
 51
337.793
  0
ARC
  8
Layer1
  6
CONTINUOUS
 62
7
 10
666.887
 20
521.457
 40
10.1292
 50
24.1178
 51
40.4581
  0
ARC
  8
Layer1
  6
CONTINUOUS
 62
7
 10
666.826
 20
535.947
 40
10.1292
 50
319.542
 51
335.882
  0
ARC
  8
Layer1
  6
CONTINUOUS
 62
7
 10
685.422
 20
530.351
 40
0.542282
 50
0
 51
180
  0
ARC
  8
Layer1
  6
CONTINUOUS
 62
7
 10
685.422
 20
526.866
 40
0.657613
 50
180
 51
2.03555e-013
  0
LINE
  8
Layer1
  6
CONTINUOUS
 62
7
 10
676.263
 20
332.35
 11
685.166
 21
332.35
  0
LINE
  8
Layer1
  6
CONTINUOUS
 62
7
 10
676.263
 20
330.035
 11
684.098
 21
330.035
  0
LINE
  8
Layer1
  6
CONTINUOUS
 62
7
 10
685.166
 20
332.35
 11
686.59
 21
330.688
  0
LINE
  8
Layer1
  6
CONTINUOUS
 62
7
 10
686.59
 20
330.035
 11
686.59
 21
330.688
  0
POLYLINE
  8
Layer1
  6
CONTINUOUS
 62
7
 66
1
 10
0
 20
0
 30
0
  0
VERTEX
  8
Layer1
 10
684.098
 20
330.035
  0
VERTEX
  8
Layer1
 10
684.099
 20
329.952
  0
VERTEX
  8
Layer1
 10
684.107
 20
329.87
  0
VERTEX
  8
Layer1
 10
684.119
 20
329.79
  0
VERTEX
  8
Layer1
 10
684.137
 20
329.709
  0
VERTEX
  8
Layer1
 10
684.16
 20
329.63
  0
VERTEX
  8
Layer1
 10
684.189
 20
329.553
  0
VERTEX
  8
Layer1
 10
684.222
 20
329.479
  0
VERTEX
  8
Layer1
 10
684.26
 20
329.406
  0
VERTEX
  8
Layer1
 10
684.303
 20
329.336
  0
VERTEX
  8
Layer1
 10
684.351
 20
329.269
  0
VERTEX
  8
Layer1
 10
684.402
 20
329.205
  0
VERTEX
  8
Layer1
 10
684.458
 20
329.144
  0
VERTEX
  8
Layer1
 10
684.518
 20
329.089
  0
VERTEX
  8
Layer1
 10
684.581
 20
329.036
  0
VERTEX
  8
Layer1
 10
684.648
 20
328.988
  0
VERTEX
  8
Layer1
 10
684.717
 20
328.945
  0
VERTEX
  8
Layer1
 10
684.789
 20
328.906
  0
VERTEX
  8
Layer1
 10
684.864
 20
328.872
  0
VERTEX
  8
Layer1
 10
684.941
 20
328.843
  0
VERTEX
  8
Layer1
 10
685.019
 20
328.819
  0
VERTEX
  8
Layer1
 10
685.099
 20
328.8
  0
VERTEX
  8
Layer1
 10
685.18
 20
328.786
  0
VERTEX
  8
Layer1
 10
685.262
 20
328.778
  0
VERTEX
  8
Layer1
 10
685.344
 20
328.776
  0
VERTEX
  8
Layer1
 10
685.426
 20
328.778
  0
VERTEX
  8
Layer1
 10
685.508
 20
328.786
  0
VERTEX
  8
Layer1
 10
685.589
 20
328.8
  0
VERTEX
  8
Layer1
 10
685.669
 20
328.819
  0
VERTEX
  8
Layer1
 10
685.747
 20
328.843
  0
VERTEX
  8
Layer1
 10
685.824
 20
328.872
  0
VERTEX
  8
Layer1
 10
685.899
 20
328.906
  0
VERTEX
  8
Layer1
 10
685.971
 20
328.945
  0
VERTEX
  8
Layer1
 10
686.04
 20
328.988
  0
VERTEX
  8
Layer1
 10
686.107
 20
329.036
  0
VERTEX
  8
Layer1
 10
686.17
 20
329.089
  0
VERTEX
  8
Layer1
 10
686.23
 20
329.144
  0
VERTEX
  8
Layer1
 10
686.286
 20
329.205
  0
VERTEX
  8
Layer1
 10
686.337
 20
329.269
  0
VERTEX
  8
Layer1
 10
686.385
 20
329.336
  0
VERTEX
  8
Layer1
 10
686.428
 20
329.406
  0
VERTEX
  8
Layer1
 10
686.466
 20
329.479
  0
VERTEX
  8
Layer1
 10
686.499
 20
329.553
  0
VERTEX
  8
Layer1
 10
686.527
 20
329.63
  0
VERTEX
  8
Layer1
 10
686.551
 20
329.709
  0
VERTEX
  8
Layer1
 10
686.569
 20
329.79
  0
VERTEX
  8
Layer1
 10
686.581
 20
329.87
  0
VERTEX
  8
Layer1
 10
686.588
 20
329.952
  0
VERTEX
  8
Layer1
 10
686.59
 20
330.035
  0
SEQEND
  0
LINE
  8
Layer1
  6
CONTINUOUS
 62
7
 10
676.263
 20
332.35
 11
673.85
 21
329.821
  0
LINE
  8
Layer1
  6
CONTINUOUS
 62
7
 10
676.263
 20
330.035
 11
674.839
 21
328.788
  0
POLYLINE
  8
Layer1
  6
CONTINUOUS
 62
7
 66
1
 10
0
 20
0
 30
0
  0
VERTEX
  8
Layer1
 10
673.85
 20
329.821
  0
VERTEX
  8
Layer1
 10
673.819
 20
329.786
  0
VERTEX
  8
Layer1
 10
673.791
 20
329.752
  0
VERTEX
  8
Layer1
 10
673.765
 20
329.714
  0
VERTEX
  8
Layer1
 10
673.742
 20
329.675
  0
VERTEX
  8
Layer1
 10
673.721
 20
329.635
  0
VERTEX
  8
Layer1
 10
673.703
 20
329.593
  0
VERTEX
  8
Layer1
 10
673.687
 20
329.55
  0
VERTEX
  8
Layer1
 10
673.675
 20
329.507
  0
VERTEX
  8
Layer1
 10
673.665
 20
329.462
  0
VERTEX
  8
Layer1
 10
673.657
 20
329.416
  0
VERTEX
  8
Layer1
 10
673.653
 20
329.372
  0
VERTEX
  8
Layer1
 10
673.652
 20
329.327
  0
VERTEX
  8
Layer1
 10
673.653
 20
329.281
  0
VERTEX
  8
Layer1
 10
673.658
 20
329.236
  0
VERTEX
  8
Layer1
 10
673.665
 20
329.19
  0
VERTEX
  8
Layer1
 10
673.675
 20
329.146
  0
VERTEX
  8
Layer1
 10
673.688
 20
329.103
  0
VERTEX
  8
Layer1
 10
673.703
 20
329.06
  0
VERTEX
  8
Layer1
 10
673.722
 20
329.017
  0
VERTEX
  8
Layer1
 10
673.743
 20
328.978
  0
VERTEX
  8
Layer1
 10
673.766
 20
328.939
  0
VERTEX
  8
Layer1
 10
673.792
 20
328.902
  0
VERTEX
  8
Layer1
 10
673.82
 20
328.866
  0
VERTEX
  8
Layer1
 10
673.851
 20
328.832
  0
VERTEX
  8
Layer1
 10
673.883
 20
328.8
  0
VERTEX
  8
Layer1
 10
673.917
 20
328.771
  0
VERTEX
  8
Layer1
 10
673.954
 20
328.743
  0
VERTEX
  8
Layer1
 10
673.992
 20
328.718
  0
VERTEX
  8
Layer1
 10
674.031
 20
328.695
  0
VERTEX
  8
Layer1
 10
674.072
 20
328.675
  0
VERTEX
  8
Layer1
 10
674.114
 20
328.658
  0
VERTEX
  8
Layer1
 10
674.157
 20
328.642
  0
VERTEX
  8
Layer1
 10
674.201
 20
328.63
  0
VERTEX
  8
Layer1
 10
674.245
 20
328.622
  0
VERTEX
  8
Layer1
 10
674.29
 20
328.616
  0
VERTEX
  8
Layer1
 10
674.336
 20
328.612
  0
VERTEX
  8
Layer1
 10
674.381
 20
328.612
  0
VERTEX
  8
Layer1
 10
674.427
 20
328.613
  0
VERTEX
  8
Layer1
 10
674.472
 20
328.619
  0
VERTEX
  8
Layer1
 10
674.517
 20
328.627
  0
VERTEX
  8
Layer1
 10
674.561
 20
328.637
  0
VERTEX
  8
Layer1
 10
674.604
 20
328.652
  0
VERTEX
  8
Layer1
 10
674.647
 20
328.668
  0
VERTEX
  8
Layer1
 10
674.688
 20
328.687
  0
VERTEX
  8
Layer1
 10
674.728
 20
328.709
  0
VERTEX
  8
Layer1
 10
674.767
 20
328.733
  0
VERTEX
  8
Layer1
 10
674.804
 20
328.76
  0
VERTEX
  8
Layer1
 10
674.839
 20
328.788
  0
SEQEND
  0
LINE
  8
Layer1
  6
CONTINUOUS
 62
7
 10
677.584
 20
330.035
 11
677.584
 21
326.911
  0
LINE
  8
Layer1
  6
CONTINUOUS
 62
7
 10
683.494
 20
330.035
 11
683.494
 21
326.911
  0
LINE
  8
Layer1
  6
CONTINUOUS
 62
7
 10
678.39
 20
316.559
 11
682.778
 21
316.559
  0
LINE
  8
Layer1
  6
CONTINUOUS
 62
7
 10
677.584
 20
317.108
 11
683.584
 21
317.108
  0
LINE
  8
Layer1
  6
CONTINUOUS
 62
7
 10
678.39
 20
316.559
 11
677.584
 21
317.108
  0
LINE
  8
Layer1
  6
CONTINUOUS
 62
7
 10
682.778
 20
316.559
 11
683.584
 21
317.108
  0
LINE
  8
Layer1
  6
CONTINUOUS
 62
7
 10
685.695
 20
322.98
 11
685.695
 21
326.067
  0
LINE
  8
Layer1
  6
CONTINUOUS
 62
7
 10
685.695
 20
326.067
 11
684.23
 21
326.911
  0
LINE
  8
Layer1
  6
CONTINUOUS
 62
7
 10
684.23
 20
326.911
 11
677.058
 21
326.911
  0
LINE
  8
Layer1
  6
CONTINUOUS
 62
7
 10
677.049
 20
326.928
 11
675.556
 21
326.067
  0
LINE
  8
Layer1
  6
CONTINUOUS
 62
7
 10
675.556
 20
326.067
 11
675.556
 21
322.98
  0
LINE
  8
Layer1
  6
CONTINUOUS
 62
7
 10
683.16
 20
322.98
 11
683.16
 21
326.067
  0
LINE
  8
Layer1
  6
CONTINUOUS
 62
7
 10
678.091
 20
322.98
 11
678.091
 21
326.067
  0
POLYLINE
  8
Layer1
  6
CONTINUOUS
 62
7
 66
1
 10
0
 20
0
 30
0
  0
VERTEX
  8
Layer1
 10
683.16
 20
326.065
  0
VERTEX
  8
Layer1
 10
683.058
 20
326.098
  0
VERTEX
  8
Layer1
 10
682.955
 20
326.128
  0
VERTEX
  8
Layer1
 10
682.852
 20
326.158
  0
VERTEX
  8
Layer1
 10
682.748
 20
326.185
  0
VERTEX
  8
Layer1
 10
682.644
 20
326.212
  0
VERTEX
  8
Layer1
 10
682.54
 20
326.237
  0
VERTEX
  8
Layer1
 10
682.435
 20
326.261
  0
VERTEX
  8
Layer1
 10
682.33
 20
326.283
  0
VERTEX
  8
Layer1
 10
682.225
 20
326.303
  0
VERTEX
  8
Layer1
 10
682.12
 20
326.324
  0
VERTEX
  8
Layer1
 10
682.014
 20
326.343
  0
VERTEX
  8
Layer1
 10
681.908
 20
326.36
  0
VERTEX
  8
Layer1
 10
681.802
 20
326.375
  0
VERTEX
  8
Layer1
 10
681.696
 20
326.39
  0
VERTEX
  8
Layer1
 10
681.589
 20
326.403
  0
VERTEX
  8
Layer1
 10
681.482
 20
326.415
  0
VERTEX
  8
Layer1
 10
681.376
 20
326.425
  0
VERTEX
  8
Layer1
 10
681.269
 20
326.434
  0
VERTEX
  8
Layer1
 10
681.162
 20
326.44
  0
VERTEX
  8
Layer1
 10
681.054
 20
326.447
  0
VERTEX
  8
Layer1
 10
680.947
 20
326.452
  0
VERTEX
  8
Layer1
 10
680.84
 20
326.456
  0
VERTEX
  8
Layer1
 10
680.733
 20
326.457
  0
VERTEX
  8
Layer1
 10
680.625
 20
326.457
  0
VERTEX
  8
Layer1
 10
680.518
 20
326.457
  0
VERTEX
  8
Layer1
 10
680.411
 20
326.456
  0
VERTEX
  8
Layer1
 10
680.304
 20
326.452
  0
VERTEX
  8
Layer1
 10
680.197
 20
326.447
  0
VERTEX
  8
Layer1
 10
680.089
 20
326.44
  0
VERTEX
  8
Layer1
 10
679.982
 20
326.434
  0
VERTEX
  8
Layer1
 10
679.875
 20
326.425
  0
VERTEX
  8
Layer1
 10
679.769
 20
326.415
  0
VERTEX
  8
Layer1
 10
679.662
 20
326.403
  0
VERTEX
  8
Layer1
 10
679.555
 20
326.39
  0
VERTEX
  8
Layer1
 10
679.449
 20
326.375
  0
VERTEX
  8
Layer1
 10
679.343
 20
326.36
  0
VERTEX
  8
Layer1
 10
679.237
 20
326.343
  0
VERTEX
  8
Layer1
 10
679.131
 20
326.324
  0
VERTEX
  8
Layer1
 10
679.026
 20
326.303
  0
VERTEX
  8
Layer1
 10
678.921
 20
326.283
  0
VERTEX
  8
Layer1
 10
678.816
 20
326.261
  0
VERTEX
  8
Layer1
 10
678.711
 20
326.237
  0
VERTEX
  8
Layer1
 10
678.607
 20
326.212
  0
VERTEX
  8
Layer1
 10
678.503
 20
326.185
  0
VERTEX
  8
Layer1
 10
678.399
 20
326.158
  0
VERTEX
  8
Layer1
 10
678.296
 20
326.128
  0
VERTEX
  8
Layer1
 10
678.193
 20
326.098
  0
VERTEX
  8
Layer1
 10
678.091
 20
326.065
  0
SEQEND
  0
POLYLINE
  8
Layer1
  6
CONTINUOUS
 62
7
 66
1
 10
0
 20
0
 30
0
  0
VERTEX
  8
Layer1
 10
685.695
 20
326.065
  0
VERTEX
  8
Layer1
 10
685.648
 20
326.096
  0
VERTEX
  8
Layer1
 10
685.601
 20
326.127
  0
VERTEX
  8
Layer1
 10
685.553
 20
326.156
  0
VERTEX
  8
Layer1
 10
685.504
 20
326.184
  0
VERTEX
  8
Layer1
 10
685.454
 20
326.209
  0
VERTEX
  8
Layer1
 10
685.404
 20
326.235
  0
VERTEX
  8
Layer1
 10
685.353
 20
326.259
  0
VERTEX
  8
Layer1
 10
685.302
 20
326.281
  0
VERTEX
  8
Layer1
 10
685.25
 20
326.302
  0
VERTEX
  8
Layer1
 10
685.197
 20
326.322
  0
VERTEX
  8
Layer1
 10
685.144
 20
326.341
  0
VERTEX
  8
Layer1
 10
685.091
 20
326.358
  0
VERTEX
  8
Layer1
 10
685.037
 20
326.374
  0
VERTEX
  8
Layer1
 10
684.983
 20
326.389
  0
VERTEX
  8
Layer1
 10
684.928
 20
326.402
  0
VERTEX
  8
Layer1
 10
684.873
 20
326.414
  0
VERTEX
  8
Layer1
 10
684.818
 20
326.423
  0
VERTEX
  8
Layer1
 10
684.763
 20
326.433
  0
VERTEX
  8
Layer1
 10
684.707
 20
326.44
  0
VERTEX
  8
Layer1
 10
684.652
 20
326.447
  0
VERTEX
  8
Layer1
 10
684.596
 20
326.452
  0
VERTEX
  8
Layer1
 10
684.54
 20
326.456
  0
VERTEX
  8
Layer1
 10
684.484
 20
326.457
  0
VERTEX
  8
Layer1
 10
684.427
 20
326.457
  0
VERTEX
  8
Layer1
 10
684.371
 20
326.457
  0
VERTEX
  8
Layer1
 10
684.315
 20
326.456
  0
VERTEX
  8
Layer1
 10
684.259
 20
326.452
  0
VERTEX
  8
Layer1
 10
684.203
 20
326.447
  0
VERTEX
  8
Layer1
 10
684.148
 20
326.44
  0
VERTEX
  8
Layer1
 10
684.092
 20
326.433
  0
VERTEX
  8
Layer1
 10
684.037
 20
326.423
  0
VERTEX
  8
Layer1
 10
683.981
 20
326.414
  0
VERTEX
  8
Layer1
 10
683.927
 20
326.402
  0
VERTEX
  8
Layer1
 10
683.872
 20
326.389
  0
VERTEX
  8
Layer1
 10
683.818
 20
326.374
  0
VERTEX
  8
Layer1
 10
683.764
 20
326.358
  0
VERTEX
  8
Layer1
 10
683.711
 20
326.341
  0
VERTEX
  8
Layer1
 10
683.658
 20
326.322
  0
VERTEX
  8
Layer1
 10
683.605
 20
326.302
  0
VERTEX
  8
Layer1
 10
683.553
 20
326.281
  0
VERTEX
  8
Layer1
 10
683.502
 20
326.259
  0
VERTEX
  8
Layer1
 10
683.451
 20
326.235
  0
VERTEX
  8
Layer1
 10
683.401
 20
326.209
  0
VERTEX
  8
Layer1
 10
683.351
 20
326.184
  0
VERTEX
  8
Layer1
 10
683.302
 20
326.156
  0
VERTEX
  8
Layer1
 10
683.254
 20
326.127
  0
VERTEX
  8
Layer1
 10
683.207
 20
326.096
  0
VERTEX
  8
Layer1
 10
683.16
 20
326.065
  0
SEQEND
  0
POLYLINE
  8
Layer1
  6
CONTINUOUS
 62
7
 66
1
 10
0
 20
0
 30
0
  0
VERTEX
  8
Layer1
 10
678.091
 20
326.065
  0
VERTEX
  8
Layer1
 10
678.044
 20
326.096
  0
VERTEX
  8
Layer1
 10
677.997
 20
326.127
  0
VERTEX
  8
Layer1
 10
677.949
 20
326.156
  0
VERTEX
  8
Layer1
 10
677.9
 20
326.184
  0
VERTEX
  8
Layer1
 10
677.85
 20
326.209
  0
VERTEX
  8
Layer1
 10
677.8
 20
326.235
  0
VERTEX
  8
Layer1
 10
677.749
 20
326.259
  0
VERTEX
  8
Layer1
 10
677.698
 20
326.281
  0
VERTEX
  8
Layer1
 10
677.646
 20
326.302
  0
VERTEX
  8
Layer1
 10
677.593
 20
326.322
  0
VERTEX
  8
Layer1
 10
677.54
 20
326.341
  0
VERTEX
  8
Layer1
 10
677.487
 20
326.358
  0
VERTEX
  8
Layer1
 10
677.433
 20
326.374
  0
VERTEX
  8
Layer1
 10
677.379
 20
326.389
  0
VERTEX
  8
Layer1
 10
677.324
 20
326.402
  0
VERTEX
  8
Layer1
 10
677.27
 20
326.414
  0
VERTEX
  8
Layer1
 10
677.214
 20
326.423
  0
VERTEX
  8
Layer1
 10
677.159
 20
326.433
  0
VERTEX
  8
Layer1
 10
677.103
 20
326.44
  0
VERTEX
  8
Layer1
 10
677.048
 20
326.447
  0
VERTEX
  8
Layer1
 10
676.992
 20
326.452
  0
VERTEX
  8
Layer1
 10
676.936
 20
326.456
  0
VERTEX
  8
Layer1
 10
676.88
 20
326.457
  0
VERTEX
  8
Layer1
 10
676.824
 20
326.457
  0
VERTEX
  8
Layer1
 10
676.767
 20
326.457
  0
VERTEX
  8
Layer1
 10
676.711
 20
326.456
  0
VERTEX
  8
Layer1
 10
676.655
 20
326.452
  0
VERTEX
  8
Layer1
 10
676.599
 20
326.447
  0
VERTEX
  8
Layer1
 10
676.544
 20
326.44
  0
VERTEX
  8
Layer1
 10
676.488
 20
326.433
  0
VERTEX
  8
Layer1
 10
676.433
 20
326.423
  0
VERTEX
  8
Layer1
 10
676.378
 20
326.414
  0
VERTEX
  8
Layer1
 10
676.323
 20
326.402
  0
VERTEX
  8
Layer1
 10
676.268
 20
326.389
  0
VERTEX
  8
Layer1
 10
676.214
 20
326.374
  0
VERTEX
  8
Layer1
 10
676.16
 20
326.358
  0
VERTEX
  8
Layer1
 10
676.107
 20
326.341
  0
VERTEX
  8
Layer1
 10
676.054
 20
326.322
  0
VERTEX
  8
Layer1
 10
676.001
 20
326.302
  0
VERTEX
  8
Layer1
 10
675.949
 20
326.281
  0
VERTEX
  8
Layer1
 10
675.898
 20
326.259
  0
VERTEX
  8
Layer1
 10
675.847
 20
326.235
  0
VERTEX
  8
Layer1
 10
675.797
 20
326.209
  0
VERTEX
  8
Layer1
 10
675.747
 20
326.184
  0
VERTEX
  8
Layer1
 10
675.698
 20
326.156
  0
VERTEX
  8
Layer1
 10
675.65
 20
326.127
  0
VERTEX
  8
Layer1
 10
675.603
 20
326.096
  0
VERTEX
  8
Layer1
 10
675.556
 20
326.065
  0
SEQEND
  0
POLYLINE
  8
Layer1
  6
CONTINUOUS
 62
7
 66
1
 10
0
 20
0
 30
0
 70
1
  0
VERTEX
  8
Layer1
 10
685.89
 20
330.022
  0
VERTEX
  8
Layer1
 10
685.885
 20
330.093
  0
VERTEX
  8
Layer1
 10
685.871
 20
330.163
  0
VERTEX
  8
Layer1
 10
685.848
 20
330.231
  0
VERTEX
  8
Layer1
 10
685.817
 20
330.295
  0
VERTEX
  8
Layer1
 10
685.777
 20
330.355
  0
VERTEX
  8
Layer1
 10
685.73
 20
330.408
  0
VERTEX
  8
Layer1
 10
685.676
 20
330.455
  0
VERTEX
  8
Layer1
 10
685.617
 20
330.495
  0
VERTEX
  8
Layer1
 10
685.553
 20
330.527
  0
VERTEX
  8
Layer1
 10
685.485
 20
330.55
  0
VERTEX
  8
Layer1
 10
685.415
 20
330.563
  0
VERTEX
  8
Layer1
 10
685.344
 20
330.568
  0
VERTEX
  8
Layer1
 10
685.273
 20
330.563
  0
VERTEX
  8
Layer1
 10
685.203
 20
330.55
  0
VERTEX
  8
Layer1
 10
685.135
 20
330.527
  0
VERTEX
  8
Layer1
 10
685.071
 20
330.495
  0
VERTEX
  8
Layer1
 10
685.012
 20
330.455
  0
VERTEX
  8
Layer1
 10
684.958
 20
330.408
  0
VERTEX
  8
Layer1
 10
684.911
 20
330.355
  0
VERTEX
  8
Layer1
 10
684.871
 20
330.295
  0
VERTEX
  8
Layer1
 10
684.84
 20
330.231
  0
VERTEX
  8
Layer1
 10
684.817
 20
330.163
  0
VERTEX
  8
Layer1
 10
684.803
 20
330.093
  0
VERTEX
  8
Layer1
 10
684.798
 20
330.022
  0
VERTEX
  8
Layer1
 10
684.803
 20
329.951
  0
VERTEX
  8
Layer1
 10
684.817
 20
329.88
  0
VERTEX
  8
Layer1
 10
684.84
 20
329.813
  0
VERTEX
  8
Layer1
 10
684.871
 20
329.749
  0
VERTEX
  8
Layer1
 10
684.911
 20
329.69
  0
VERTEX
  8
Layer1
 10
684.958
 20
329.636
  0
VERTEX
  8
Layer1
 10
685.012
 20
329.589
  0
VERTEX
  8
Layer1
 10
685.071
 20
329.548
  0
VERTEX
  8
Layer1
 10
685.135
 20
329.517
  0
VERTEX
  8
Layer1
 10
685.203
 20
329.495
  0
VERTEX
  8
Layer1
 10
685.273
 20
329.481
  0
VERTEX
  8
Layer1
 10
685.344
 20
329.476
  0
VERTEX
  8
Layer1
 10
685.415
 20
329.481
  0
VERTEX
  8
Layer1
 10
685.485
 20
329.495
  0
VERTEX
  8
Layer1
 10
685.553
 20
329.517
  0
VERTEX
  8
Layer1
 10
685.617
 20
329.548
  0
VERTEX
  8
Layer1
 10
685.676
 20
329.589
  0
VERTEX
  8
Layer1
 10
685.73
 20
329.636
  0
VERTEX
  8
Layer1
 10
685.777
 20
329.69
  0
VERTEX
  8
Layer1
 10
685.817
 20
329.749
  0
VERTEX
  8
Layer1
 10
685.848
 20
329.813
  0
VERTEX
  8
Layer1
 10
685.871
 20
329.88
  0
VERTEX
  8
Layer1
 10
685.885
 20
329.951
  0
SEQEND
  0
LINE
  8
Layer1
  6
CONTINUOUS
 62
7
 10
677.584
 20
317.108
 11
677.584
 21
322.98
  0
LINE
  8
Layer1
  6
CONTINUOUS
 62
7
 10
683.584
 20
317.108
 11
683.584
 21
322.98
  0
LINE
  8
Layer1
  6
CONTINUOUS
 62
7
 10
675.556
 20
322.98
 11
685.695
 21
322.98
  0
LINE
  8
Layer1
  6
PHANTOM1
 62
7
 10
765.151
 20
355.18
 11
720.145
 21
355.18
  0
LINE
  8
Layer1
  6
PHANTOM1
 62
7
 10
765.137
 20
339.18
 11
720.145
 21
339.18
  0
LINE
  8
Layer1
  6
CONTINUOUS
 62
7
 10
641.125
 20
257.98
 11
696.573
 21
257.98
  0
LINE
  8
Layer1
  6
CONTINUOUS
 62
7
 10
655.524
 20
257.98
 11
655.524
 21
239.98
  0
LINE
  8
Layer1
  6
CONTINUOUS
 62
7
 10
696.607
 20
259.98
 11
741.147
 21
259.98
  0
LINE
  8
Layer1
  6
DASHED1
 62
7
 10
703.185
 20
239.98
 11
705.503
 21
239.98
  0
LINE
  8
Layer1
  6
CONTINUOUS
 62
7
 10
765.145
 20
280.678
 11
720.145
 21
334.308
  0
LINE
  8
Layer1
  6
CONTINUOUS
 62
7
 10
753.145
 20
294.98
 11
762.1
 21
294.98
  0
LINE
  8
Layer1
  6
CONTINUOUS
 62
7
 10
720.145
 20
383.969
 11
720.145
 21
334.308
  0
ARC
  8
Layer1
  6
CONTINUOUS
 62
7
 10
762.1
 20
297.98
 40
3
 50
270
 51
0
  0
LINE
  8
Layer1
  6
CONTINUOUS
 62
7
 10
765.145
 20
260.981
 11
764.143
 21
259.98
  0
LINE
  8
Layer1
  6
CONTINUOUS
 62
7
 10
766.1
 20
254.98
 11
776.145
 21
254.98
  0
LINE
  8
Layer1
  6
CONTINUOUS
 62
7
 10
777.145
 20
255.98
 11
777.145
 21
316.98
  0
LINE
  8
Layer1
  6
CONTINUOUS
 62
7
 10
766.1
 20
317.98
 11
776.145
 21
317.98
  0
LINE
  8
Layer1
  6
CONTINUOUS
 62
7
 10
776.145
 20
317.98
 11
777.145
 21
316.98
  0
LINE
  8
Layer1
  6
CONTINUOUS
 62
7
 10
777.145
 20
255.98
 11
776.145
 21
254.98
  0
LINE
  8
Layer1
  6
CONTINUOUS
 62
7
 10
766.1
 20
254.98
 11
765.145
 21
255.935
  0
LINE
  8
Layer1
  6
CONTINUOUS
 62
7
 10
765.145
 20
317.024
 11
766.1
 21
317.98
  0
LINE
  8
Layer1
  6
CONTINUOUS
 62
7
 10
720.145
 20
369.991
 11
721.156
 21
368.98
  0
LINE
  8
Layer1
  6
CONTINUOUS
 62
7
 10
720.145
 20
383.969
 11
721.156
 21
384.98
  0
LINE
  8
Layer1
  6
CONTINUOUS
 62
7
 10
724.656
 20
384.98
 11
735.656
 21
384.98
  0
LINE
  8
Layer1
  6
CONTINUOUS
 62
7
 10
720.125
 20
321.98
 11
720.125
 21
311.023
  0
LINE
  8
Layer1
  6
CONTINUOUS
 62
7
 10
640.145
 20
320.999
 11
640.145
 21
311.023
  0
LINE
  8
Layer1
  6
CONTINUOUS
 62
7
 10
696.142
 20
322.98
 11
688.942
 21
315.779
  0
LINE
  8
Layer1
  6
CONTINUOUS
 62
7
 10
641.187
 20
309.98
 11
640.145
 21
311.023
  0
LINE
  8
Layer1
  6
CONTINUOUS
 62
7
 10
642.125
 20
322.98
 11
640.145
 21
320.999
  0
LINE
  8
Layer1
  6
CONTINUOUS
 62
7
 10
700.142
 20
322.98
 11
692.942
 21
315.779
  0
LINE
  8
Layer1
  6
CONTINUOUS
 62
7
 10
692.142
 20
322.98
 11
684.942
 21
315.779
  0
LINE
  8
Layer1
  6
CONTINUOUS
 62
7
 10
694.125
 20
315.98
 11
667.125
 21
315.98
  0
LINE
  8
Layer1
  6
CONTINUOUS
 62
7
 10
676.142
 20
322.98
 11
668.942
 21
315.779
  0
LINE
  8
Layer1
  6
CONTINUOUS
 62
7
 10
665.625
 20
312.663
 11
662.942
 21
309.98
  0
LINE
  8
Layer1
  6
CONTINUOUS
 62
7
 10
719.125
 20
322.98
 11
642.125
 21
322.98
  0
LINE
  8
Layer1
  6
CONTINUOUS
 62
7
 10
672.142
 20
322.98
 11
670.375
 21
321.213
  0
LINE
  8
Layer1
  6
CONTINUOUS
 62
7
 10
667.5
 20
322.338
 11
661.88
 21
316.718
  0
LINE
  8
Layer1
  6
CONTINUOUS
 62
7
 10
664.142
 20
322.98
 11
660.848
 21
319.685
  0
LINE
  8
Layer1
  6
CONTINUOUS
 62
7
 10
695.625
 20
310.98
 11
695.625
 21
314.48
  0
LINE
  8
Layer1
  6
CONTINUOUS
 62
7
 10
665.625
 20
310.98
 11
665.625
 21
314.48
  0
LINE
  8
Layer1
  6
CENTER1
 62
7
 10
680.625
 20
336.678
 11
680.625
 21
304.719
  0
LINE
  8
Layer1
  6
CONTINUOUS
 62
7
 10
688.142
 20
322.98
 11
683.625
 21
318.463
  0
ARC
  8
Layer1
  6
CONTINUOUS
 62
7
 10
694.125
 20
314.48
 40
1.5
 50
2.03555e-013
 51
90
  0
ARC
  8
Layer1
  6
CONTINUOUS
 62
7
 10
667.125
 20
314.48
 40
1.5
 50
90
 51
180
  0
LINE
  8
Layer1
  6
CONTINUOUS
 62
7
 10
664.625
 20
309.98
 11
662.942
 21
309.98
  0
ARC
  8
Layer1
  6
CONTINUOUS
 62
7
 10
696.625
 20
310.98
 40
1
 50
180
 51
270
  0
ARC
  8
Layer1
  6
CONTINUOUS
 62
7
 10
664.625
 20
310.98
 40
1
 50
270
 51
2.03555e-013
  0
LINE
  8
Layer1
  6
CENTER1
 62
7
 10
669.125
 20
325.842
 11
669.125
 21
317.416
  0
LINE
  8
Layer1
  6
CONTINUOUS
 62
7
 10
667.125
 20
322.98
 11
667.875
 21
321.68
  0
LINE
  8
Layer1
  6
CONTINUOUS
 62
7
 10
668.172
 20
319.01
 11
661.716
 21
312.553
  0
LINE
  8
Layer1
  6
CONTINUOUS
 62
7
 10
667.875
 20
319.18
 11
667.875
 21
320.135
  0
LINE
  8
Layer1
  6
CONTINUOUS
 62
7
 10
671.125
 20
322.98
 11
670.375
 21
321.68
  0
LINE
  8
Layer1
  6
CONTINUOUS
 62
7
 10
670.375
 20
319.18
 11
670.375
 21
319.987
  0
LINE
  8
Layer1
  6
CONTINUOUS
 62
7
 10
670.375
 20
319.18
 11
669.646
 21
319.18
  0
LINE
  8
Layer1
  6
CONTINUOUS
 62
7
 10
668.5
 20
319.18
 11
667.875
 21
319.18
  0
LINE
  8
Layer1
  6
CONTINUOUS
 62
7
 10
667.875
 20
319.18
 11
668.172
 21
319.01
  0
LINE
  8
Layer1
  6
CONTINUOUS
 62
7
 10
670.375
 20
321.68
 11
669.548
 21
321.68
  0
LINE
  8
Layer1
  6
CONTINUOUS
 62
7
 10
683.125
 20
321.98
 11
683.125
 21
315.779
  0
LINE
  8
Layer1
  6
CONTINUOUS
 62
7
 10
678.125
 20
321.98
 11
678.125
 21
315.779
  0
LINE
  8
Layer1
  6
CONTINUOUS
 62
7
 10
677.625
 20
321.98
 11
677.625
 21
315.779
  0
LINE
  8
Layer1
  6
CONTINUOUS
 62
7
 10
683.625
 20
321.98
 11
683.625
 21
315.779
  0
LINE
  8
Layer1
  6
CONTINUOUS
 62
7
 10
677.625
 20
316.463
 11
676.942
 21
315.779
  0
LINE
  8
Layer1
  6
CONTINUOUS
 62
7
 10
683.625
 20
321.98
 11
677.625
 21
321.98
  0
LINE
  8
Layer1
  6
CONTINUOUS
 62
7
 10
677.625
 20
321.98
 11
676.625
 21
322.98
  0
LINE
  8
Layer1
  6
CONTINUOUS
 62
7
 10
683.625
 20
321.98
 11
684.625
 21
322.98
  0
LINE
  8
Layer1
  6
CONTINUOUS
 62
7
 10
680.625
 20
321.98
 11
680.625
 21
321.367
  0
LINE
  8
Layer1
  6
CONTINUOUS
 62
7
 10
705.649
 20
316.487
 11
698.942
 21
309.779
  0
LINE
  8
Layer1
  6
CONTINUOUS
 62
7
 10
708.142
 20
322.98
 11
695.625
 21
310.463
  0
LINE
  8
Layer1
  6
CONTINUOUS
 62
7
 10
695.818
 20
314.656
 11
704.142
 21
322.98
  0
POLYLINE
  8
Layer1
  6
CONTINUOUS
 62
7
 66
1
 10
0
 20
0
 30
0
  0
VERTEX
  8
Layer1
 10
660.106
 20
322.98
  0
VERTEX
  8
Layer1
 10
660.131
 20
322.813
  0
VERTEX
  8
Layer1
 10
660.157
 20
322.647
  0
VERTEX
  8
Layer1
 10
660.183
 20
322.48
  0
VERTEX
  8
Layer1
 10
660.21
 20
322.314
  0
VERTEX
  8
Layer1
 10
660.237
 20
322.148
  0
VERTEX
  8
Layer1
 10
660.265
 20
321.981
  0
VERTEX
  8
Layer1
 10
660.295
 20
321.815
  0
VERTEX
  8
Layer1
 10
660.325
 20
321.649
  0
VERTEX
  8
Layer1
 10
660.357
 20
321.485
  0
VERTEX
  8
Layer1
 10
660.39
 20
321.319
  0
VERTEX
  8
Layer1
 10
660.425
 20
321.154
  0
VERTEX
  8
Layer1
 10
660.462
 20
320.99
  0
VERTEX
  8
Layer1
 10
660.501
 20
320.826
  0
VERTEX
  8
Layer1
 10
660.542
 20
320.663
  0
VERTEX
  8
Layer1
 10
660.586
 20
320.499
  0
VERTEX
  8
Layer1
 10
660.632
 20
320.337
  0
VERTEX
  8
Layer1
 10
660.681
 20
320.173
  0
VERTEX
  8
Layer1
 10
660.733
 20
320.012
  0
VERTEX
  8
Layer1
 10
660.788
 20
319.851
  0
VERTEX
  8
Layer1
 10
660.846
 20
319.69
  0
VERTEX
  8
Layer1
 10
660.908
 20
319.531
  0
VERTEX
  8
Layer1
 10
660.972
 20
319.372
  0
VERTEX
  8
Layer1
 10
661.039
 20
319.213
  0
VERTEX
  8
Layer1
 10
661.107
 20
319.055
  0
VERTEX
  8
Layer1
 10
661.176
 20
318.897
  0
VERTEX
  8
Layer1
 10
661.246
 20
318.738
  0
VERTEX
  8
Layer1
 10
661.315
 20
318.581
  0
VERTEX
  8
Layer1
 10
661.383
 20
318.423
  0
VERTEX
  8
Layer1
 10
661.449
 20
318.266
  0
VERTEX
  8
Layer1
 10
661.513
 20
318.108
  0
VERTEX
  8
Layer1
 10
661.575
 20
317.949
  0
VERTEX
  8
Layer1
 10
661.632
 20
317.791
  0
VERTEX
  8
Layer1
 10
661.686
 20
317.632
  0
VERTEX
  8
Layer1
 10
661.735
 20
317.473
  0
VERTEX
  8
Layer1
 10
661.778
 20
317.313
  0
VERTEX
  8
Layer1
 10
661.816
 20
317.152
  0
VERTEX
  8
Layer1
 10
661.846
 20
316.991
  0
VERTEX
  8
Layer1
 10
661.87
 20
316.829
  0
VERTEX
  8
Layer1
 10
661.885
 20
316.665
  0
VERTEX
  8
Layer1
 10
661.892
 20
316.5
  0
VERTEX
  8
Layer1
 10
661.893
 20
316.337
  0
VERTEX
  8
Layer1
 10
661.886
 20
316.171
  0
VERTEX
  8
Layer1
 10
661.875
 20
316.004
  0
VERTEX
  8
Layer1
 10
661.858
 20
315.837
  0
VERTEX
  8
Layer1
 10
661.838
 20
315.67
  0
VERTEX
  8
Layer1
 10
661.815
 20
315.502
  0
VERTEX
  8
Layer1
 10
661.79
 20
315.332
  0
VERTEX
  8
Layer1
 10
661.764
 20
315.164
  0
VERTEX
  8
Layer1
 10
661.738
 20
314.995
  0
VERTEX
  8
Layer1
 10
661.712
 20
314.826
  0
VERTEX
  8
Layer1
 10
661.688
 20
314.656
  0
VERTEX
  8
Layer1
 10
661.666
 20
314.487
  0
VERTEX
  8
Layer1
 10
661.648
 20
314.317
  0
VERTEX
  8
Layer1
 10
661.633
 20
314.148
  0
VERTEX
  8
Layer1
 10
661.624
 20
313.979
  0
VERTEX
  8
Layer1
 10
661.62
 20
313.81
  0
VERTEX
  8
Layer1
 10
661.621
 20
313.642
  0
VERTEX
  8
Layer1
 10
661.627
 20
313.474
  0
VERTEX
  8
Layer1
 10
661.638
 20
313.305
  0
VERTEX
  8
Layer1
 10
661.652
 20
313.137
  0
VERTEX
  8
Layer1
 10
661.669
 20
312.97
  0
VERTEX
  8
Layer1
 10
661.689
 20
312.802
  0
VERTEX
  8
Layer1
 10
661.71
 20
312.635
  0
VERTEX
  8
Layer1
 10
661.733
 20
312.468
  0
VERTEX
  8
Layer1
 10
661.757
 20
312.3
  0
VERTEX
  8
Layer1
 10
661.782
 20
312.132
  0
VERTEX
  8
Layer1
 10
661.806
 20
311.964
  0
VERTEX
  8
Layer1
 10
661.829
 20
311.798
  0
VERTEX
  8
Layer1
 10
661.851
 20
311.63
  0
VERTEX
  8
Layer1
 10
661.871
 20
311.463
  0
VERTEX
  8
Layer1
 10
661.889
 20
311.295
  0
VERTEX
  8
Layer1
 10
661.904
 20
311.128
  0
VERTEX
  8
Layer1
 10
661.915
 20
310.959
  0
VERTEX
  8
Layer1
 10
661.922
 20
310.791
  0
VERTEX
  8
Layer1
 10
661.926
 20
310.623
  0
VERTEX
  8
Layer1
 10
661.927
 20
310.455
  0
VERTEX
  8
Layer1
 10
661.926
 20
310.286
  0
VERTEX
  8
Layer1
 10
661.923
 20
310.117
  0
VERTEX
  8
Layer1
 10
661.918
 20
309.947
  0
VERTEX
  8
Layer1
 10
661.914
 20
309.779
  0
SEQEND
  0
LINE
  8
Layer1
  6
CONTINUOUS
 62
7
 10
668.661
 20
321.68
 11
667.875
 21
321.68
  0
LINE
  8
Layer1
  6
CONTINUOUS
 62
7
 10
670.375
 20
320.971
 11
670.375
 21
321.68
  0
LINE
  8
Layer1
  6
CONTINUOUS
 62
7
 10
667.875
 20
320.874
 11
667.875
 21
321.68
  0
LINE
  8
Layer1
  6
CONTINUOUS
 62
7
 10
670.375
 20
319.18
 11
669.646
 21
318.76
  0
LINE
  8
Layer1
  6
CONTINUOUS
 62
7
 10
668.661
 20
318.726
 11
669.125
 21
318.459
  0
LINE
  8
Layer1
  6
CENTER1
 62
7
 10
710.625
 20
306.377
 11
710.625
 21
325.845
  0
LINE
  8
Layer1
  6
CENTER1
 62
7
 10
650.625
 20
325.409
 11
650.625
 21
307.406
  0
LINE
  8
Layer1
  6
CONTINUOUS
 62
7
 10
765.145
 20
469.707
 11
765.145
 21
587.707
  0
LINE
  8
Layer1
  6
CONTINUOUS
 62
7
 10
764.145
 20
588.707
 11
765.145
 21
587.707
  0
LINE
  8
Layer1
  6
CONTINUOUS
 62
7
 10
765.145
 20
469.707
 11
764.145
 21
468.707
  0
CIRCLE
  8
Layer1
  6
CONTINUOUS
 62
7
 10
702.645
 20
578.707
 40
7
  0
CIRCLE
  8
Layer1
  6
CONTINUOUS
 62
7
 10
702.645
 20
578.707
 40
4.5
  0
LINE
  8
Layer1
  6
CENTER1
 62
7
 10
702.645
 20
570.053
 11
702.645
 21
587.418
  0
LINE
  8
Layer1
  6
CONTINUOUS
 62
7
 10
721.1
 20
569.707
 11
764.145
 21
569.707
  0
LINE
  8
Layer1
  6
CONTINUOUS
 62
7
 10
721.1
 20
487.707
 11
764.145
 21
487.707
  0
LINE
  8
Layer1
  6
CONTINUOUS
 62
7
 10
765.145
 20
488.707
 11
765.145
 21
568.707
  0
LINE
  8
Layer1
  6
CONTINUOUS
 62
7
 10
720.145
 20
568.707
 11
720.145
 21
488.707
  0
LINE
  8
Layer1
  6
CONTINUOUS
 62
7
 10
764.145
 20
569.707
 11
765.145
 21
568.707
  0
LINE
  8
Layer1
  6
CONTINUOUS
 62
7
 10
765.145
 20
488.707
 11
764.145
 21
487.707
  0
LINE
  8
Layer1
  6
CONTINUOUS
 62
7
 10
721.1
 20
487.707
 11
720.1
 21
488.707
  0
LINE
  8
Layer1
  6
CONTINUOUS
 62
7
 10
720.1
 20
568.707
 11
721.1
 21
569.707
  0
LINE
  8
Layer1
  6
CENTER1
 62
7
 10
721.32
 20
496.207
 11
763.637
 21
496.207
  0
CIRCLE
  8
Layer1
  6
CONTINUOUS
 62
7
 10
755.145
 20
561.207
 40
4.5
  0
CIRCLE
  8
Layer1
  6
CONTINUOUS
 62
7
 10
755.145
 20
496.207
 40
4.5
  0
CIRCLE
  8
Layer1
  6
CONTINUOUS
 62
7
 10
730.145
 20
496.207
 40
4.5
  0
CIRCLE
  8
Layer1
  6
CONTINUOUS
 62
7
 10
730.145
 20
561.207
 40
4.5
  0
CIRCLE
  8
Layer1
  6
DASHED1
 62
7
 10
755.145
 20
561.207
 40
7
  0
CIRCLE
  8
Layer1
  6
DASHED1
 62
7
 10
755.145
 20
496.207
 40
7
  0
CIRCLE
  8
Layer1
  6
DASHED1
 62
7
 10
730.145
 20
496.207
 40
7
  0
CIRCLE
  8
Layer1
  6
DASHED1
 62
7
 10
730.145
 20
561.207
 40
7
  0
LINE
  8
Layer1
  6
CENTER1
 62
7
 10
755.145
 20
504.974
 11
755.145
 21
483.095
  0
LINE
  8
Layer1
  6
CENTER1
 62
7
 10
755.145
 20
568.412
 11
755.145
 21
547.64
  0
LINE
  8
Layer1
  6
CENTER1
 62
7
 10
730.145
 20
503.899
 11
730.145
 21
484.511
  0
LINE
  8
Layer1
  6
CENTER1
 62
7
 10
730.145
 20
572.148
 11
730.145
 21
550.269
  0
LINE
  8
Layer1
  6
CONTINUOUS
 62
7
 10
641.28
 20
487.707
 11
718.145
 21
487.707
  0
LINE
  8
Layer1
  6
CONTINUOUS
 62
7
 10
719.145
 20
488.707
 11
719.145
 21
568.707
  0
LINE
  8
Layer1
  6
CONTINUOUS
 62
7
 10
718.145
 20
569.707
 11
719.145
 21
568.707
  0
LINE
  8
Layer1
  6
CONTINUOUS
 62
7
 10
719.145
 20
488.707
 11
718.145
 21
487.707
  0
LINE
  8
Layer1
  6
CONTINUOUS
 62
7
 10
641.28
 20
487.707
 11
640.28
 21
488.707
  0
LINE
  8
Layer1
  6
CONTINUOUS
 62
7
 10
641.28
 20
569.707
 11
640.218
 21
568.707
  0
LINE
  8
Layer1
  6
CONTINUOUS
 62
7
 10
681.02
 20
528.707
 11
678.727
 21
528.707
  0
LINE
  8
Layer1
  6
CONTINUOUS
 62
7
 10
641.28
 20
569.707
 11
718.145
 21
569.707
  0
LINE
  8
Layer1
  6
CENTER1
 62
7
 10
671.671
 20
561.207
 11
664.035
 21
561.207
  0
LINE
  8
Layer1
  6
CENTER1
 62
7
 10
668.145
 20
500.143
 11
668.145
 21
492.37
  0
POLYLINE
  8
Layer1
  6
CONTINUOUS
 62
7
 66
1
 10
0
 20
0
 30
0
  0
VERTEX
  8
Layer1
 10
694.709
 20
537.236
  0
VERTEX
  8
Layer1
 10
694.694
 20
537.289
  0
VERTEX
  8
Layer1
 10
694.674
 20
537.351
  0
VERTEX
  8
Layer1
 10
694.652
 20
537.413
  0
VERTEX
  8
Layer1
 10
694.628
 20
537.474
  0
VERTEX
  8
Layer1
 10
694.602
 20
537.534
  0
VERTEX
  8
Layer1
 10
694.574
 20
537.592
  0
VERTEX
  8
Layer1
 10
694.544
 20
537.649
  0
VERTEX
  8
Layer1
 10
694.512
 20
537.707
  0
VERTEX
  8
Layer1
 10
694.478
 20
537.764
  0
VERTEX
  8
Layer1
 10
694.443
 20
537.818
  0
VERTEX
  8
Layer1
 10
694.426
 20
537.842
  0
SEQEND
  0
LINE
  8
Layer1
  6
DASHED1
 62
7
 10
664.78
 20
536.707
 11
664.78
 21
520.707
  0
LINE
  8
Layer1
  6
DASHED1
 62
7
 10
692.485
 20
518.707
 11
666.801
 21
518.707
  0
LINE
  8
Layer1
  6
DASHED1
 62
7
 10
692.283
 20
538.707
 11
666.78
 21
538.707
  0
LINE
  8
Layer1
  6
DASHED1
 62
7
 10
694.78
 20
536.495
 11
694.78
 21
520.789
  0
POLYLINE
  8
Layer1
  6
CONTINUOUS
 62
7
 66
1
 10
0
 20
0
 30
0
  0
VERTEX
  8
Layer1
 10
693.496
 20
518.841
  0
VERTEX
  8
Layer1
 10
693.545
 20
518.86
  0
VERTEX
  8
Layer1
 10
693.605
 20
518.885
  0
VERTEX
  8
Layer1
 10
693.665
 20
518.914
  0
VERTEX
  8
Layer1
 10
693.723
 20
518.943
  0
VERTEX
  8
Layer1
 10
693.78
 20
518.976
  0
VERTEX
  8
Layer1
 10
693.836
 20
519.01
  0
VERTEX
  8
Layer1
 10
693.891
 20
519.043
  0
VERTEX
  8
Layer1
 10
693.945
 20
519.082
  0
VERTEX
  8
Layer1
 10
693.997
 20
519.12
  0
VERTEX
  8
Layer1
 10
694.049
 20
519.162
  0
VERTEX
  8
Layer1
 10
694.099
 20
519.205
  0
VERTEX
  8
Layer1
 10
694.147
 20
519.246
  0
VERTEX
  8
Layer1
 10
694.194
 20
519.293
  0
VERTEX
  8
Layer1
 10
694.24
 20
519.341
  0
VERTEX
  8
Layer1
 10
694.284
 20
519.39
  0
VERTEX
  8
Layer1
 10
694.326
 20
519.438
  0
VERTEX
  8
Layer1
 10
694.367
 20
519.491
  0
VERTEX
  8
Layer1
 10
694.406
 20
519.543
  0
VERTEX
  8
Layer1
 10
694.443
 20
519.596
  0
VERTEX
  8
Layer1
 10
694.478
 20
519.65
  0
VERTEX
  8
Layer1
 10
694.512
 20
519.707
  0
VERTEX
  8
Layer1
 10
694.544
 20
519.765
  0
VERTEX
  8
Layer1
 10
694.574
 20
519.822
  0
VERTEX
  8
Layer1
 10
694.584
 20
519.845
  0
SEQEND
  0
LINE
  8
Layer1
  6
CONTINUOUS
 62
7
 10
664.78
 20
520.707
 11
664.781
 21
520.654
  0
POLYLINE
  8
Layer1
  6
CONTINUOUS
 62
7
 66
1
 10
0
 20
0
 30
0
  0
VERTEX
  8
Layer1
 10
666.78
 20
538.707
  0
VERTEX
  8
Layer1
 10
666.715
 20
538.707
  0
VERTEX
  8
Layer1
 10
666.666
 20
538.705
  0
SEQEND
  0
LINE
  8
Layer1
  6
CONTINUOUS
 62
7
 10
666.78
 20
538.707
 11
667.88
 21
538.707
  0
LINE
  8
Layer1
  6
CONTINUOUS
 62
7
 10
666.801
 20
518.707
 11
667.88
 21
518.707
  0
LINE
  8
Layer1
  6
CONTINUOUS
 62
7
 10
664.78
 20
520.707
 11
664.78
 21
521.664
  0
LINE
  8
Layer1
  6
CONTINUOUS
 62
7
 10
694.78
 20
521.934
 11
694.78
 21
520.789
  0
POLYLINE
  8
Layer1
  6
CONTINUOUS
 62
7
 66
1
 10
0
 20
0
 30
0
  0
VERTEX
  8
Layer1
 10
693.564
 20
538.548
  0
VERTEX
  8
Layer1
 10
693.545
 20
538.556
  0
VERTEX
  8
Layer1
 10
693.484
 20
538.58
  0
VERTEX
  8
Layer1
 10
693.423
 20
538.601
  0
VERTEX
  8
Layer1
 10
693.361
 20
538.62
  0
VERTEX
  8
Layer1
 10
693.298
 20
538.64
  0
VERTEX
  8
Layer1
 10
693.234
 20
538.655
  0
VERTEX
  8
Layer1
 10
693.17
 20
538.668
  0
VERTEX
  8
Layer1
 10
693.106
 20
538.681
  0
VERTEX
  8
Layer1
 10
693.041
 20
538.691
  0
VERTEX
  8
Layer1
 10
692.976
 20
538.697
  0
VERTEX
  8
Layer1
 10
692.911
 20
538.703
  0
VERTEX
  8
Layer1
 10
692.89
 20
538.705
  0
SEQEND
  0
POLYLINE
  8
Layer1
  6
CONTINUOUS
 62
7
 66
1
 10
0
 20
0
 30
0
  0
VERTEX
  8
Layer1
 10
665.925
 20
538.515
  0
VERTEX
  8
Layer1
 10
665.895
 20
538.501
  0
VERTEX
  8
Layer1
 10
665.837
 20
538.471
  0
VERTEX
  8
Layer1
 10
665.78
 20
538.438
  0
VERTEX
  8
Layer1
 10
665.724
 20
538.407
  0
VERTEX
  8
Layer1
 10
665.669
 20
538.37
  0
VERTEX
  8
Layer1
 10
665.615
 20
538.332
  0
VERTEX
  8
Layer1
 10
665.562
 20
538.293
  0
VERTEX
  8
Layer1
 10
665.511
 20
538.254
  0
VERTEX
  8
Layer1
 10
665.461
 20
538.212
  0
VERTEX
  8
Layer1
 10
665.413
 20
538.168
  0
VERTEX
  8
Layer1
 10
665.366
 20
538.12
  0
VERTEX
  8
Layer1
 10
665.32
 20
538.073
  0
VERTEX
  8
Layer1
 10
665.276
 20
538.025
  0
VERTEX
  8
Layer1
 10
665.234
 20
537.976
  0
VERTEX
  8
Layer1
 10
665.193
 20
537.926
  0
VERTEX
  8
Layer1
 10
665.154
 20
537.871
  0
VERTEX
  8
Layer1
 10
665.117
 20
537.818
  0
VERTEX
  8
Layer1
 10
665.082
 20
537.764
  0
VERTEX
  8
Layer1
 10
665.048
 20
537.707
  0
VERTEX
  8
Layer1
 10
665.016
 20
537.649
  0
VERTEX
  8
Layer1
 10
665.011
 20
537.64
  0
SEQEND
  0
POLYLINE
  8
Layer1
  6
CONTINUOUS
 62
7
 66
1
 10
0
 20
0
 30
0
  0
VERTEX
  8
Layer1
 10
664.784
 20
536.832
  0
VERTEX
  8
Layer1
 10
664.781
 20
536.774
  0
VERTEX
  8
Layer1
 10
664.78
 20
536.707
  0
SEQEND
  0
POLYLINE
  8
Layer1
  6
CONTINUOUS
 62
7
 66
1
 10
0
 20
0
 30
0
  0
VERTEX
  8
Layer1
 10
664.945
 20
519.912
  0
VERTEX
  8
Layer1
 10
664.958
 20
519.883
  0
VERTEX
  8
Layer1
 10
664.986
 20
519.822
  0
VERTEX
  8
Layer1
 10
665.016
 20
519.765
  0
VERTEX
  8
Layer1
 10
665.048
 20
519.707
  0
VERTEX
  8
Layer1
 10
665.082
 20
519.65
  0
VERTEX
  8
Layer1
 10
665.117
 20
519.596
  0
VERTEX
  8
Layer1
 10
665.154
 20
519.543
  0
VERTEX
  8
Layer1
 10
665.193
 20
519.491
  0
VERTEX
  8
Layer1
 10
665.234
 20
519.438
  0
VERTEX
  8
Layer1
 10
665.276
 20
519.39
  0
VERTEX
  8
Layer1
 10
665.32
 20
519.341
  0
VERTEX
  8
Layer1
 10
665.366
 20
519.293
  0
VERTEX
  8
Layer1
 10
665.413
 20
519.246
  0
VERTEX
  8
Layer1
 10
665.461
 20
519.205
  0
VERTEX
  8
Layer1
 10
665.511
 20
519.162
  0
VERTEX
  8
Layer1
 10
665.562
 20
519.12
  0
VERTEX
  8
Layer1
 10
665.615
 20
519.082
  0
VERTEX
  8
Layer1
 10
665.669
 20
519.043
  0
VERTEX
  8
Layer1
 10
665.724
 20
519.01
  0
VERTEX
  8
Layer1
 10
665.78
 20
518.976
  0
VERTEX
  8
Layer1
 10
665.837
 20
518.943
  0
VERTEX
  8
Layer1
 10
665.895
 20
518.914
  0
VERTEX
  8
Layer1
 10
665.955
 20
518.885
  0
VERTEX
  8
Layer1
 10
666.015
 20
518.86
  0
VERTEX
  8
Layer1
 10
666.06
 20
518.842
  0
SEQEND
  0
LINE
  8
Layer1
  6
CENTER1
 62
7
 10
721.559
 20
561.207
 11
762.71
 21
561.207
  0
LINE
  8
Layer1
  6
CONTINUOUS
 62
7
 10
636.645
 20
553.707
 11
639.145
 21
553.707
  0
LINE
  8
Layer1
  6
CONTINUOUS
 62
7
 10
636.645
 20
553.707
 11
635.645
 21
552.707
  0
LINE
  8
Layer1
  6
CONTINUOUS
 62
7
 10
613.645
 20
553.707
 11
634.645
 21
553.707
  0
LINE
  8
Layer1
  6
CONTINUOUS
 62
7
 10
635.645
 20
552.707
 11
634.645
 21
553.707
  0
LINE
  8
Layer1
  6
CONTINUOUS
 62
7
 10
613.645
 20
553.707
 11
612.645
 21
552.707
  0
LINE
  8
Layer1
  6
CENTER1
 62
7
 10
609.108
 20
546.207
 11
651.239
 21
546.207
  0
LINE
  8
Layer1
  6
CENTER1
 62
7
 10
760.27
 20
561.706
 11
786.747
 21
561.706
  0
LINE
  8
Layer1
  6
CENTER1
 62
7
 10
764.062
 20
495.707
 11
786.359
 21
495.707
  0
LINE
  8
Layer1
  6
CENTER1
 62
7
 10
609.23
 20
511.207
 11
654.04
 21
511.207
  0
LINE
  8
Layer1
  6
CONTINUOUS
 62
7
 10
634.645
 20
503.707
 11
613.645
 21
503.707
  0
LINE
  8
Layer1
  6
CONTINUOUS
 62
7
 10
612.645
 20
504.707
 11
613.645
 21
503.707
  0
LINE
  8
Layer1
  6
CONTINUOUS
 62
7
 10
634.645
 20
503.707
 11
635.645
 21
504.707
  0
LINE
  8
Layer1
  6
CONTINUOUS
 62
7
 10
635.645
 20
504.707
 11
636.645
 21
503.707
  0
LINE
  8
Layer1
  6
CONTINUOUS
 62
7
 10
639.145
 20
503.707
 11
640.145
 21
504.707
  0
LINE
  8
Layer1
  6
CONTINUOUS
 62
7
 10
777.145
 20
295.344
 11
784.645
 21
295.344
  0
LINE
  8
Layer1
  6
CONTINUOUS
 62
7
 10
777.145
 20
308.344
 11
784.645
 21
308.344
  0
LINE
  8
Layer1
  6
CONTINUOUS
 62
7
 10
784.645
 20
295.344
 11
784.645
 21
308.344
  0
LINE
  8
Layer1
  6
CONTINUOUS
 62
7
 10
785.145
 20
295.844
 11
785.145
 21
307.844
  0
LINE
  8
Layer1
  6
CONTINUOUS
 62
7
 10
784.645
 20
295.344
 11
785.145
 21
295.844
  0
LINE
  8
Layer1
  6
CONTINUOUS
 62
7
 10
784.645
 20
308.344
 11
785.145
 21
307.844
  0
LINE
  8
Layer1
  6
CONTINUOUS
 62
7
 10
777.145
 20
308.344
 11
777.145
 21
295.344
  0
LINE
  8
Layer1
  6
CONTINUOUS
 62
7
 10
777.722
 20
307.344
 11
784.068
 21
307.344
  0
LINE
  8
Layer1
  6
CONTINUOUS
 62
7
 10
778.299
 20
306.344
 11
783.491
 21
306.344
  0
LINE
  8
Layer1
  6
CONTINUOUS
 62
7
 10
778.876
 20
305.344
 11
782.914
 21
305.344
  0
LINE
  8
Layer1
  6
CONTINUOUS
 62
7
 10
779.453
 20
304.344
 11
782.337
 21
304.344
  0
LINE
  8
Layer1
  6
CONTINUOUS
 62
7
 10
777.145
 20
257.089
 11
784.645
 21
257.089
  0
LINE
  8
Layer1
  6
CONTINUOUS
 62
7
 10
777.145
 20
270.089
 11
784.645
 21
270.089
  0
LINE
  8
Layer1
  6
CONTINUOUS
 62
7
 10
784.645
 20
257.089
 11
784.645
 21
270.089
  0
LINE
  8
Layer1
  6
CONTINUOUS
 62
7
 10
785.145
 20
257.589
 11
785.145
 21
269.589
  0
LINE
  8
Layer1
  6
CONTINUOUS
 62
7
 10
784.645
 20
257.089
 11
785.145
 21
257.589
  0
LINE
  8
Layer1
  6
CONTINUOUS
 62
7
 10
784.645
 20
270.089
 11
785.145
 21
269.589
  0
LINE
  8
Layer1
  6
CONTINUOUS
 62
7
 10
777.145
 20
270.089
 11
777.145
 21
257.089
  0
LINE
  8
Layer1
  6
CONTINUOUS
 62
7
 10
777.722
 20
269.089
 11
784.068
 21
269.089
  0
LINE
  8
Layer1
  6
CONTINUOUS
 62
7
 10
778.299
 20
268.089
 11
783.491
 21
268.089
  0
LINE
  8
Layer1
  6
CONTINUOUS
 62
7
 10
778.876
 20
267.089
 11
782.914
 21
267.089
  0
LINE
  8
Layer1
  6
CONTINUOUS
 62
7
 10
779.453
 20
266.089
 11
782.337
 21
266.089
  0
LINE
  8
Layer1
  6
DASHED1
 62
7
 10
765.145
 20
273.279
 11
776.811
 21
273.279
  0
LINE
  8
Layer1
  6
DASHED1
 62
7
 10
765.145
 20
266.68
 11
776.811
 21
266.68
  0
LINE
  8
Layer1
  6
DASHED1
 62
7
 10
765.188
 20
273.98
 11
777.145
 21
273.98
  0
LINE
  8
Layer1
  6
DASHED1
 62
7
 10
765.188
 20
265.98
 11
776.482
 21
265.98
  0
LINE
  8
Layer1
  6
CONTINUOUS
 62
7
 10
777.145
 20
276.48
 11
784.645
 21
276.48
  0
LINE
  8
Layer1
  6
CONTINUOUS
 62
7
 10
777.145
 20
289.48
 11
784.645
 21
289.48
  0
LINE
  8
Layer1
  6
CONTINUOUS
 62
7
 10
784.645
 20
276.48
 11
784.645
 21
289.48
  0
LINE
  8
Layer1
  6
CONTINUOUS
 62
7
 10
785.145
 20
276.98
 11
785.145
 21
288.98
  0
LINE
  8
Layer1
  6
CONTINUOUS
 62
7
 10
784.645
 20
276.48
 11
785.145
 21
276.98
  0
LINE
  8
Layer1
  6
CONTINUOUS
 62
7
 10
784.645
 20
289.48
 11
785.145
 21
288.98
  0
LINE
  8
Layer1
  6
CONTINUOUS
 62
7
 10
777.145
 20
289.48
 11
777.145
 21
276.48
  0
LINE
  8
Layer1
  6
CONTINUOUS
 62
7
 10
777.722
 20
288.48
 11
784.068
 21
288.48
  0
LINE
  8
Layer1
  6
CONTINUOUS
 62
7
 10
778.299
 20
287.48
 11
783.491
 21
287.48
  0
LINE
  8
Layer1
  6
CONTINUOUS
 62
7
 10
778.876
 20
286.48
 11
782.914
 21
286.48
  0
LINE
  8
Layer1
  6
CONTINUOUS
 62
7
 10
779.453
 20
285.48
 11
782.337
 21
285.48
  0
LINE
  8
Layer1
  6
CONTINUOUS
 62
7
 10
715.625
 20
316.511
 11
715.625
 21
322.111
  0
LINE
  8
Layer1
  6
CONTINUOUS
 62
7
 10
705.625
 20
316.511
 11
705.625
 21
322.111
  0
LINE
  8
Layer1
  6
CONTINUOUS
 62
7
 10
715.625
 20
322.111
 11
705.625
 21
322.111
  0
LINE
  8
Layer1
  6
CONTINUOUS
 62
7
 10
715.225
 20
322.511
 11
706.025
 21
322.511
  0
LINE
  8
Layer1
  6
CONTINUOUS
 62
7
 10
715.625
 20
322.111
 11
715.225
 21
322.511
  0
LINE
  8
Layer1
  6
CONTINUOUS
 62
7
 10
705.625
 20
322.111
 11
706.025
 21
322.511
  0
LINE
  8
Layer1
  6
CONTINUOUS
 62
7
 10
705.625
 20
316.511
 11
715.625
 21
316.511
  0
LINE
  8
Layer1
  6
CONTINUOUS
 62
7
 10
706.625
 20
321.551
 11
706.625
 21
317.071
  0
LINE
  8
Layer1
  6
CONTINUOUS
 62
7
 10
707.625
 20
320.991
 11
707.625
 21
317.63
  0
LINE
  8
Layer1
  6
CONTINUOUS
 62
7
 10
708.625
 20
320.43
 11
708.625
 21
318.19
  0
LINE
  8
Layer1
  6
CONTINUOUS
 62
7
 10
713.625
 20
316.488
 11
713.625
 21
309.98
  0
LINE
  8
Layer1
  6
CONTINUOUS
 62
7
 10
707.625
 20
316.394
 11
707.625
 21
309.98
  0
LINE
  8
Layer1
  6
CONTINUOUS
 62
7
 10
703.128
 20
310.166
 11
707.625
 21
314.663
  0
LINE
  8
Layer1
  6
CONTINUOUS
 62
7
 10
719.641
 20
322.479
 11
715.781
 21
318.619
  0
LINE
  8
Layer1
  6
CONTINUOUS
 62
7
 10
720.157
 20
318.995
 11
713.625
 21
312.463
  0
LINE
  8
Layer1
  6
CONTINUOUS
 62
7
 10
715.161
 20
310.199
 11
720.125
 21
315.098
  0
LINE
  8
Layer1
  6
PHANTOM1
 62
7
 10
757.096
 20
259.725
 11
714.927
 21
309.98
  0
POLYLINE
  8
Layer1
  6
CONTINUOUS
 62
7
 66
1
 10
0
 20
0
 30
0
  0
VERTEX
  8
Layer1
 10
587.583
 20
239.98
  0
VERTEX
  8
Layer1
 10
612.583
 20
239.98
  0
SEQEND
  0
POLYLINE
  8
Layer1
  6
CONTINUOUS
 62
7
 66
1
 10
0
 20
0
 30
0
  0
VERTEX
  8
Layer1
 10
589.515
 20
239.462
  0
VERTEX
  8
Layer1
 10
587.583
 20
239.98
  0
VERTEX
  8
Layer1
 10
589.515
 20
240.497
  0
SEQEND
  0
POLYLINE
  8
Layer1
  6
CONTINUOUS
 62
7
 66
1
 10
0
 20
0
 30
0
  0
VERTEX
  8
Layer1
 10
610.651
 20
240.497
  0
VERTEX
  8
Layer1
 10
612.583
 20
239.98
  0
VERTEX
  8
Layer1
 10
610.651
 20
239.462
  0
SEQEND
  0
TEXT
  8
Layer1
 62
7
 10
599.475
 20
240.345
 72
1
 11
599.475
 21
240.345
 40
4
 41
1
  1
25
  0
TEXT
  8
Layer1
 62
7
 10
817.509
 20
309.206
 72
1
 11
817.509
 21
309.206
 40
4
 41
1
 50
90
  1
(シャットハイト） 
  0
TEXT
  8
Layer1
 62
7
 10
833.114
 20
332.882
 72
1
 11
833.114
 21
332.882
 40
4
 41
1
 50
90
  1
(オープンハイト）
  0
POLYLINE
  8
Layer1
  6
CONTINUOUS
 62
7
 66
1
 10
0
 20
0
 30
0
  0
VERTEX
  8
Layer1
 10
757.462
 20
564.39
  0
VERTEX
  8
Layer1
 10
788.465
 20
606.51
  0
VERTEX
  8
Layer1
 10
788.465
 20
606.51
  0
SEQEND
  0
POLYLINE
  8
Layer1
  6
CONTINUOUS
 62
7
 66
1
 10
0
 20
0
 30
0
  0
VERTEX
  8
Layer1
 10
759.024
 20
565.639
  0
VERTEX
  8
Layer1
 10
757.462
 20
564.39
  0
VERTEX
  8
Layer1
 10
758.19
 20
566.253
  0
SEQEND
  0
LINE
  8
Layer1
  6
CONTINUOUS
 62
7
 10
788.465
 20
606.51
 11
816.465
 21
606.51
  0
TEXT
  8
Layer1
 62
7
 10
816.465
 20
606.51
 72
2
 11
816.465
 21
606.51
 40
8
 41
1
  1
4-9キリ
  0
TEXT
  8
Layer1
 62
7
 10
589.586
 20
597.052
 40
6
 41
1
  1
ベース取付穴
  0
TEXT
  8
Layer1
 62
7
 10
787.669
 20
600.167
 40
6
 41
1
  1
アッパー取付穴
  0
POLYLINE
  8
Layer1
  6
CONTINUOUS
 62
7
 66
1
 10
0
 20
0
 30
0
  0
VERTEX
  8
Layer1
 10
649.401
 20
581.89
  0
VERTEX
  8
Layer1
 10
625.342
 20
603.171
  0
VERTEX
  8
Layer1
 10
625.342
 20
603.171
  0
SEQEND
  0
POLYLINE
  8
Layer1
  6
CONTINUOUS
 62
7
 66
1
 10
0
 20
0
 30
0
  0
VERTEX
  8
Layer1
 10
648.297
 20
583.558
  0
VERTEX
  8
Layer1
 10
649.401
 20
581.89
  0
VERTEX
  8
Layer1
 10
647.611
 20
582.782
  0
SEQEND
  0
LINE
  8
Layer1
  6
CONTINUOUS
 62
7
 10
625.342
 20
603.171
 11
597.342
 21
603.171
  0
TEXT
  8
Layer1
 62
7
 10
597.342
 20
603.171
 40
8
 41
1
  1
4-9キリ
  0
LINE
  8
Layer1
  6
CONTINUOUS
 62
7
 10
753.145
 20
241.156
 11
753.145
 21
263.156
  0
LINE
  8
Layer1
  6
CONTINUOUS
 62
7
 10
741.145
 20
241.156
 11
741.145
 21
263.156
  0
LINE
  8
Layer1
  6
CONTINUOUS
 62
7
 10
741.145
 20
263.156
 11
753.145
 21
263.156
  0
LINE
  8
Layer1
  6
CONTINUOUS
 62
7
 10
764.143
 20
259.98
 11
753.685
 21
259.98
  0
LINE
  8
Layer1
  6
DASHED1
 62
7
 10
744.145
 20
253.767
 11
744.145
 21
275.156
  0
LINE
  8
Layer1
  6
DASHED1
 62
7
 10
750.145
 20
264.156
 11
750.145
 21
275.156
  0
LINE
  8
Layer1
  6
DASHED1
 62
7
 10
744.145
 20
275.156
 11
750.145
 21
275.156
  0
LINE
  8
Layer1
  6
DASHED1
 62
7
 10
744.645
 20
253.781
 11
744.645
 21
278.713
  0
LINE
  8
Layer1
  6
DASHED1
 62
7
 10
749.645
 20
254.142
 11
749.645
 21
278.713
  0
LINE
  8
Layer1
  6
CONTINUOUS
 62
7
 10
747.145
 20
280.156
 11
749.645
 21
278.713
  0
LINE
  8
Layer1
  6
CONTINUOUS
 62
7
 10
747.145
 20
280.156
 11
744.645
 21
278.713
  0
LINE
  8
Layer1
  6
DASHED1
 62
7
 10
744.645
 20
278.713
 11
749.645
 21
278.713
  0
LINE
  8
Layer1
  6
CONTINUOUS
 62
7
 10
749.645
 20
278.713
 11
749.325
 21
278.713
  0
LINE
  8
Layer1
  6
CONTINUOUS
 62
7
 10
750.145
 20
275.156
 11
749.02
 21
275.156
  0
LINE
  8
Layer1
  6
CONTINUOUS
 62
7
 10
744.145
 20
275.156
 11
744.145
 21
274.255
  0
LINE
  8
Layer1
  6
DASHED1
 62
7
 10
750.145
 20
275.156
 11
750.145
 21
254.536
  0
LINE
  8
Layer1
  6
CONTINUOUS
 62
7
 10
743.145
 20
263.156
 11
751.145
 21
263.156
  0
LINE
  8
Layer1
  6
CONTINUOUS
 62
7
 10
753.145
 20
241.156
 11
741.145
 21
241.156
  0
LINE
  8
Layer1
  6
PHANTOM1
 62
7
 10
741.145
 20
239.98
 11
741.145
 21
244.48
  0
LINE
  8
Layer1
  6
CONTINUOUS
 62
7
 10
753.73
 20
239.98
 11
753.73
 21
259.98
  0
LINE
  8
Layer1
  6
CONTINUOUS
 62
7
 10
751.145
 20
242.156
 11
743.145
 21
242.156
  0
LINE
  8
Layer1
  6
CONTINUOUS
 62
7
 10
742.145
 20
243.156
 11
742.145
 21
248.156
  0
LINE
  8
Layer1
  6
CONTINUOUS
 62
7
 10
752.145
 20
243.156
 11
752.145
 21
248.156
  0
LINE
  8
Layer1
  6
CONTINUOUS
 62
7
 10
741.645
 20
248.156
 11
752.645
 21
248.156
  0
LINE
  8
Layer1
  6
CONTINUOUS
 62
7
 10
743.145
 20
242.156
 11
742.145
 21
243.156
  0
LINE
  8
Layer1
  6
CONTINUOUS
 62
7
 10
751.145
 20
242.156
 11
752.145
 21
243.156
  0
LINE
  8
Layer1
  6
CONTINUOUS
 62
7
 10
742.145
 20
243.156
 11
752.145
 21
243.156
  0
LINE
  8
Layer1
  6
CONTINUOUS
 62
7
 10
750.145
 20
275.156
 11
749.645
 21
276.022
  0
LINE
  8
Layer1
  6
CONTINUOUS
 62
7
 10
744.145
 20
275.156
 11
744.645
 21
276.022
  0
LINE
  8
Layer1
  6
DASHED1
 62
7
 10
744.645
 20
276.022
 11
749.645
 21
276.022
  0
POLYLINE
  8
Layer1
  6
CONTINUOUS
 62
7
 66
1
 10
0
 20
0
 30
0
  0
VERTEX
  8
Layer1
 10
741.145
 20
252.156
  0
VERTEX
  8
Layer1
 10
741.332
 20
252.297
  0
VERTEX
  8
Layer1
 10
741.518
 20
252.437
  0
VERTEX
  8
Layer1
 10
741.705
 20
252.575
  0
VERTEX
  8
Layer1
 10
741.892
 20
252.709
  0
VERTEX
  8
Layer1
 10
742.08
 20
252.841
  0
VERTEX
  8
Layer1
 10
742.268
 20
252.968
  0
VERTEX
  8
Layer1
 10
742.457
 20
253.089
  0
VERTEX
  8
Layer1
 10
742.646
 20
253.204
  0
VERTEX
  8
Layer1
 10
742.836
 20
253.31
  0
VERTEX
  8
Layer1
 10
743.027
 20
253.41
  0
VERTEX
  8
Layer1
 10
743.219
 20
253.499
  0
VERTEX
  8
Layer1
 10
743.412
 20
253.579
  0
VERTEX
  8
Layer1
 10
743.607
 20
253.647
  0
VERTEX
  8
Layer1
 10
743.802
 20
253.702
  0
VERTEX
  8
Layer1
 10
743.999
 20
253.745
  0
VERTEX
  8
Layer1
 10
744.198
 20
253.774
  0
VERTEX
  8
Layer1
 10
744.398
 20
253.788
  0
VERTEX
  8
Layer1
 10
744.599
 20
253.786
  0
VERTEX
  8
Layer1
 10
744.803
 20
253.767
  0
VERTEX
  8
Layer1
 10
745.008
 20
253.735
  0
VERTEX
  8
Layer1
 10
745.214
 20
253.689
  0
VERTEX
  8
Layer1
 10
745.421
 20
253.635
  0
VERTEX
  8
Layer1
 10
745.629
 20
253.574
  0
VERTEX
  8
Layer1
 10
745.837
 20
253.509
  0
VERTEX
  8
Layer1
 10
746.045
 20
253.444
  0
VERTEX
  8
Layer1
 10
746.252
 20
253.38
  0
VERTEX
  8
Layer1
 10
746.46
 20
253.322
  0
VERTEX
  8
Layer1
 10
746.666
 20
253.271
  0
VERTEX
  8
Layer1
 10
746.871
 20
253.23
  0
VERTEX
  8
Layer1
 10
747.074
 20
253.202
  0
VERTEX
  8
Layer1
 10
747.275
 20
253.19
  0
VERTEX
  8
Layer1
 10
747.475
 20
253.194
  0
VERTEX
  8
Layer1
 10
747.672
 20
253.214
  0
VERTEX
  8
Layer1
 10
747.868
 20
253.248
  0
VERTEX
  8
Layer1
 10
748.062
 20
253.296
  0
VERTEX
  8
Layer1
 10
748.254
 20
253.358
  0
VERTEX
  8
Layer1
 10
748.445
 20
253.43
  0
VERTEX
  8
Layer1
 10
748.633
 20
253.515
  0
VERTEX
  8
Layer1
 10
748.821
 20
253.61
  0
VERTEX
  8
Layer1
 10
749.006
 20
253.714
  0
VERTEX
  8
Layer1
 10
749.191
 20
253.827
  0
VERTEX
  8
Layer1
 10
749.373
 20
253.947
  0
VERTEX
  8
Layer1
 10
749.555
 20
254.076
  0
VERTEX
  8
Layer1
 10
749.735
 20
254.209
  0
VERTEX
  8
Layer1
 10
749.914
 20
254.349
  0
VERTEX
  8
Layer1
 10
750.091
 20
254.493
  0
VERTEX
  8
Layer1
 10
750.268
 20
254.64
  0
VERTEX
  8
Layer1
 10
750.443
 20
254.789
  0
VERTEX
  8
Layer1
 10
750.618
 20
254.94
  0
VERTEX
  8
Layer1
 10
750.791
 20
255.094
  0
VERTEX
  8
Layer1
 10
750.963
 20
255.247
  0
VERTEX
  8
Layer1
 10
751.135
 20
255.399
  0
VERTEX
  8
Layer1
 10
751.305
 20
255.548
  0
VERTEX
  8
Layer1
 10
751.475
 20
255.697
  0
VERTEX
  8
Layer1
 10
751.644
 20
255.842
  0
VERTEX
  8
Layer1
 10
751.813
 20
255.983
  0
VERTEX
  8
Layer1
 10
751.981
 20
256.12
  0
VERTEX
  8
Layer1
 10
752.148
 20
256.254
  0
VERTEX
  8
Layer1
 10
752.315
 20
256.386
  0
VERTEX
  8
Layer1
 10
752.481
 20
256.515
  0
VERTEX
  8
Layer1
 10
752.648
 20
256.642
  0
VERTEX
  8
Layer1
 10
752.814
 20
256.767
  0
VERTEX
  8
Layer1
 10
752.979
 20
256.892
  0
VERTEX
  8
Layer1
 10
753.145
 20
257.017
  0
SEQEND
  0
LINE
  8
Layer1
  6
CONTINUOUS
 62
7
 10
750.145
 20
254.536
 11
750.145
 21
248.156
  0
LINE
  8
Layer1
  6
CONTINUOUS
 62
7
 10
749.645
 20
254.142
 11
749.645
 21
248.156
  0
LINE
  8
Layer1
  6
CONTINUOUS
 62
7
 10
744.645
 20
253.784
 11
744.645
 21
248.156
  0
LINE
  8
Layer1
  6
CONTINUOUS
 62
7
 10
744.145
 20
253.767
 11
744.145
 21
248.156
  0
LINE
  8
Layer1
  6
CONTINUOUS
 62
7
 10
742.145
 20
248.156
 11
742.145
 21
243.156
  0
LINE
  8
Layer1
  6
CONTINUOUS
 62
7
 10
752.145
 20
248.156
 11
752.145
 21
243.156
  0
LINE
  8
Layer1
  6
CONTINUOUS
 62
7
 10
741.645
 20
241.156
 11
741.645
 21
248.156
  0
LINE
  8
Layer1
  6
CONTINUOUS
 62
7
 10
752.645
 20
241.156
 11
752.645
 21
248.156
  0
LINE
  8
Layer1
  6
CONTINUOUS
 62
7
 10
742.645
 20
247.906
 11
742.645
 21
243.406
  0
LINE
  8
Layer1
  6
CONTINUOUS
 62
7
 10
743.645
 20
247.406
 11
743.645
 21
243.906
  0
LINE
  8
Layer1
  6
CONTINUOUS
 62
7
 10
744.645
 20
246.906
 11
744.645
 21
244.406
  0
LINE
  8
Layer1
  6
CONTINUOUS
 62
7
 10
747.145
 20
248.156
 11
747.145
 21
243.156
  0
LINE
  8
Layer1
  6
CONTINUOUS
 62
7
 10
741.145
 20
257.98
 11
741.145
 21
239.98
  0
LINE
  8
Layer1
  6
DASHED1
 62
7
 10
726.85
 20
239.98
 11
729.168
 21
239.98
  0
LINE
  8
Layer1
  6
CONTINUOUS
 62
7
 10
741.145
 20
257.98
 11
739.213
 21
257.98
  0
LINE
  8
Layer1
  6
DASHED1
 62
7
 10
725.304
 20
253.486
 11
727.622
 21
253.486
  0
LINE
  8
Layer1
  6
DASHED1
 62
7
 10
726.85
 20
244.497
 11
729.168
 21
244.497
  0
LINE
  8
Layer1
  6
DASHED1
 62
7
 10
727.622
 20
257.98
 11
727.622
 21
253.486
  0
LINE
  8
Layer1
  6
DASHED1
 62
7
 10
729.168
 20
244.497
 11
729.168
 21
239.98
  0
LINE
  8
Layer1
  6
DASHED1
 62
7
 10
727.622
 20
253.486
 11
729.168
 21
244.497
  0
LINE
  8
Layer1
  6
DASHED1
 62
7
 10
727.816
 20
257.98
 11
728.395
 21
248.991
  0
LINE
  8
Layer1
  6
CONTINUOUS
 62
7
 10
731.486
 20
239.98
 11
733.804
 21
239.98
  0
LINE
  8
Layer1
  6
CONTINUOUS
 62
7
 10
732.259
 20
257.98
 11
729.941
 21
257.98
  0
LINE
  8
Layer1
  6
CONTINUOUS
 62
7
 10
729.941
 20
253.486
 11
732.259
 21
253.486
  0
LINE
  8
Layer1
  6
CONTINUOUS
 62
7
 10
731.486
 20
244.497
 11
733.804
 21
244.497
  0
LINE
  8
Layer1
  6
CONTINUOUS
 62
7
 10
732.259
 20
257.98
 11
732.259
 21
253.486
  0
LINE
  8
Layer1
  6
CONTINUOUS
 62
7
 10
729.941
 20
257.98
 11
729.941
 21
253.486
  0
LINE
  8
Layer1
  6
CONTINUOUS
 62
7
 10
731.486
 20
244.497
 11
731.486
 21
239.98
  0
LINE
  8
Layer1
  6
CONTINUOUS
 62
7
 10
733.804
 20
244.497
 11
733.804
 21
239.98
  0
LINE
  8
Layer1
  6
CONTINUOUS
 62
7
 10
729.941
 20
253.486
 11
731.486
 21
244.497
  0
LINE
  8
Layer1
  6
CONTINUOUS
 62
7
 10
732.259
 20
253.486
 11
733.804
 21
244.497
  0
LINE
  8
Layer1
  6
CONTINUOUS
 62
7
 10
730.713
 20
248.991
 11
731.486
 21
239.98
  0
LINE
  8
Layer1
  6
CONTINUOUS
 62
7
 10
732.452
 20
257.98
 11
733.031
 21
248.991
  0
LINE
  8
Layer1
  6
CONTINUOUS
 62
7
 10
736.122
 20
239.98
 11
738.441
 21
239.98
  0
LINE
  8
Layer1
  6
CONTINUOUS
 62
7
 10
736.895
 20
257.98
 11
734.577
 21
257.98
  0
LINE
  8
Layer1
  6
CONTINUOUS
 62
7
 10
734.577
 20
253.486
 11
736.895
 21
253.486
  0
LINE
  8
Layer1
  6
CONTINUOUS
 62
7
 10
736.122
 20
244.497
 11
738.441
 21
244.497
  0
LINE
  8
Layer1
  6
CONTINUOUS
 62
7
 10
736.895
 20
257.98
 11
736.895
 21
253.486
  0
LINE
  8
Layer1
  6
CONTINUOUS
 62
7
 10
734.577
 20
257.98
 11
734.577
 21
253.486
  0
LINE
  8
Layer1
  6
CONTINUOUS
 62
7
 10
736.122
 20
244.497
 11
736.122
 21
239.98
  0
LINE
  8
Layer1
  6
CONTINUOUS
 62
7
 10
738.441
 20
244.497
 11
738.441
 21
239.98
  0
LINE
  8
Layer1
  6
CONTINUOUS
 62
7
 10
734.577
 20
253.486
 11
736.122
 21
244.497
  0
LINE
  8
Layer1
  6
CONTINUOUS
 62
7
 10
736.895
 20
253.486
 11
738.441
 21
244.497
  0
LINE
  8
Layer1
  6
CONTINUOUS
 62
7
 10
735.35
 20
248.991
 11
736.122
 21
239.98
  0
LINE
  8
Layer1
  6
CONTINUOUS
 62
7
 10
737.088
 20
257.98
 11
737.668
 21
248.991
  0
LINE
  8
Layer1
  6
CONTINUOUS
 62
7
 10
740.759
 20
239.98
 11
741.145
 21
239.98
  0
LINE
  8
Layer1
  6
CONTINUOUS
 62
7
 10
739.213
 20
253.486
 11
741.145
 21
253.48
  0
LINE
  8
Layer1
  6
CONTINUOUS
 62
7
 10
740.759
 20
244.497
 11
741.145
 21
244.48
  0
LINE
  8
Layer1
  6
CONTINUOUS
 62
7
 10
739.213
 20
257.98
 11
739.213
 21
253.486
  0
LINE
  8
Layer1
  6
CONTINUOUS
 62
7
 10
740.759
 20
244.497
 11
740.759
 21
239.98
  0
LINE
  8
Layer1
  6
CONTINUOUS
 62
7
 10
739.213
 20
253.486
 11
740.759
 21
244.497
  0
LINE
  8
Layer1
  6
CONTINUOUS
 62
7
 10
739.986
 20
248.991
 11
740.759
 21
239.98
  0
LINE
  8
Layer1
  6
DASHED1
 62
7
 10
727.622
 20
257.98
 11
725.304
 21
257.98
  0
LINE
  8
Layer1
  6
CONTINUOUS
 62
7
 10
726.85
 20
239.98
 11
729.168
 21
239.98
  0
LINE
  8
Layer1
  6
CONTINUOUS
 62
7
 10
727.622
 20
257.98
 11
725.304
 21
257.98
  0
LINE
  8
Layer1
  6
CONTINUOUS
 62
7
 10
725.304
 20
253.486
 11
727.622
 21
253.486
  0
LINE
  8
Layer1
  6
CONTINUOUS
 62
7
 10
726.85
 20
244.497
 11
729.168
 21
244.497
  0
LINE
  8
Layer1
  6
CONTINUOUS
 62
7
 10
727.622
 20
257.98
 11
727.622
 21
253.486
  0
LINE
  8
Layer1
  6
CONTINUOUS
 62
7
 10
725.304
 20
257.98
 11
725.304
 21
253.486
  0
LINE
  8
Layer1
  6
CONTINUOUS
 62
7
 10
726.85
 20
244.497
 11
726.85
 21
239.98
  0
LINE
  8
Layer1
  6
CONTINUOUS
 62
7
 10
729.168
 20
244.497
 11
729.168
 21
239.98
  0
LINE
  8
Layer1
  6
CONTINUOUS
 62
7
 10
725.304
 20
253.486
 11
726.85
 21
244.497
  0
LINE
  8
Layer1
  6
CONTINUOUS
 62
7
 10
727.622
 20
253.486
 11
729.168
 21
244.497
  0
LINE
  8
Layer1
  6
CONTINUOUS
 62
7
 10
726.077
 20
248.991
 11
726.85
 21
239.98
  0
LINE
  8
Layer1
  6
CONTINUOUS
 62
7
 10
727.816
 20
257.98
 11
728.395
 21
248.991
  0
CIRCLE
  8
Layer1
  6
CONTINUOUS
 62
7
 10
652.645
 20
478.707
 40
4.5
  0
LINE
  8
Layer1
  6
CENTER1
 62
7
 10
652.645
 20
491.818
 11
652.645
 21
463.59
  0
CIRCLE
  8
Layer1
  6
CONTINUOUS
 62
7
 10
702.645
 20
478.707
 40
7
  0
CIRCLE
  8
Layer1
  6
CONTINUOUS
 62
7
 10
702.645
 20
478.707
 40
4.5
  0
LINE
  8
Layer1
  6
CENTER1
 62
7
 10
702.645
 20
491.818
 11
702.645
 21
463.59
  0
CIRCLE
  8
Layer1
  6
CONTINUOUS
 62
7
 10
752.645
 20
478.707
 40
7
  0
CIRCLE
  8
Layer1
  6
CONTINUOUS
 62
7
 10
752.645
 20
478.707
 40
4.5
  0
LINE
  8
Layer1
  6
CENTER1
 62
7
 10
642.316
 20
478.707
 11
761.243
 21
478.707
  0
LINE
  8
Layer1
  6
CENTER1
 62
7
 10
752.645
 20
489.215
 11
752.645
 21
467.114
  0
LINE
  8
Layer1
  6
CONTINUOUS
 62
7
 10
639.145
 20
553.707
 11
640.145
 21
552.707
  0
LINE
  8
Layer1
  6
CENTER1
 62
7
 10
672.321
 20
496.207
 11
662.062
 21
496.207
  0
CIRCLE
  8
Layer1
  6
CONTINUOUS
 62
7
 10
668.145
 20
496.207
 40
1.25
  0
CIRCLE
  8
Layer1
  6
CONTINUOUS
 62
7
 10
668.145
 20
496.207
 40
2
  0
LINE
  8
Layer1
  6
CENTER1
 62
7
 10
641.638
 20
496.207
 11
658.04
 21
496.207
  0
LINE
  8
Layer1
  6
CONTINUOUS
 62
7
 10
646.976
 20
496.207
 11
641.638
 21
496.207
  0
LINE
  8
Layer1
  6
CENTER1
 62
7
 10
671.671
 20
496.207
 11
664.035
 21
496.207
  0
CIRCLE
  8
Layer1
  6
CONTINUOUS
 62
7
 10
668.145
 20
496.207
 40
1.25
  0
CIRCLE
  8
Layer1
  6
CONTINUOUS
 62
7
 10
668.145
 20
496.207
 40
2
  0
LINE
  8
Layer1
  6
CENTER1
 62
7
 10
641.638
 20
496.207
 11
658.04
 21
496.207
  0
LINE
  8
Layer1
  6
CENTER1
 62
7
 10
701.178
 20
496.207
 11
717.333
 21
496.207
  0
CIRCLE
  8
Layer1
  6
CONTINUOUS
 62
7
 10
649.645
 20
496.207
 40
6.5
  0
CIRCLE
  8
Layer1
  6
CONTINUOUS
 62
7
 10
709.645
 20
496.207
 40
6.5
  0
LINE
  8
Layer1
  6
CENTER1
 62
7
 10
671.671
 20
496.207
 11
688.981
 21
496.207
  0
CIRCLE
  8
Layer1
  6
CONTINUOUS
 62
7
 10
679.645
 20
496.207
 40
6.5
  0
LINE
  8
Layer1
  6
CENTER1
 62
7
 10
649.645
 20
487.399
 11
649.645
 21
504.015
  0
LINE
  8
Layer1
  6
CENTER1
 62
7
 10
679.645
 20
487.241
 11
679.645
 21
504.173
  0
LINE
  8
Layer1
  6
CENTER1
 62
7
 10
709.645
 20
487.592
 11
709.645
 21
504.116
  0
POLYLINE
  8
Layer1
  6
CONTINUOUS
 62
7
 66
1
 10
0
 20
0
 30
0
 70
1
  0
VERTEX
  8
Layer1
 10
709.645
 20
499.638
  0
VERTEX
  8
Layer1
 10
706.674
 20
497.923
  0
VERTEX
  8
Layer1
 10
706.674
 20
494.493
  0
VERTEX
  8
Layer1
 10
709.645
 20
492.778
  0
VERTEX
  8
Layer1
 10
712.615
 20
494.493
  0
VERTEX
  8
Layer1
 10
712.615
 20
497.923
  0
SEQEND
  0
CIRCLE
  8
Layer1
  6
CONTINUOUS
 62
7
 10
668.145
 20
561.207
 40
1.25
  0
CIRCLE
  8
Layer1
  6
CONTINUOUS
 62
7
 10
668.145
 20
561.207
 40
2
  0
LINE
  8
Layer1
  6
CENTER1
 62
7
 10
668.145
 20
565.322
 11
668.145
 21
556.749
  0
LINE
  8
Layer1
  6
CENTER1
 62
7
 10
709.645
 20
553.21
 11
709.645
 21
571.803
  0
LINE
  8
Layer1
  6
CENTER1
 62
7
 10
641.444
 20
561.207
 11
657.845
 21
561.207
  0
LINE
  8
Layer1
  6
CENTER1
 62
7
 10
701.178
 20
561.207
 11
717.333
 21
561.207
  0
LINE
  8
Layer1
  6
CENTER1
 62
7
 10
679.645
 20
553.523
 11
679.645
 21
572.118
  0
LINE
  8
Layer1
  6
CENTER1
 62
7
 10
649.645
 20
552.249
 11
649.645
 21
570.842
  0
CIRCLE
  8
Layer1
  6
CONTINUOUS
 62
7
 10
649.645
 20
561.207
 40
6.5
  0
CIRCLE
  8
Layer1
  6
CONTINUOUS
 62
7
 10
709.645
 20
561.207
 40
6.5
  0
LINE
  8
Layer1
  6
CENTER1
 62
7
 10
671.671
 20
561.207
 11
688.981
 21
561.207
  0
CIRCLE
  8
Layer1
  6
CONTINUOUS
 62
7
 10
679.645
 20
561.207
 40
6.5
  0
LINE
  8
Layer1
  6
CONTINUOUS
 62
7
 10
640.145
 20
240.98
 11
641.145
 21
239.98
  0
LINE
  8
Layer1
  6
CONTINUOUS
 62
7
 10
636.583
 20
309.98
 11
739.927
 21
309.98
  0
LINE
  8
Layer1
  6
CONTINUOUS
 62
7
 10
612.645
 20
260.98
 11
612.645
 21
308.98
  0
LINE
  8
Layer1
  6
CONTINUOUS
 62
7
 10
634.645
 20
259.98
 11
613.645
 21
259.98
  0
LINE
  8
Layer1
  6
CONTINUOUS
 62
7
 10
634.645
 20
309.98
 11
613.645
 21
309.98
  0
LINE
  8
Layer1
  6
CONTINUOUS
 62
7
 10
635.645
 20
308.98
 11
635.645
 21
305.48
  0
LINE
  8
Layer1
  6
CONTINUOUS
 62
7
 10
612.645
 20
308.98
 11
613.645
 21
309.98
  0
LINE
  8
Layer1
  6
CONTINUOUS
 62
7
 10
612.645
 20
260.98
 11
613.645
 21
259.98
  0
LINE
  8
Layer1
  6
CONTINUOUS
 62
7
 10
634.645
 20
259.98
 11
635.645
 21
260.98
  0
LINE
  8
Layer1
  6
CONTINUOUS
 62
7
 10
635.645
 20
260.98
 11
636.645
 21
259.98
  0
LINE
  8
Layer1
  6
CONTINUOUS
 62
7
 10
634.645
 20
309.98
 11
635.645
 21
308.98
  0
LINE
  8
Layer1
  6
CONTINUOUS
 62
7
 10
635.645
 20
308.98
 11
636.645
 21
309.98
  0
LINE
  8
Layer1
  6
CENTER1
 62
7
 10
666.255
 20
302.48
 11
605.757
 21
302.48
  0
LINE
  8
Layer1
  6
CENTER1
 62
7
 10
662.702
 20
267.48
 11
606.724
 21
267.48
  0
LINE
  8
Layer1
  6
CONTINUOUS
 62
7
 10
613.645
 20
298.48
 11
613.645
 21
306.48
  0
LINE
  8
Layer1
  6
CONTINUOUS
 62
7
 10
614.645
 20
307.48
 11
619.645
 21
307.48
  0
LINE
  8
Layer1
  6
CONTINUOUS
 62
7
 10
614.645
 20
297.48
 11
619.645
 21
297.48
  0
LINE
  8
Layer1
  6
CONTINUOUS
 62
7
 10
619.645
 20
307.98
 11
619.645
 21
296.98
  0
LINE
  8
Layer1
  6
DASHED1
 62
7
 10
652.645
 20
305.48
 11
638.394
 21
305.48
  0
LINE
  8
Layer1
  6
DASHED1
 62
7
 10
652.645
 20
299.48
 11
637.703
 21
299.48
  0
LINE
  8
Layer1
  6
CONTINUOUS
 62
7
 10
619.645
 20
304.98
 11
640.184
 21
304.98
  0
LINE
  8
Layer1
  6
CONTINUOUS
 62
7
 10
619.645
 20
299.98
 11
637.953
 21
299.98
  0
LINE
  8
Layer1
  6
CONTINUOUS
 62
7
 10
613.645
 20
298.48
 11
614.645
 21
297.48
  0
LINE
  8
Layer1
  6
CONTINUOUS
 62
7
 10
619.645
 20
307.98
 11
612.645
 21
307.98
  0
LINE
  8
Layer1
  6
CONTINUOUS
 62
7
 10
619.645
 20
296.98
 11
612.645
 21
296.98
  0
LINE
  8
Layer1
  6
CONTINUOUS
 62
7
 10
614.645
 20
307.48
 11
614.645
 21
297.48
  0
POLYLINE
  8
Layer1
  6
CONTINUOUS
 62
7
 66
1
 10
0
 20
0
 30
0
  0
VERTEX
  8
Layer1
 10
638.264
 20
309.98
  0
VERTEX
  8
Layer1
 10
638.272
 20
309.66
  0
VERTEX
  8
Layer1
 10
638.28
 20
309.339
  0
VERTEX
  8
Layer1
 10
638.288
 20
309.017
  0
VERTEX
  8
Layer1
 10
638.296
 20
308.695
  0
VERTEX
  8
Layer1
 10
638.305
 20
308.37
  0
VERTEX
  8
Layer1
 10
638.313
 20
308.043
  0
VERTEX
  8
Layer1
 10
638.322
 20
307.714
  0
VERTEX
  8
Layer1
 10
638.332
 20
307.382
  0
VERTEX
  8
Layer1
 10
638.342
 20
307.046
  0
VERTEX
  8
Layer1
 10
638.353
 20
306.705
  0
VERTEX
  8
Layer1
 10
638.364
 20
306.36
  0
VERTEX
  8
Layer1
 10
638.376
 20
306.01
  0
VERTEX
  8
Layer1
 10
638.389
 20
305.654
  0
VERTEX
  8
Layer1
 10
638.403
 20
305.293
  0
VERTEX
  8
Layer1
 10
638.417
 20
304.926
  0
VERTEX
  8
Layer1
 10
638.431
 20
304.553
  0
VERTEX
  8
Layer1
 10
638.444
 20
304.177
  0
VERTEX
  8
Layer1
 10
638.454
 20
303.798
  0
VERTEX
  8
Layer1
 10
638.459
 20
303.42
  0
VERTEX
  8
Layer1
 10
638.459
 20
303.041
  0
VERTEX
  8
Layer1
 10
638.451
 20
302.666
  0
VERTEX
  8
Layer1
 10
638.435
 20
302.296
  0
VERTEX
  8
Layer1
 10
638.41
 20
301.93
  0
VERTEX
  8
Layer1
 10
638.373
 20
301.572
  0
VERTEX
  8
Layer1
 10
638.324
 20
301.224
  0
VERTEX
  8
Layer1
 10
638.26
 20
300.886
  0
VERTEX
  8
Layer1
 10
638.182
 20
300.559
  0
VERTEX
  8
Layer1
 10
638.087
 20
300.245
  0
VERTEX
  8
Layer1
 10
637.973
 20
299.947
  0
VERTEX
  8
Layer1
 10
637.841
 20
299.666
  0
VERTEX
  8
Layer1
 10
637.687
 20
299.404
  0
VERTEX
  8
Layer1
 10
637.512
 20
299.16
  0
VERTEX
  8
Layer1
 10
637.313
 20
298.938
  0
VERTEX
  8
Layer1
 10
637.089
 20
298.738
  0
VERTEX
  8
Layer1
 10
636.84
 20
298.562
  0
VERTEX
  8
Layer1
 10
636.57
 20
298.404
  0
VERTEX
  8
Layer1
 10
636.281
 20
298.262
  0
VERTEX
  8
Layer1
 10
635.977
 20
298.132
  0
VERTEX
  8
Layer1
 10
635.661
 20
298.01
  0
VERTEX
  8
Layer1
 10
635.337
 20
297.89
  0
VERTEX
  8
Layer1
 10
635.009
 20
297.771
  0
VERTEX
  8
Layer1
 10
634.678
 20
297.647
  0
VERTEX
  8
Layer1
 10
634.349
 20
297.515
  0
VERTEX
  8
Layer1
 10
634.026
 20
297.37
  0
VERTEX
  8
Layer1
 10
633.711
 20
297.211
  0
VERTEX
  8
Layer1
 10
633.404
 20
297.035
  0
VERTEX
  8
Layer1
 10
633.107
 20
296.846
  0
VERTEX
  8
Layer1
 10
632.816
 20
296.646
  0
VERTEX
  8
Layer1
 10
632.531
 20
296.438
  0
VERTEX
  8
Layer1
 10
632.252
 20
296.224
  0
VERTEX
  8
Layer1
 10
631.976
 20
296.005
  0
VERTEX
  8
Layer1
 10
631.704
 20
295.786
  0
VERTEX
  8
Layer1
 10
631.434
 20
295.571
  0
VERTEX
  8
Layer1
 10
631.165
 20
295.358
  0
VERTEX
  8
Layer1
 10
630.896
 20
295.152
  0
VERTEX
  8
Layer1
 10
630.626
 20
294.955
  0
VERTEX
  8
Layer1
 10
630.354
 20
294.769
  0
VERTEX
  8
Layer1
 10
630.079
 20
294.599
  0
VERTEX
  8
Layer1
 10
629.8
 20
294.444
  0
VERTEX
  8
Layer1
 10
629.517
 20
294.309
  0
VERTEX
  8
Layer1
 10
629.227
 20
294.196
  0
VERTEX
  8
Layer1
 10
628.93
 20
294.106
  0
VERTEX
  8
Layer1
 10
628.625
 20
294.043
  0
VERTEX
  8
Layer1
 10
628.313
 20
294.005
  0
VERTEX
  8
Layer1
 10
627.994
 20
293.99
  0
VERTEX
  8
Layer1
 10
627.668
 20
293.993
  0
VERTEX
  8
Layer1
 10
627.338
 20
294.012
  0
VERTEX
  8
Layer1
 10
627.002
 20
294.043
  0
VERTEX
  8
Layer1
 10
626.664
 20
294.084
  0
VERTEX
  8
Layer1
 10
626.322
 20
294.132
  0
VERTEX
  8
Layer1
 10
625.978
 20
294.184
  0
VERTEX
  8
Layer1
 10
625.633
 20
294.235
  0
VERTEX
  8
Layer1
 10
625.288
 20
294.284
  0
VERTEX
  8
Layer1
 10
624.943
 20
294.327
  0
VERTEX
  8
Layer1
 10
624.6
 20
294.36
  0
VERTEX
  8
Layer1
 10
624.258
 20
294.382
  0
VERTEX
  8
Layer1
 10
623.92
 20
294.387
  0
VERTEX
  8
Layer1
 10
623.584
 20
294.375
  0
VERTEX
  8
Layer1
 10
623.254
 20
294.343
  0
VERTEX
  8
Layer1
 10
622.927
 20
294.291
  0
VERTEX
  8
Layer1
 10
622.603
 20
294.223
  0
VERTEX
  8
Layer1
 10
622.283
 20
294.137
  0
VERTEX
  8
Layer1
 10
621.966
 20
294.04
  0
VERTEX
  8
Layer1
 10
621.651
 20
293.928
  0
VERTEX
  8
Layer1
 10
621.338
 20
293.808
  0
VERTEX
  8
Layer1
 10
621.027
 20
293.678
  0
VERTEX
  8
Layer1
 10
620.717
 20
293.54
  0
VERTEX
  8
Layer1
 10
620.409
 20
293.397
  0
VERTEX
  8
Layer1
 10
620.101
 20
293.25
  0
VERTEX
  8
Layer1
 10
619.794
 20
293.101
  0
VERTEX
  8
Layer1
 10
619.486
 20
292.951
  0
VERTEX
  8
Layer1
 10
619.178
 20
292.802
  0
VERTEX
  8
Layer1
 10
618.869
 20
292.656
  0
VERTEX
  8
Layer1
 10
618.559
 20
292.515
  0
VERTEX
  8
Layer1
 10
618.248
 20
292.38
  0
VERTEX
  8
Layer1
 10
617.935
 20
292.252
  0
VERTEX
  8
Layer1
 10
617.62
 20
292.134
  0
VERTEX
  8
Layer1
 10
617.302
 20
292.027
  0
VERTEX
  8
Layer1
 10
616.981
 20
291.933
  0
VERTEX
  8
Layer1
 10
616.658
 20
291.85
  0
VERTEX
  8
Layer1
 10
616.332
 20
291.778
  0
VERTEX
  8
Layer1
 10
616.004
 20
291.716
  0
VERTEX
  8
Layer1
 10
615.674
 20
291.663
  0
VERTEX
  8
Layer1
 10
615.342
 20
291.618
  0
VERTEX
  8
Layer1
 10
615.009
 20
291.581
  0
VERTEX
  8
Layer1
 10
614.673
 20
291.55
  0
VERTEX
  8
Layer1
 10
614.337
 20
291.524
  0
VERTEX
  8
Layer1
 10
614
 20
291.503
  0
VERTEX
  8
Layer1
 10
613.662
 20
291.486
  0
VERTEX
  8
Layer1
 10
613.323
 20
291.471
  0
VERTEX
  8
Layer1
 10
612.984
 20
291.457
  0
VERTEX
  8
Layer1
 10
612.645
 20
291.446
  0
SEQEND
  0
LINE
  8
Layer1
  6
CONTINUOUS
 62
7
 10
635.645
 20
299.48
 11
635.645
 21
260.98
  0
LINE
  8
Layer1
  6
CONTINUOUS
 62
7
 10
640.207
 20
309
 11
641.187
 21
309.98
  0
LINE
  8
Layer1
  6
CONTINUOUS
 62
7
 10
638.394
 20
305.48
 11
619.645
 21
305.48
  0
LINE
  8
Layer1
  6
DASHED1
 62
7
 10
640.184
 20
304.98
 11
653.145
 21
304.98
  0
LINE
  8
Layer1
  6
DASHED1
 62
7
 10
637.953
 20
299.98
 11
653.145
 21
299.98
  0
LINE
  8
Layer1
  6
CONTINUOUS
 62
7
 10
637.703
 20
299.48
 11
619.645
 21
299.48
  0
LINE
  8
Layer1
  6
CONTINUOUS
 62
7
 10
614.645
 20
307.48
 11
619.645
 21
307.48
  0
LINE
  8
Layer1
  6
CONTINUOUS
 62
7
 10
613.645
 20
306.48
 11
614.645
 21
307.48
  0
LINE
  8
Layer1
  6
CONTINUOUS
 62
7
 10
619.645
 20
307.48
 11
614.645
 21
307.48
  0
LINE
  8
Layer1
  6
CONTINUOUS
 62
7
 10
619.395
 20
306.98
 11
614.895
 21
306.98
  0
LINE
  8
Layer1
  6
CONTINUOUS
 62
7
 10
618.895
 20
305.98
 11
615.395
 21
305.98
  0
LINE
  8
Layer1
  6
CONTINUOUS
 62
7
 10
618.395
 20
304.98
 11
615.895
 21
304.98
  0
LINE
  8
Layer1
  6
CONTINUOUS
 62
7
 10
640.126
 20
258.98
 11
641.125
 21
257.98
  0
LINE
  8
Layer1
  6
CONTINUOUS
 62
7
 10
641.145
 20
258.011
 11
640.145
 21
257.011
  0
LINE
  8
Layer1
  6
PHANTOM1
 62
7
 10
587.645
 20
260.98
 11
587.645
 21
308.98
  0
LINE
  8
Layer1
  6
PHANTOM1
 62
7
 10
609.645
 20
259.98
 11
588.645
 21
259.98
  0
LINE
  8
Layer1
  6
PHANTOM1
 62
7
 10
609.645
 20
309.98
 11
588.645
 21
309.98
  0
LINE
  8
Layer1
  6
PHANTOM1
 62
7
 10
587.645
 20
308.98
 11
588.645
 21
309.98
  0
LINE
  8
Layer1
  6
PHANTOM1
 62
7
 10
587.645
 20
260.98
 11
588.645
 21
259.98
  0
LINE
  8
Layer1
  6
PHANTOM1
 62
7
 10
610.645
 20
260.98
 11
610.645
 21
308.98
  0
LINE
  8
Layer1
  6
PHANTOM1
 62
7
 10
610.645
 20
308.98
 11
609.645
 21
309.98
  0
LINE
  8
Layer1
  6
PHANTOM1
 62
7
 10
610.645
 20
260.98
 11
609.645
 21
259.98
  0
LINE
  8
Layer1
  6
CONTINUOUS
 62
7
 10
587.645
 20
256.98
 11
587.645
 21
237.98
  0
LINE
  8
Layer1
  6
CONTINUOUS
 62
7
 10
612.645
 20
256.98
 11
612.645
 21
237.98
  0
TEXT
  8
Layer1
 62
7
 10
624.145
 20
333.004
 72
1
 11
624.145
 21
333.004
 40
4
 41
1
  1
 23 
  0
TEXT
  8
Layer1
 62
7
 10
648.797
 20
333.644
 72
1
 11
648.797
 21
333.644
 40
4
 41
1
  1
 4.5 
  0
LINE
  8
Layer1
  6
CONTINUOUS
 62
7
 10
635.645
 20
308.98
 11
635.645
 21
335.004
  0
LINE
  8
Layer1
  6
CONTINUOUS
 62
7
 10
612.645
 20
308.98
 11
612.645
 21
335.004
  0
POLYLINE
  8
Layer1
  6
CONTINUOUS
 62
7
 66
1
 10
0
 20
0
 30
0
  0
VERTEX
  8
Layer1
 10
635.645
 20
333.004
  0
VERTEX
  8
Layer1
 10
612.645
 20
333.004
  0
SEQEND
  0
POLYLINE
  8
Layer1
  6
CONTINUOUS
 62
7
 66
1
 10
0
 20
0
 30
0
  0
VERTEX
  8
Layer1
 10
633.713
 20
333.521
  0
VERTEX
  8
Layer1
 10
635.645
 20
333.004
  0
VERTEX
  8
Layer1
 10
633.713
 20
332.486
  0
SEQEND
  0
POLYLINE
  8
Layer1
  6
CONTINUOUS
 62
7
 66
1
 10
0
 20
0
 30
0
  0
VERTEX
  8
Layer1
 10
614.577
 20
332.486
  0
VERTEX
  8
Layer1
 10
612.645
 20
333.004
  0
VERTEX
  8
Layer1
 10
614.577
 20
333.521
  0
SEQEND
  0
POLYLINE
  8
Layer1
  6
CONTINUOUS
 62
7
 66
1
 10
0
 20
0
 30
0
  0
VERTEX
  8
Layer1
 10
650.186
 20
333.004
  0
VERTEX
  8
Layer1
 10
640.186
 20
333.004
  0
SEQEND
  0
POLYLINE
  8
Layer1
  6
CONTINUOUS
 62
7
 66
1
 10
0
 20
0
 30
0
  0
VERTEX
  8
Layer1
 10
642.118
 20
332.486
  0
VERTEX
  8
Layer1
 10
640.186
 20
333.004
  0
VERTEX
  8
Layer1
 10
642.118
 20
333.521
  0
SEQEND
  0
LINE
  8
Layer1
  6
CONTINUOUS
 62
7
 10
640.187
 20
333.004
 11
635.645
 21
333.004
  0
LINE
  8
Layer1
  6
CONTINUOUS
 62
7
 10
640.145
 20
240.98
 11
640.145
 21
309
  0
LINE
  8
Layer1
  6
CONTINUOUS
 62
7
 10
640.145
 20
321.199
 11
640.145
 21
334.762
  0
LINE
  8
Layer1
  6
CONTINUOUS
 62
7
 10
348.442
 20
240.98
 11
348.442
 21
255.98
  0
LINE
  8
Layer1
  6
CONTINUOUS
 62
7
 10
468.442
 20
240.98
 11
468.442
 21
255.98
  0
LINE
  8
Layer1
  6
CONTINUOUS
 62
7
 10
368.942
 20
309.98
 11
383.942
 21
309.98
  0
LINE
  8
Layer1
  6
CENTER1
 62
7
 10
408.442
 20
392.457
 11
408.442
 21
237.911
  0
LINE
  8
Layer1
  6
CONTINUOUS
 62
7
 10
449.443
 20
308.98
 11
449.453
 21
262.653
  0
LINE
  8
Layer1
  6
CONTINUOUS
 62
7
 10
447.942
 20
309.98
 11
432.942
 21
309.98
  0
LINE
  8
Layer1
  6
CONTINUOUS
 62
7
 10
350.442
 20
257.98
 11
362.442
 21
257.98
  0
LINE
  8
Layer1
  6
CONTINUOUS
 62
7
 10
454.442
 20
257.98
 11
466.442
 21
257.98
  0
POLYLINE
  8
Layer1
  6
CONTINUOUS
 62
7
 66
1
 10
0
 20
0
 30
0
  0
VERTEX
  8
Layer1
 10
362.442
 20
257.98
  0
VERTEX
  8
Layer1
 10
362.606
 20
257.981
  0
VERTEX
  8
Layer1
 10
362.769
 20
257.99
  0
VERTEX
  8
Layer1
 10
362.932
 20
258.004
  0
VERTEX
  8
Layer1
 10
363.095
 20
258.022
  0
VERTEX
  8
Layer1
 10
363.257
 20
258.047
  0
VERTEX
  8
Layer1
 10
363.417
 20
258.076
  0
VERTEX
  8
Layer1
 10
363.577
 20
258.11
  0
VERTEX
  8
Layer1
 10
363.736
 20
258.149
  0
VERTEX
  8
Layer1
 10
363.893
 20
258.195
  0
VERTEX
  8
Layer1
 10
364.049
 20
258.245
  0
VERTEX
  8
Layer1
 10
364.203
 20
258.3
  0
VERTEX
  8
Layer1
 10
364.355
 20
258.36
  0
VERTEX
  8
Layer1
 10
364.506
 20
258.425
  0
VERTEX
  8
Layer1
 10
364.653
 20
258.495
  0
VERTEX
  8
Layer1
 10
364.799
 20
258.57
  0
VERTEX
  8
Layer1
 10
364.942
 20
258.649
  0
VERTEX
  8
Layer1
 10
365.082
 20
258.733
  0
VERTEX
  8
Layer1
 10
365.22
 20
258.822
  0
VERTEX
  8
Layer1
 10
365.354
 20
258.915
  0
VERTEX
  8
Layer1
 10
365.486
 20
259.012
  0
VERTEX
  8
Layer1
 10
365.614
 20
259.115
  0
VERTEX
  8
Layer1
 10
365.739
 20
259.221
  0
VERTEX
  8
Layer1
 10
365.86
 20
259.33
  0
VERTEX
  8
Layer1
 10
365.978
 20
259.444
  0
VERTEX
  8
Layer1
 10
366.091
 20
259.562
  0
VERTEX
  8
Layer1
 10
366.201
 20
259.683
  0
VERTEX
  8
Layer1
 10
366.307
 20
259.808
  0
VERTEX
  8
Layer1
 10
366.409
 20
259.935
  0
VERTEX
  8
Layer1
 10
366.506
 20
260.067
  0
VERTEX
  8
Layer1
 10
366.599
 20
260.202
  0
VERTEX
  8
Layer1
 10
366.688
 20
260.339
  0
VERTEX
  8
Layer1
 10
366.772
 20
260.48
  0
VERTEX
  8
Layer1
 10
366.852
 20
260.623
  0
VERTEX
  8
Layer1
 10
366.926
 20
260.767
  0
VERTEX
  8
Layer1
 10
366.996
 20
260.916
  0
VERTEX
  8
Layer1
 10
367.061
 20
261.065
  0
VERTEX
  8
Layer1
 10
367.122
 20
261.218
  0
VERTEX
  8
Layer1
 10
367.177
 20
261.373
  0
VERTEX
  8
Layer1
 10
367.227
 20
261.528
  0
VERTEX
  8
Layer1
 10
367.272
 20
261.685
  0
VERTEX
  8
Layer1
 10
367.311
 20
261.844
  0
VERTEX
  8
Layer1
 10
367.346
 20
262.004
  0
VERTEX
  8
Layer1
 10
367.375
 20
262.165
  0
VERTEX
  8
Layer1
 10
367.399
 20
262.327
  0
VERTEX
  8
Layer1
 10
367.418
 20
262.49
  0
VERTEX
  8
Layer1
 10
367.431
 20
262.653
  0
VERTEX
  8
Layer1
 10
367.439
 20
262.815
  0
VERTEX
  8
Layer1
 10
367.442
 20
262.98
  0
SEQEND
  0
POLYLINE
  8
Layer1
  6
CONTINUOUS
 62
7
 66
1
 10
0
 20
0
 30
0
  0
VERTEX
  8
Layer1
 10
449.442
 20
262.98
  0
VERTEX
  8
Layer1
 10
449.445
 20
262.815
  0
VERTEX
  8
Layer1
 10
449.453
 20
262.653
  0
VERTEX
  8
Layer1
 10
449.466
 20
262.49
  0
VERTEX
  8
Layer1
 10
449.485
 20
262.327
  0
VERTEX
  8
Layer1
 10
449.509
 20
262.165
  0
VERTEX
  8
Layer1
 10
449.538
 20
262.004
  0
VERTEX
  8
Layer1
 10
449.573
 20
261.844
  0
VERTEX
  8
Layer1
 10
449.612
 20
261.685
  0
VERTEX
  8
Layer1
 10
449.657
 20
261.528
  0
VERTEX
  8
Layer1
 10
449.707
 20
261.373
  0
VERTEX
  8
Layer1
 10
449.763
 20
261.218
  0
VERTEX
  8
Layer1
 10
449.823
 20
261.065
  0
VERTEX
  8
Layer1
 10
449.888
 20
260.916
  0
VERTEX
  8
Layer1
 10
449.958
 20
260.767
  0
VERTEX
  8
Layer1
 10
450.032
 20
260.623
  0
VERTEX
  8
Layer1
 10
450.112
 20
260.48
  0
VERTEX
  8
Layer1
 10
450.196
 20
260.339
  0
VERTEX
  8
Layer1
 10
450.285
 20
260.202
  0
VERTEX
  8
Layer1
 10
450.378
 20
260.067
  0
VERTEX
  8
Layer1
 10
450.475
 20
259.935
  0
VERTEX
  8
Layer1
 10
450.577
 20
259.808
  0
VERTEX
  8
Layer1
 10
450.683
 20
259.683
  0
VERTEX
  8
Layer1
 10
450.793
 20
259.562
  0
VERTEX
  8
Layer1
 10
450.907
 20
259.444
  0
VERTEX
  8
Layer1
 10
451.024
 20
259.33
  0
VERTEX
  8
Layer1
 10
451.145
 20
259.221
  0
VERTEX
  8
Layer1
 10
451.27
 20
259.115
  0
VERTEX
  8
Layer1
 10
451.398
 20
259.012
  0
VERTEX
  8
Layer1
 10
451.53
 20
258.915
  0
VERTEX
  8
Layer1
 10
451.664
 20
258.822
  0
VERTEX
  8
Layer1
 10
451.802
 20
258.733
  0
VERTEX
  8
Layer1
 10
451.942
 20
258.649
  0
VERTEX
  8
Layer1
 10
452.085
 20
258.57
  0
VERTEX
  8
Layer1
 10
452.231
 20
258.495
  0
VERTEX
  8
Layer1
 10
452.379
 20
258.425
  0
VERTEX
  8
Layer1
 10
452.529
 20
258.36
  0
VERTEX
  8
Layer1
 10
452.681
 20
258.3
  0
VERTEX
  8
Layer1
 10
452.835
 20
258.245
  0
VERTEX
  8
Layer1
 10
452.991
 20
258.195
  0
VERTEX
  8
Layer1
 10
453.148
 20
258.149
  0
VERTEX
  8
Layer1
 10
453.307
 20
258.11
  0
VERTEX
  8
Layer1
 10
453.467
 20
258.076
  0
VERTEX
  8
Layer1
 10
453.628
 20
258.047
  0
VERTEX
  8
Layer1
 10
453.789
 20
258.022
  0
VERTEX
  8
Layer1
 10
453.952
 20
258.004
  0
VERTEX
  8
Layer1
 10
454.115
 20
257.99
  0
VERTEX
  8
Layer1
 10
454.278
 20
257.981
  0
VERTEX
  8
Layer1
 10
454.442
 20
257.98
  0
SEQEND
  0
ARC
  8
Layer1
  6
CONTINUOUS
 62
7
 10
350.442
 20
255.98
 40
2
 50
90
 51
180
  0
ARC
  8
Layer1
  6
CONTINUOUS
 62
7
 10
466.442
 20
255.98
 40
2
 50
0
 51
90
  0
LINE
  8
Layer1
  6
DASHED1
 62
7
 10
418.442
 20
240.779
 11
418.442
 21
258.779
  0
LINE
  8
Layer1
  6
DASHED1
 62
7
 10
398.442
 20
240.779
 11
398.442
 21
258.779
  0
LINE
  8
Layer1
  6
CENTER1
 62
7
 10
358.442
 20
264.004
 11
358.442
 21
235.023
  0
LINE
  8
Layer1
  6
CENTER1
 62
7
 10
458.442
 20
263.004
 11
458.442
 21
234.229
  0
LINE
  8
Layer1
  6
CENTER1
 62
7
 10
400.512
 20
250.48
 11
416.418
 21
250.48
  0
CIRCLE
  8
Layer1
  6
CONTINUOUS
 62
7
 10
408.442
 20
250.48
 40
4
  0
LINE
  8
Layer1
  6
CONTINUOUS
 62
7
 10
419.442
 20
239.98
 11
427.81
 21
239.98
  0
LINE
  8
Layer1
  6
CONTINUOUS
 62
7
 10
397.442
 20
239.98
 11
389.586
 21
239.98
  0
LINE
  8
Layer1
  6
CONTINUOUS
 62
7
 10
418.442
 20
240.98
 11
419.442
 21
239.98
  0
LINE
  8
Layer1
  6
CONTINUOUS
 62
7
 10
398.442
 20
240.98
 11
397.442
 21
239.98
  0
LINE
  8
Layer1
  6
CONTINUOUS
 62
7
 10
348.442
 20
240.98
 11
349.442
 21
239.98
  0
LINE
  8
Layer1
  6
CONTINUOUS
 62
7
 10
467.442
 20
239.98
 11
468.442
 21
240.98
  0
CIRCLE
  8
Layer1
  6
CONTINUOUS
 62
7
 10
408.442
 20
250.48
 40
5
  0
LINE
  8
Layer1
  6
CONTINUOUS
 62
7
 10
367.442
 20
308.98
 11
367.442
 21
262.98
  0
LINE
  8
Layer1
  6
CONTINUOUS
 62
7
 10
417.316
 20
239.98
 11
434.919
 21
239.98
  0
LINE
  8
Layer1
  6
CONTINUOUS
 62
7
 10
384.442
 20
259.98
 11
432.442
 21
259.98
  0
LINE
  8
Layer1
  6
CONTINUOUS
 62
7
 10
447.942
 20
321.98
 11
447.942
 21
310.279
  0
LINE
  8
Layer1
  6
CONTINUOUS
 62
7
 10
368.942
 20
321.98
 11
368.942
 21
310.279
  0
LINE
  8
Layer1
  6
CONTINUOUS
 62
7
 10
447.942
 20
310.48
 11
447.442
 21
309.98
  0
LINE
  8
Layer1
  6
CONTINUOUS
 62
7
 10
369.442
 20
309.98
 11
368.942
 21
310.48
  0
LINE
  8
Layer1
  6
CONTINUOUS
 62
7
 10
369.942
 20
322.98
 11
368.942
 21
321.98
  0
LINE
  8
Layer1
  6
CONTINUOUS
 62
7
 10
446.942
 20
322.98
 11
447.942
 21
321.98
  0
LINE
  8
Layer1
  6
DASHED1
 62
7
 10
443.958
 20
322.98
 11
443.942
 21
322.963
  0
LINE
  8
Layer1
  6
CONTINUOUS
 62
7
 10
368.442
 20
309.98
 11
447.442
 21
309.98
  0
LINE
  8
Layer1
  6
CONTINUOUS
 62
7
 10
446.942
 20
322.98
 11
369.942
 21
322.98
  0
CIRCLE
  8
Layer1
  6
CONTINUOUS
 62
7
 10
390.942
 20
302.48
 40
4
  0
CIRCLE
  8
Layer1
  6
CONTINUOUS
 62
7
 10
425.942
 20
302.48
 40
4
  0
POLYLINE
  8
Layer1
  6
CONTINUOUS
 62
7
 66
1
 10
0
 20
0
 30
0
 70
1
  0
VERTEX
  8
Layer1
 10
430.742
 20
267.48
  0
VERTEX
  8
Layer1
 10
430.701
 20
268.106
  0
VERTEX
  8
Layer1
 10
430.578
 20
268.721
  0
VERTEX
  8
Layer1
 10
430.377
 20
269.317
  0
VERTEX
  8
Layer1
 10
430.099
 20
269.88
  0
VERTEX
  8
Layer1
 10
429.75
 20
270.402
  0
VERTEX
  8
Layer1
 10
429.336
 20
270.874
  0
VERTEX
  8
Layer1
 10
428.864
 20
271.288
  0
VERTEX
  8
Layer1
 10
428.342
 20
271.637
  0
VERTEX
  8
Layer1
 10
427.779
 20
271.914
  0
VERTEX
  8
Layer1
 10
427.184
 20
272.116
  0
VERTEX
  8
Layer1
 10
426.569
 20
272.238
  0
VERTEX
  8
Layer1
 10
425.942
 20
272.279
  0
VERTEX
  8
Layer1
 10
425.316
 20
272.238
  0
VERTEX
  8
Layer1
 10
424.7
 20
272.116
  0
VERTEX
  8
Layer1
 10
424.105
 20
271.914
  0
VERTEX
  8
Layer1
 10
423.542
 20
271.637
  0
VERTEX
  8
Layer1
 10
423.02
 20
271.288
  0
VERTEX
  8
Layer1
 10
422.548
 20
270.874
  0
VERTEX
  8
Layer1
 10
422.134
 20
270.402
  0
VERTEX
  8
Layer1
 10
421.785
 20
269.88
  0
VERTEX
  8
Layer1
 10
421.507
 20
269.317
  0
VERTEX
  8
Layer1
 10
421.306
 20
268.721
  0
VERTEX
  8
Layer1
 10
421.183
 20
268.106
  0
VERTEX
  8
Layer1
 10
421.142
 20
267.48
  0
VERTEX
  8
Layer1
 10
421.183
 20
266.853
  0
VERTEX
  8
Layer1
 10
421.306
 20
266.237
  0
VERTEX
  8
Layer1
 10
421.507
 20
265.642
  0
VERTEX
  8
Layer1
 10
421.785
 20
265.08
  0
VERTEX
  8
Layer1
 10
422.134
 20
264.558
  0
VERTEX
  8
Layer1
 10
422.548
 20
264.086
  0
VERTEX
  8
Layer1
 10
423.02
 20
263.672
  0
VERTEX
  8
Layer1
 10
423.542
 20
263.322
  0
VERTEX
  8
Layer1
 10
424.105
 20
263.045
  0
VERTEX
  8
Layer1
 10
424.7
 20
262.843
  0
VERTEX
  8
Layer1
 10
425.316
 20
262.721
  0
VERTEX
  8
Layer1
 10
425.942
 20
262.68
  0
VERTEX
  8
Layer1
 10
426.569
 20
262.721
  0
VERTEX
  8
Layer1
 10
427.184
 20
262.843
  0
VERTEX
  8
Layer1
 10
427.779
 20
263.045
  0
VERTEX
  8
Layer1
 10
428.342
 20
263.322
  0
VERTEX
  8
Layer1
 10
428.864
 20
263.672
  0
VERTEX
  8
Layer1
 10
429.336
 20
264.086
  0
VERTEX
  8
Layer1
 10
429.75
 20
264.558
  0
VERTEX
  8
Layer1
 10
430.099
 20
265.08
  0
VERTEX
  8
Layer1
 10
430.377
 20
265.642
  0
VERTEX
  8
Layer1
 10
430.578
 20
266.237
  0
VERTEX
  8
Layer1
 10
430.701
 20
266.853
  0
SEQEND
  0
LINE
  8
Layer1
  6
CENTER1
 62
7
 10
361.982
 20
284.98
 11
457.972
 21
284.98
  0
LINE
  8
Layer1
  6
CONTINUOUS
 62
7
 10
367.442
 20
383.98
 11
367.442
 21
370.98
  0
LINE
  8
Layer1
  6
CONTINUOUS
 62
7
 10
449.442
 20
383.98
 11
449.442
 21
370.98
  0
LINE
  8
Layer1
  6
CONTINUOUS
 62
7
 10
369.442
 20
368.98
 11
381.942
 21
368.98
  0
LINE
  8
Layer1
  6
CONTINUOUS
 62
7
 10
448.442
 20
384.98
 11
368.442
 21
384.98
  0
LINE
  8
Layer1
  6
DASHED1
 62
7
 10
432.942
 20
296.38
 11
432.942
 21
322.98
  0
LINE
  8
Layer1
  6
CONTINUOUS
 62
7
 10
434.942
 20
368.98
 11
447.442
 21
368.98
  0
ARC
  8
Layer1
  6
CONTINUOUS
 62
7
 10
369.442
 20
370.98
 40
2
 50
180
 51
270
  0
ARC
  8
Layer1
  6
CONTINUOUS
 62
7
 10
447.442
 20
370.98
 40
2
 50
270
 51
0
  0
LINE
  8
Layer1
  6
CONTINUOUS
 62
7
 10
367.442
 20
383.98
 11
368.442
 21
384.98
  0
LINE
  8
Layer1
  6
CONTINUOUS
 62
7
 10
448.442
 20
384.98
 11
449.442
 21
383.98
  0
LINE
  8
Layer1
  6
DASHED1
 62
7
 10
383.942
 20
296.38
 11
385.342
 21
294.98
  0
LINE
  8
Layer1
  6
DASHED1
 62
7
 10
431.542
 20
294.98
 11
432.942
 21
296.38
  0
ARC
  8
Layer1
  6
CONTINUOUS
 62
7
 10
381.942
 20
366.98
 40
2
 50
0
 51
90
  0
ARC
  8
Layer1
  6
CONTINUOUS
 62
7
 10
434.942
 20
366.98
 40
2
 50
90
 51
180
  0
LINE
  8
Layer1
  6
CONTINUOUS
 62
7
 10
432.942
 20
322.98
 11
432.942
 21
366.98
  0
LINE
  8
Layer1
  6
DASHED1
 62
7
 10
383.942
 20
296.38
 11
383.942
 21
322.98
  0
LINE
  8
Layer1
  6
CONTINUOUS
 62
7
 10
383.942
 20
322.98
 11
383.942
 21
366.98
  0
LINE
  8
Layer1
  6
CONTINUOUS
 62
7
 10
404.577
 20
329.73
 11
412.422
 21
329.73
  0
LINE
  8
Layer1
  6
CONTINUOUS
 62
7
 10
404.249
 20
329.127
 11
412.724
 21
329.127
  0
LINE
  8
Layer1
  6
CONTINUOUS
 62
7
 10
404.154
 20
325.748
 11
412.603
 21
325.748
  0
LINE
  8
Layer1
  6
CONTINUOUS
 62
7
 10
413.327
 20
325.023
 11
403.43
 21
325.023
  0
LINE
  8
Layer1
  6
CONTINUOUS
 62
7
 10
413.327
 20
325.023
 11
413.327
 21
323.153
  0
LINE
  8
Layer1
  6
CONTINUOUS
 62
7
 10
403.43
 20
325.023
 11
403.43
 21
323.153
  0
POLYLINE
  8
Layer1
  6
CONTINUOUS
 62
7
 66
1
 10
0
 20
0
 30
0
  0
VERTEX
  8
Layer1
 10
408.372
 20
326.944
  0
VERTEX
  8
Layer1
 10
408.306
 20
327
  0
VERTEX
  8
Layer1
 10
408.24
 20
327.055
  0
VERTEX
  8
Layer1
 10
408.171
 20
327.11
  0
VERTEX
  8
Layer1
 10
408.102
 20
327.161
  0
VERTEX
  8
Layer1
 10
408.031
 20
327.211
  0
VERTEX
  8
Layer1
 10
407.959
 20
327.26
  0
VERTEX
  8
Layer1
 10
407.886
 20
327.305
  0
VERTEX
  8
Layer1
 10
407.811
 20
327.35
  0
VERTEX
  8
Layer1
 10
407.735
 20
327.392
  0
VERTEX
  8
Layer1
 10
407.659
 20
327.433
  0
VERTEX
  8
Layer1
 10
407.581
 20
327.471
  0
VERTEX
  8
Layer1
 10
407.502
 20
327.507
  0
VERTEX
  8
Layer1
 10
407.423
 20
327.541
  0
VERTEX
  8
Layer1
 10
407.342
 20
327.574
  0
VERTEX
  8
Layer1
 10
407.261
 20
327.605
  0
VERTEX
  8
Layer1
 10
407.179
 20
327.632
  0
VERTEX
  8
Layer1
 10
407.096
 20
327.659
  0
VERTEX
  8
Layer1
 10
407.013
 20
327.682
  0
VERTEX
  8
Layer1
 10
406.929
 20
327.704
  0
VERTEX
  8
Layer1
 10
406.844
 20
327.723
  0
VERTEX
  8
Layer1
 10
406.759
 20
327.741
  0
VERTEX
  8
Layer1
 10
406.674
 20
327.755
  0
VERTEX
  8
Layer1
 10
406.588
 20
327.769
  0
VERTEX
  8
Layer1
 10
406.502
 20
327.779
  0
VERTEX
  8
Layer1
 10
406.416
 20
327.788
  0
VERTEX
  8
Layer1
 10
406.329
 20
327.793
  0
VERTEX
  8
Layer1
 10
406.243
 20
327.798
  0
VERTEX
  8
Layer1
 10
406.156
 20
327.798
  0
VERTEX
  8
Layer1
 10
406.069
 20
327.798
  0
VERTEX
  8
Layer1
 10
405.982
 20
327.796
  0
VERTEX
  8
Layer1
 10
405.896
 20
327.791
  0
VERTEX
  8
Layer1
 10
405.81
 20
327.784
  0
VERTEX
  8
Layer1
 10
405.723
 20
327.774
  0
VERTEX
  8
Layer1
 10
405.637
 20
327.762
  0
VERTEX
  8
Layer1
 10
405.552
 20
327.748
  0
VERTEX
  8
Layer1
 10
405.467
 20
327.731
  0
VERTEX
  8
Layer1
 10
405.382
 20
327.714
  0
VERTEX
  8
Layer1
 10
405.298
 20
327.693
  0
VERTEX
  8
Layer1
 10
405.214
 20
327.67
  0
VERTEX
  8
Layer1
 10
405.131
 20
327.646
  0
VERTEX
  8
Layer1
 10
405.049
 20
327.618
  0
VERTEX
  8
Layer1
 10
404.967
 20
327.589
  0
VERTEX
  8
Layer1
 10
404.886
 20
327.558
  0
VERTEX
  8
Layer1
 10
404.806
 20
327.524
  0
VERTEX
  8
Layer1
 10
404.727
 20
327.488
  0
VERTEX
  8
Layer1
 10
404.649
 20
327.452
  0
VERTEX
  8
Layer1
 10
404.571
 20
327.411
  0
VERTEX
  8
Layer1
 10
404.495
 20
327.37
  0
SEQEND
  0
POLYLINE
  8
Layer1
  6
CONTINUOUS
 62
7
 66
1
 10
0
 20
0
 30
0
  0
VERTEX
  8
Layer1
 10
412.724
 20
327.315
  0
VERTEX
  8
Layer1
 10
412.637
 20
327.351
  0
VERTEX
  8
Layer1
 10
412.548
 20
327.386
  0
VERTEX
  8
Layer1
 10
412.46
 20
327.418
  0
VERTEX
  8
Layer1
 10
412.37
 20
327.447
  0
VERTEX
  8
Layer1
 10
412.28
 20
327.476
  0
VERTEX
  8
Layer1
 10
412.19
 20
327.503
  0
VERTEX
  8
Layer1
 10
412.098
 20
327.528
  0
VERTEX
  8
Layer1
 10
412.007
 20
327.551
  0
VERTEX
  8
Layer1
 10
411.915
 20
327.572
  0
VERTEX
  8
Layer1
 10
411.822
 20
327.591
  0
VERTEX
  8
Layer1
 10
411.73
 20
327.608
  0
VERTEX
  8
Layer1
 10
411.636
 20
327.625
  0
VERTEX
  8
Layer1
 10
411.543
 20
327.637
  0
VERTEX
  8
Layer1
 10
411.449
 20
327.649
  0
VERTEX
  8
Layer1
 10
411.355
 20
327.66
  0
VERTEX
  8
Layer1
 10
411.261
 20
327.668
  0
VERTEX
  8
Layer1
 10
411.167
 20
327.675
  0
VERTEX
  8
Layer1
 10
411.073
 20
327.678
  0
VERTEX
  8
Layer1
 10
410.978
 20
327.68
  0
VERTEX
  8
Layer1
 10
410.884
 20
327.682
  0
VERTEX
  8
Layer1
 10
410.79
 20
327.68
  0
VERTEX
  8
Layer1
 10
410.695
 20
327.677
  0
VERTEX
  8
Layer1
 10
410.601
 20
327.672
  0
VERTEX
  8
Layer1
 10
410.507
 20
327.665
  0
VERTEX
  8
Layer1
 10
410.413
 20
327.656
  0
VERTEX
  8
Layer1
 10
410.319
 20
327.646
  0
VERTEX
  8
Layer1
 10
410.225
 20
327.632
  0
VERTEX
  8
Layer1
 10
410.132
 20
327.619
  0
VERTEX
  8
Layer1
 10
410.039
 20
327.601
  0
VERTEX
  8
Layer1
 10
409.946
 20
327.584
  0
VERTEX
  8
Layer1
 10
409.854
 20
327.564
  0
VERTEX
  8
Layer1
 10
409.762
 20
327.541
  0
VERTEX
  8
Layer1
 10
409.671
 20
327.519
  0
VERTEX
  8
Layer1
 10
409.58
 20
327.493
  0
VERTEX
  8
Layer1
 10
409.489
 20
327.466
  0
VERTEX
  8
Layer1
 10
409.4
 20
327.437
  0
VERTEX
  8
Layer1
 10
409.31
 20
327.406
  0
VERTEX
  8
Layer1
 10
409.222
 20
327.373
  0
VERTEX
  8
Layer1
 10
409.134
 20
327.339
  0
VERTEX
  8
Layer1
 10
409.047
 20
327.302
  0
VERTEX
  8
Layer1
 10
408.96
 20
327.264
  0
VERTEX
  8
Layer1
 10
408.874
 20
327.225
  0
VERTEX
  8
Layer1
 10
408.79
 20
327.183
  0
VERTEX
  8
Layer1
 10
408.706
 20
327.14
  0
VERTEX
  8
Layer1
 10
408.622
 20
327.095
  0
VERTEX
  8
Layer1
 10
408.54
 20
327.048
  0
VERTEX
  8
Layer1
 10
408.459
 20
327
  0
VERTEX
  8
Layer1
 10
408.379
 20
326.951
  0
SEQEND
  0
LINE
  8
Layer1
  6
CONTINUOUS
 62
7
 10
404.841
 20
327.54
 11
404.507
 21
327.35
  0
LINE
  8
Layer1
  6
CONTINUOUS
 62
7
 10
404.577
 20
329.73
 11
403.717
 21
328.147
  0
LINE
  8
Layer1
  6
CONTINUOUS
 62
7
 10
412.422
 20
329.73
 11
413.309
 21
327.915
  0
LINE
  8
Layer1
  6
CONTINUOUS
 62
7
 10
412.24
 20
327.459
 11
412.724
 21
327.315
  0
POLYLINE
  8
Layer1
  6
CONTINUOUS
 62
7
 66
1
 10
0
 20
0
 30
0
  0
VERTEX
  8
Layer1
 10
403.717
 20
328.147
  0
VERTEX
  8
Layer1
 10
403.702
 20
328.119
  0
VERTEX
  8
Layer1
 10
403.689
 20
328.089
  0
VERTEX
  8
Layer1
 10
403.677
 20
328.06
  0
VERTEX
  8
Layer1
 10
403.666
 20
328.031
  0
VERTEX
  8
Layer1
 10
403.658
 20
328
  0
VERTEX
  8
Layer1
 10
403.65
 20
327.97
  0
VERTEX
  8
Layer1
 10
403.645
 20
327.939
  0
VERTEX
  8
Layer1
 10
403.641
 20
327.906
  0
VERTEX
  8
Layer1
 10
403.639
 20
327.875
  0
VERTEX
  8
Layer1
 10
403.639
 20
327.844
  0
VERTEX
  8
Layer1
 10
403.64
 20
327.813
  0
VERTEX
  8
Layer1
 10
403.644
 20
327.781
  0
VERTEX
  8
Layer1
 10
403.648
 20
327.75
  0
VERTEX
  8
Layer1
 10
403.655
 20
327.719
  0
VERTEX
  8
Layer1
 10
403.663
 20
327.688
  0
VERTEX
  8
Layer1
 10
403.673
 20
327.658
  0
VERTEX
  8
Layer1
 10
403.685
 20
327.629
  0
VERTEX
  8
Layer1
 10
403.698
 20
327.6
  0
VERTEX
  8
Layer1
 10
403.712
 20
327.572
  0
VERTEX
  8
Layer1
 10
403.729
 20
327.545
  0
VERTEX
  8
Layer1
 10
403.746
 20
327.519
  0
VERTEX
  8
Layer1
 10
403.765
 20
327.493
  0
VERTEX
  8
Layer1
 10
403.786
 20
327.469
  0
VERTEX
  8
Layer1
 10
403.807
 20
327.446
  0
VERTEX
  8
Layer1
 10
403.83
 20
327.423
  0
VERTEX
  8
Layer1
 10
403.854
 20
327.404
  0
VERTEX
  8
Layer1
 10
403.879
 20
327.384
  0
VERTEX
  8
Layer1
 10
403.905
 20
327.367
  0
VERTEX
  8
Layer1
 10
403.932
 20
327.35
  0
VERTEX
  8
Layer1
 10
403.96
 20
327.334
  0
VERTEX
  8
Layer1
 10
403.989
 20
327.322
  0
VERTEX
  8
Layer1
 10
404.018
 20
327.31
  0
VERTEX
  8
Layer1
 10
404.048
 20
327.3
  0
VERTEX
  8
Layer1
 10
404.079
 20
327.291
  0
VERTEX
  8
Layer1
 10
404.11
 20
327.285
  0
VERTEX
  8
Layer1
 10
404.141
 20
327.279
  0
VERTEX
  8
Layer1
 10
404.172
 20
327.276
  0
VERTEX
  8
Layer1
 10
404.204
 20
327.274
  0
VERTEX
  8
Layer1
 10
404.235
 20
327.274
  0
VERTEX
  8
Layer1
 10
404.267
 20
327.276
  0
VERTEX
  8
Layer1
 10
404.299
 20
327.279
  0
VERTEX
  8
Layer1
 10
404.33
 20
327.284
  0
VERTEX
  8
Layer1
 10
404.361
 20
327.291
  0
VERTEX
  8
Layer1
 10
404.391
 20
327.3
  0
VERTEX
  8
Layer1
 10
404.421
 20
327.31
  0
VERTEX
  8
Layer1
 10
404.45
 20
327.322
  0
VERTEX
  8
Layer1
 10
404.479
 20
327.334
  0
VERTEX
  8
Layer1
 10
404.507
 20
327.35
  0
SEQEND
  0
POLYLINE
  8
Layer1
  6
CONTINUOUS
 62
7
 66
1
 10
0
 20
0
 30
0
  0
VERTEX
  8
Layer1
 10
412.724
 20
327.315
  0
VERTEX
  8
Layer1
 10
412.745
 20
327.31
  0
VERTEX
  8
Layer1
 10
412.766
 20
327.305
  0
VERTEX
  8
Layer1
 10
412.787
 20
327.302
  0
VERTEX
  8
Layer1
 10
412.808
 20
327.298
  0
VERTEX
  8
Layer1
 10
412.829
 20
327.298
  0
VERTEX
  8
Layer1
 10
412.851
 20
327.297
  0
VERTEX
  8
Layer1
 10
412.872
 20
327.297
  0
VERTEX
  8
Layer1
 10
412.893
 20
327.298
  0
VERTEX
  8
Layer1
 10
412.915
 20
327.3
  0
VERTEX
  8
Layer1
 10
412.936
 20
327.303
  0
VERTEX
  8
Layer1
 10
412.957
 20
327.307
  0
VERTEX
  8
Layer1
 10
412.978
 20
327.312
  0
VERTEX
  8
Layer1
 10
412.998
 20
327.318
  0
VERTEX
  8
Layer1
 10
413.019
 20
327.325
  0
VERTEX
  8
Layer1
 10
413.039
 20
327.332
  0
VERTEX
  8
Layer1
 10
413.058
 20
327.341
  0
VERTEX
  8
Layer1
 10
413.077
 20
327.35
  0
VERTEX
  8
Layer1
 10
413.096
 20
327.361
  0
VERTEX
  8
Layer1
 10
413.115
 20
327.372
  0
VERTEX
  8
Layer1
 10
413.132
 20
327.384
  0
VERTEX
  8
Layer1
 10
413.149
 20
327.396
  0
VERTEX
  8
Layer1
 10
413.166
 20
327.41
  0
VERTEX
  8
Layer1
 10
413.182
 20
327.423
  0
VERTEX
  8
Layer1
 10
413.197
 20
327.439
  0
VERTEX
  8
Layer1
 10
413.212
 20
327.455
  0
VERTEX
  8
Layer1
 10
413.226
 20
327.471
  0
VERTEX
  8
Layer1
 10
413.239
 20
327.488
  0
VERTEX
  8
Layer1
 10
413.251
 20
327.505
  0
VERTEX
  8
Layer1
 10
413.263
 20
327.523
  0
VERTEX
  8
Layer1
 10
413.274
 20
327.541
  0
VERTEX
  8
Layer1
 10
413.283
 20
327.56
  0
VERTEX
  8
Layer1
 10
413.292
 20
327.58
  0
VERTEX
  8
Layer1
 10
413.301
 20
327.6
  0
VERTEX
  8
Layer1
 10
413.308
 20
327.62
  0
VERTEX
  8
Layer1
 10
413.314
 20
327.641
  0
VERTEX
  8
Layer1
 10
413.319
 20
327.661
  0
VERTEX
  8
Layer1
 10
413.324
 20
327.682
  0
VERTEX
  8
Layer1
 10
413.327
 20
327.704
  0
VERTEX
  8
Layer1
 10
413.33
 20
327.725
  0
VERTEX
  8
Layer1
 10
413.331
 20
327.745
  0
VERTEX
  8
Layer1
 10
413.332
 20
327.767
  0
VERTEX
  8
Layer1
 10
413.332
 20
327.789
  0
VERTEX
  8
Layer1
 10
413.33
 20
327.81
  0
VERTEX
  8
Layer1
 10
413.328
 20
327.832
  0
VERTEX
  8
Layer1
 10
413.325
 20
327.853
  0
VERTEX
  8
Layer1
 10
413.32
 20
327.874
  0
VERTEX
  8
Layer1
 10
413.315
 20
327.894
  0
VERTEX
  8
Layer1
 10
413.309
 20
327.915
  0
SEQEND
  0
LINE
  8
Layer1
  6
CONTINUOUS
 62
7
 10
411.446
 20
327.649
 11
411.446
 21
325.748
  0
LINE
  8
Layer1
  6
CONTINUOUS
 62
7
 10
405.301
 20
327.694
 11
405.301
 21
325.748
  0
LINE
  8
Layer1
  6
CONTINUOUS
 62
7
 10
404.154
 20
325.748
 11
403.43
 21
325.023
  0
LINE
  8
Layer1
  6
CONTINUOUS
 62
7
 10
412.603
 20
325.748
 11
413.327
 21
325.023
  0
LINE
  8
Layer1
  6
CENTER1
 62
7
 10
375.442
 20
307.685
 11
375.442
 21
331.389
  0
LINE
  8
Layer1
  6
CONTINUOUS
 62
7
 10
432.442
 20
309.98
 11
384.442
 21
309.98
  0
LINE
  8
Layer1
  6
CONTINUOUS
 62
7
 10
368.442
 20
309.98
 11
367.442
 21
308.98
  0
LINE
  8
Layer1
  6
DASHED1
 62
7
 10
448.442
 20
309.98
 11
449.443
 21
308.98
  0
LINE
  8
Layer1
  6
CENTER1
 62
7
 10
375.942
 20
390.452
 11
375.942
 21
362.93
  0
LINE
  8
Layer1
  6
CENTER1
 62
7
 10
440.942
 20
388.978
 11
440.942
 21
363.946
  0
LINE
  8
Layer1
  6
CENTER1
 62
7
 10
441.442
 20
306.577
 11
441.442
 21
328.094
  0
POLYLINE
  8
Layer1
  6
CONTINUOUS
 62
7
 66
1
 10
0
 20
0
 30
0
 70
1
  0
VERTEX
  8
Layer1
 10
390.942
 20
305.339
  0
VERTEX
  8
Layer1
 10
388.465
 20
303.91
  0
VERTEX
  8
Layer1
 10
388.465
 20
301.05
  0
VERTEX
  8
Layer1
 10
390.942
 20
299.62
  0
VERTEX
  8
Layer1
 10
393.419
 20
301.05
  0
VERTEX
  8
Layer1
 10
393.419
 20
303.91
  0
SEQEND
  0
CIRCLE
  8
Layer1
  6
CONTINUOUS
 62
7
 10
390.942
 20
267.48
 40
4
  0
POLYLINE
  8
Layer1
  6
CONTINUOUS
 62
7
 66
1
 10
0
 20
0
 30
0
 70
1
  0
VERTEX
  8
Layer1
 10
390.942
 20
270.339
  0
VERTEX
  8
Layer1
 10
388.465
 20
268.91
  0
VERTEX
  8
Layer1
 10
388.465
 20
266.05
  0
VERTEX
  8
Layer1
 10
390.942
 20
264.62
  0
VERTEX
  8
Layer1
 10
393.419
 20
266.05
  0
VERTEX
  8
Layer1
 10
393.419
 20
268.91
  0
SEQEND
  0
POLYLINE
  8
Layer1
  6
CONTINUOUS
 62
7
 66
1
 10
0
 20
0
 30
0
 70
1
  0
VERTEX
  8
Layer1
 10
425.942
 20
270.911
  0
VERTEX
  8
Layer1
 10
422.97
 20
269.196
  0
VERTEX
  8
Layer1
 10
422.97
 20
265.764
  0
VERTEX
  8
Layer1
 10
425.942
 20
264.048
  0
VERTEX
  8
Layer1
 10
428.914
 20
265.764
  0
VERTEX
  8
Layer1
 10
428.914
 20
269.196
  0
SEQEND
  0
LINE
  8
Layer1
  6
DASHED1
 62
7
 10
385.342
 20
294.98
 11
431.542
 21
294.98
  0
LINE
  8
Layer1
  6
CENTER1
 62
7
 10
390.942
 20
307.889
 11
390.942
 21
296.269
  0
LINE
  8
Layer1
  6
CENTER1
 62
7
 10
390.942
 20
261.966
 11
390.942
 21
273.548
  0
LINE
  8
Layer1
  6
CENTER1
 62
7
 10
425.942
 20
261.331
 11
425.942
 21
273.742
  0
LINE
  8
Layer1
  6
CENTER1
 62
7
 10
425.942
 20
306.238
 11
425.942
 21
294.411
  0
LINE
  8
Layer1
  6
CENTER1
 62
7
 10
399.102
 20
302.48
 11
382.782
 21
302.48
  0
LINE
  8
Layer1
  6
CENTER1
 62
7
 10
418.139
 20
302.48
 11
433.772
 21
302.48
  0
LINE
  8
Layer1
  6
CENTER1
 62
7
 10
418.109
 20
267.48
 11
433.64
 21
267.48
  0
LINE
  8
Layer1
  6
CENTER1
 62
7
 10
397.286
 20
267.48
 11
383.442
 21
267.48
  0
LINE
  8
Layer1
  6
CONTINUOUS
 62
7
 10
433.442
 20
260.98
 11
433.442
 21
308.98
  0
LINE
  8
Layer1
  6
CONTINUOUS
 62
7
 10
383.442
 20
260.98
 11
383.442
 21
308.98
  0
LINE
  8
Layer1
  6
CONTINUOUS
 62
7
 10
384.442
 20
309.98
 11
383.442
 21
308.98
  0
LINE
  8
Layer1
  6
CONTINUOUS
 62
7
 10
432.442
 20
309.98
 11
433.442
 21
308.98
  0
LINE
  8
Layer1
  6
CONTINUOUS
 62
7
 10
433.442
 20
260.98
 11
432.442
 21
259.98
  0
LINE
  8
Layer1
  6
CONTINUOUS
 62
7
 10
384.442
 20
259.98
 11
383.442
 21
260.98
  0
LINE
  8
Layer1
  6
CONTINUOUS
 62
7
 10
432.95
 20
333.608
 11
383.942
 21
333.608
  0
LINE
  8
Layer1
  6
CENTER1
 62
7
 10
390.942
 20
287.897
 11
390.942
 21
282.144
  0
LINE
  8
Layer1
  6
CENTER1
 62
7
 10
388.671
 20
284.98
 11
393.862
 21
284.98
  0
CIRCLE
  8
Layer1
  6
CONTINUOUS
 62
7
 10
390.942
 20
284.98
 40
1.25
  0
LINE
  8
Layer1
  6
CENTER1
 62
7
 10
425.942
 20
287.897
 11
425.942
 21
282.144
  0
LINE
  8
Layer1
  6
CENTER1
 62
7
 10
423.671
 20
284.98
 11
428.862
 21
284.98
  0
CIRCLE
  8
Layer1
  6
CONTINUOUS
 62
7
 10
425.942
 20
284.98
 40
1.25
  0
LINE
  8
Layer1
  6
CONTINUOUS
 62
7
 10
448.942
 20
309.48
 11
447.442
 21
309.98
  0
TEXT
  8
Layer1
 62
7
 10
505.261
 20
260.012
 72
1
 11
505.261
 21
260.012
 40
4
 41
1
 50
90
  1
中心間距離
  0
TEXT
  8
Layer1
 62
7
 10
340.868
 20
271.279
 40
6
 41
1
  1
2-φ2.5
  0
LINE
  8
Layer1
  6
CONTINUOUS
 62
7
 10
362.105
 20
270.072
 11
347.105
 21
270.072
  0
POLYLINE
  8
Layer1
  6
CONTINUOUS
 62
7
 66
1
 10
0
 20
0
 30
0
  0
VERTEX
  8
Layer1
 10
390.058
 20
284.096
  0
VERTEX
  8
Layer1
 10
362.105
 20
270.072
  0
VERTEX
  8
Layer1
 10
362.105
 20
270.072
  0
SEQEND
  0
POLYLINE
  8
Layer1
  6
CONTINUOUS
 62
7
 66
1
 10
0
 20
0
 30
0
 70
1
  0
VERTEX
  8
Layer1
 10
388.099
 20
283.692
  0
VERTEX
  8
Layer1
 10
390.058
 20
284.096
  0
VERTEX
  8
Layer1
 10
388.564
 20
282.767
  0
SEQEND
  0
LINE
  8
Layer1
  6
CONTINUOUS
 62
7
 10
719.125
 20
322.98
 11
720.125
 21
321.98
  0
ARC
  8
Layer1
  6
CONTINUOUS
 62
7
 10
696.625
 20
310.98
 40
1
 50
180
 51
270
  0
LINE
  8
Layer1
  6
CONTINUOUS
 62
7
 10
719.09
 20
309.98
 11
720.133
 21
311.023
  0
LINE
  8
Layer1
  6
CENTER1
 62
7
 10
761.678
 20
269.98
 11
785.573
 21
269.98
  0
LINE
  8
Layer1
  6
CONTINUOUS
 62
7
 10
765.145
 20
383.98
 11
765.145
 21
239.98
  0
LINE
  8
Layer1
  6
CENTER1
 62
7
 10
730.145
 20
387.753
 11
730.145
 21
365.207
  0
LINE
  8
Layer1
  6
CENTER1
 62
7
 10
755.145
 20
388.774
 11
755.145
 21
364.053
  0
CIRCLE
  8
Layer1
  6
CONTINUOUS
 62
7
 10
742.645
 20
561.207
 40
4
  0
LINE
  8
Layer1
  6
CENTER1
 62
7
 10
742.645
 20
568.412
 11
742.645
 21
554.118
  0
LINE
  8
Layer1
  6
CENTER1
 62
7
 10
742.645
 20
489.005
 11
742.645
 21
503.298
  0
CIRCLE
  8
Layer1
  6
CONTINUOUS
 62
7
 10
742.645
 20
496.207
 40
4
  0
TEXT
  8
Layer1
 62
7
 10
746.366
 20
332.272
 72
1
 11
746.366
 21
332.272
 40
4
 41
1
 50
20
  1
 40°
  0
ARC
  8
Layer1
  6
CONTINUOUS
 62
7
 10
765.145
 20
280.678
 40
54.9049
 50
90
 51
130
  0
TEXT
  8
Layer1
 62
7
 10
818.013
 20
285.406
 72
1
 11
818.013
 21
285.406
 40
4
 41
1
 50
90
  1
 115.2 
  0
LINE
  8
Layer1
  6
CONTINUOUS
 62
7
 10
765.145
 20
355.18
 11
819.013
 21
355.18
  0
LINE
  8
Layer1
  6
CONTINUOUS
 62
7
 10
765.145
 20
239.98
 11
819.013
 21
239.98
  0
POLYLINE
  8
Layer1
  6
CONTINUOUS
 62
7
 66
1
 10
0
 20
0
 30
0
  0
VERTEX
  8
Layer1
 10
818.013
 20
355.18
  0
VERTEX
  8
Layer1
 10
818.013
 20
239.98
  0
SEQEND
  0
POLYLINE
  8
Layer1
  6
CONTINUOUS
 62
7
 66
1
 10
0
 20
0
 30
0
  0
VERTEX
  8
Layer1
 10
817.496
 20
353.248
  0
VERTEX
  8
Layer1
 10
818.013
 20
355.18
  0
VERTEX
  8
Layer1
 10
818.531
 20
353.248
  0
SEQEND
  0
POLYLINE
  8
Layer1
  6
CONTINUOUS
 62
7
 66
1
 10
0
 20
0
 30
0
  0
VERTEX
  8
Layer1
 10
818.531
 20
241.911
  0
VERTEX
  8
Layer1
 10
818.013
 20
239.98
  0
VERTEX
  8
Layer1
 10
817.496
 20
241.911
  0
SEQEND
  0
TEXT
  8
Layer1
 62
7
 10
834.342
 20
312.48
 72
1
 11
834.342
 21
312.48
 40
4
 41
1
 50
90
  1
 145 
  0
LINE
  8
Layer1
  6
CONTINUOUS
 62
7
 10
764.175
 20
384.98
 11
835.342
 21
384.98
  0
LINE
  8
Layer1
  6
CONTINUOUS
 62
7
 10
818.013
 20
239.98
 11
835.342
 21
239.98
  0
POLYLINE
  8
Layer1
  6
CONTINUOUS
 62
7
 66
1
 10
0
 20
0
 30
0
  0
VERTEX
  8
Layer1
 10
834.342
 20
384.98
  0
VERTEX
  8
Layer1
 10
834.342
 20
239.98
  0
SEQEND
  0
POLYLINE
  8
Layer1
  6
CONTINUOUS
 62
7
 66
1
 10
0
 20
0
 30
0
  0
VERTEX
  8
Layer1
 10
833.825
 20
383.048
  0
VERTEX
  8
Layer1
 10
834.342
 20
384.98
  0
VERTEX
  8
Layer1
 10
834.86
 20
383.048
  0
SEQEND
  0
POLYLINE
  8
Layer1
  6
CONTINUOUS
 62
7
 66
1
 10
0
 20
0
 30
0
  0
VERTEX
  8
Layer1
 10
834.86
 20
241.911
  0
VERTEX
  8
Layer1
 10
834.342
 20
239.98
  0
VERTEX
  8
Layer1
 10
833.825
 20
241.911
  0
SEQEND
  0
TEXT
  8
Layer1
 62
7
 10
600.149
 20
235.666
 72
1
 11
600.149
 21
235.666
 40
4
 41
1
  1
(ストローク)
  0
TEXT
  8
Layer1
 62
7
 10
408.442
 20
222.091
 72
1
 11
408.442
 21
222.091
 40
4
 41
1
  1
 35 
  0
LINE
  8
Layer1
  6
CONTINUOUS
 62
7
 10
390.942
 20
261.966
 11
390.942
 21
221.091
  0
LINE
  8
Layer1
  6
CONTINUOUS
 62
7
 10
425.942
 20
261.331
 11
425.942
 21
221.091
  0
POLYLINE
  8
Layer1
  6
CONTINUOUS
 62
7
 66
1
 10
0
 20
0
 30
0
  0
VERTEX
  8
Layer1
 10
390.942
 20
222.091
  0
VERTEX
  8
Layer1
 10
425.942
 20
222.091
  0
SEQEND
  0
POLYLINE
  8
Layer1
  6
CONTINUOUS
 62
7
 66
1
 10
0
 20
0
 30
0
  0
VERTEX
  8
Layer1
 10
392.874
 20
221.574
  0
VERTEX
  8
Layer1
 10
390.942
 20
222.091
  0
VERTEX
  8
Layer1
 10
392.874
 20
222.608
  0
SEQEND
  0
POLYLINE
  8
Layer1
  6
CONTINUOUS
 62
7
 66
1
 10
0
 20
0
 30
0
  0
VERTEX
  8
Layer1
 10
424.01
 20
222.608
  0
VERTEX
  8
Layer1
 10
425.942
 20
222.091
  0
VERTEX
  8
Layer1
 10
424.01
 20
221.574
  0
SEQEND
  0
TEXT
  8
Layer1
 62
7
 10
408.442
 20
210.809
 72
1
 11
408.442
 21
210.809
 40
4
 41
1
  1
 50 
  0
LINE
  8
Layer1
  6
CONTINUOUS
 62
7
 10
383.442
 20
260.98
 11
383.442
 21
209.809
  0
LINE
  8
Layer1
  6
CONTINUOUS
 62
7
 10
433.442
 20
260.98
 11
433.442
 21
209.809
  0
POLYLINE
  8
Layer1
  6
CONTINUOUS
 62
7
 66
1
 10
0
 20
0
 30
0
  0
VERTEX
  8
Layer1
 10
383.442
 20
210.809
  0
VERTEX
  8
Layer1
 10
433.442
 20
210.809
  0
SEQEND
  0
POLYLINE
  8
Layer1
  6
CONTINUOUS
 62
7
 66
1
 10
0
 20
0
 30
0
  0
VERTEX
  8
Layer1
 10
385.374
 20
210.291
  0
VERTEX
  8
Layer1
 10
383.442
 20
210.809
  0
VERTEX
  8
Layer1
 10
385.374
 20
211.326
  0
SEQEND
  0
POLYLINE
  8
Layer1
  6
CONTINUOUS
 62
7
 66
1
 10
0
 20
0
 30
0
  0
VERTEX
  8
Layer1
 10
431.51
 20
211.326
  0
VERTEX
  8
Layer1
 10
433.442
 20
210.809
  0
VERTEX
  8
Layer1
 10
431.51
 20
210.291
  0
SEQEND
  0
TEXT
  8
Layer1
 62
7
 10
499.964
 20
262.48
 72
1
 11
499.964
 21
262.48
 40
4
 41
1
 50
90
  1
 45 
  0
LINE
  8
Layer1
  6
CONTINUOUS
 62
7
 10
457.972
 20
284.98
 11
500.964
 21
284.98
  0
LINE
  8
Layer1
  6
CONTINUOUS
 62
7
 10
467.442
 20
239.98
 11
500.964
 21
239.98
  0
POLYLINE
  8
Layer1
  6
CONTINUOUS
 62
7
 66
1
 10
0
 20
0
 30
0
  0
VERTEX
  8
Layer1
 10
499.964
 20
284.98
  0
VERTEX
  8
Layer1
 10
499.964
 20
239.98
  0
SEQEND
  0
POLYLINE
  8
Layer1
  6
CONTINUOUS
 62
7
 66
1
 10
0
 20
0
 30
0
  0
VERTEX
  8
Layer1
 10
499.446
 20
283.048
  0
VERTEX
  8
Layer1
 10
499.964
 20
284.98
  0
VERTEX
  8
Layer1
 10
500.482
 20
283.048
  0
SEQEND
  0
POLYLINE
  8
Layer1
  6
CONTINUOUS
 62
7
 66
1
 10
0
 20
0
 30
0
  0
VERTEX
  8
Layer1
 10
500.482
 20
241.911
  0
VERTEX
  8
Layer1
 10
499.964
 20
239.98
  0
VERTEX
  8
Layer1
 10
499.446
 20
241.911
  0
SEQEND
  0
TEXT
  8
Layer1
 62
7
 10
513.199
 20
284.98
 72
1
 11
513.199
 21
284.98
 40
4
 41
1
 50
90
  1
 35 
  0
LINE
  8
Layer1
  6
CONTINUOUS
 62
7
 10
432.942
 20
302.48
 11
514.199
 21
302.48
  0
LINE
  8
Layer1
  6
CONTINUOUS
 62
7
 10
433.442
 20
267.48
 11
514.199
 21
267.48
  0
POLYLINE
  8
Layer1
  6
CONTINUOUS
 62
7
 66
1
 10
0
 20
0
 30
0
  0
VERTEX
  8
Layer1
 10
513.199
 20
302.48
  0
VERTEX
  8
Layer1
 10
513.199
 20
267.48
  0
SEQEND
  0
POLYLINE
  8
Layer1
  6
CONTINUOUS
 62
7
 66
1
 10
0
 20
0
 30
0
  0
VERTEX
  8
Layer1
 10
512.682
 20
300.548
  0
VERTEX
  8
Layer1
 10
513.199
 20
302.48
  0
VERTEX
  8
Layer1
 10
513.717
 20
300.548
  0
SEQEND
  0
POLYLINE
  8
Layer1
  6
CONTINUOUS
 62
7
 66
1
 10
0
 20
0
 30
0
  0
VERTEX
  8
Layer1
 10
513.717
 20
269.411
  0
VERTEX
  8
Layer1
 10
513.199
 20
267.48
  0
VERTEX
  8
Layer1
 10
512.682
 20
269.411
  0
SEQEND
  0
TEXT
  8
Layer1
 62
7
 10
526.435
 20
284.98
 72
1
 11
526.435
 21
284.98
 40
4
 41
1
 50
90
  1
 50 
  0
LINE
  8
Layer1
  6
CONTINUOUS
 62
7
 10
432.442
 20
309.98
 11
527.435
 21
309.98
  0
LINE
  8
Layer1
  6
CONTINUOUS
 62
7
 10
432.442
 20
259.98
 11
527.435
 21
259.98
  0
POLYLINE
  8
Layer1
  6
CONTINUOUS
 62
7
 66
1
 10
0
 20
0
 30
0
  0
VERTEX
  8
Layer1
 10
526.435
 20
309.98
  0
VERTEX
  8
Layer1
 10
526.435
 20
259.98
  0
SEQEND
  0
POLYLINE
  8
Layer1
  6
CONTINUOUS
 62
7
 66
1
 10
0
 20
0
 30
0
  0
VERTEX
  8
Layer1
 10
525.917
 20
308.048
  0
VERTEX
  8
Layer1
 10
526.435
 20
309.98
  0
VERTEX
  8
Layer1
 10
526.952
 20
308.048
  0
SEQEND
  0
POLYLINE
  8
Layer1
  6
CONTINUOUS
 62
7
 66
1
 10
0
 20
0
 30
0
  0
VERTEX
  8
Layer1
 10
526.952
 20
261.911
  0
VERTEX
  8
Layer1
 10
526.435
 20
259.98
  0
VERTEX
  8
Layer1
 10
525.917
 20
261.911
  0
SEQEND
  0
TEXT
  8
Layer1
 62
7
 10
539.019
 20
281.48
 72
1
 11
539.019
 21
281.48
 40
4
 41
1
 50
90
  1
 83 
  0
LINE
  8
Layer1
  6
CONTINUOUS
 62
7
 10
446.942
 20
322.98
 11
540.019
 21
322.98
  0
LINE
  8
Layer1
  6
CONTINUOUS
 62
7
 10
499.964
 20
239.98
 11
540.019
 21
239.98
  0
POLYLINE
  8
Layer1
  6
CONTINUOUS
 62
7
 66
1
 10
0
 20
0
 30
0
  0
VERTEX
  8
Layer1
 10
539.019
 20
322.98
  0
VERTEX
  8
Layer1
 10
539.019
 20
239.98
  0
SEQEND
  0
POLYLINE
  8
Layer1
  6
CONTINUOUS
 62
7
 66
1
 10
0
 20
0
 30
0
  0
VERTEX
  8
Layer1
 10
538.502
 20
321.048
  0
VERTEX
  8
Layer1
 10
539.019
 20
322.98
  0
VERTEX
  8
Layer1
 10
539.537
 20
321.048
  0
SEQEND
  0
POLYLINE
  8
Layer1
  6
CONTINUOUS
 62
7
 66
1
 10
0
 20
0
 30
0
  0
VERTEX
  8
Layer1
 10
539.537
 20
241.911
  0
VERTEX
  8
Layer1
 10
539.019
 20
239.98
  0
VERTEX
  8
Layer1
 10
538.502
 20
241.911
  0
SEQEND
  0
TEXT
  8
Layer1
 62
7
 10
806.61
 20
528.707
 72
1
 11
806.61
 21
528.707
 40
4
 41
1
 50
90
  1
 65 
  0
LINE
  8
Layer1
  6
CONTINUOUS
 62
7
 10
786.747
 20
561.207
 11
807.61
 21
561.207
  0
LINE
  8
Layer1
  6
CONTINUOUS
 62
7
 10
786.359
 20
496.207
 11
807.61
 21
496.207
  0
POLYLINE
  8
Layer1
  6
CONTINUOUS
 62
7
 66
1
 10
0
 20
0
 30
0
  0
VERTEX
  8
Layer1
 10
806.61
 20
561.207
  0
VERTEX
  8
Layer1
 10
806.61
 20
496.207
  0
SEQEND
  0
POLYLINE
  8
Layer1
  6
CONTINUOUS
 62
7
 66
1
 10
0
 20
0
 30
0
  0
VERTEX
  8
Layer1
 10
806.093
 20
559.274
  0
VERTEX
  8
Layer1
 10
806.61
 20
561.207
  0
VERTEX
  8
Layer1
 10
807.128
 20
559.274
  0
SEQEND
  0
POLYLINE
  8
Layer1
  6
CONTINUOUS
 62
7
 66
1
 10
0
 20
0
 30
0
  0
VERTEX
  8
Layer1
 10
807.128
 20
498.14
  0
VERTEX
  8
Layer1
 10
806.61
 20
496.207
  0
VERTEX
  8
Layer1
 10
806.093
 20
498.14
  0
SEQEND
  0
TEXT
  8
Layer1
 62
7
 10
833.062
 20
528.707
 72
1
 11
833.062
 21
528.707
 40
4
 41
1
 50
90
  1
 100 
  0
LINE
  8
Layer1
  6
CONTINUOUS
 62
7
 10
764.212
 20
578.707
 11
834.062
 21
578.707
  0
LINE
  8
Layer1
  6
CONTINUOUS
 62
7
 10
761.243
 20
478.707
 11
834.062
 21
478.707
  0
POLYLINE
  8
Layer1
  6
CONTINUOUS
 62
7
 66
1
 10
0
 20
0
 30
0
  0
VERTEX
  8
Layer1
 10
833.062
 20
578.707
  0
VERTEX
  8
Layer1
 10
833.062
 20
478.707
  0
SEQEND
  0
POLYLINE
  8
Layer1
  6
CONTINUOUS
 62
7
 66
1
 10
0
 20
0
 30
0
  0
VERTEX
  8
Layer1
 10
832.544
 20
576.774
  0
VERTEX
  8
Layer1
 10
833.062
 20
578.707
  0
VERTEX
  8
Layer1
 10
833.579
 20
576.774
  0
SEQEND
  0
POLYLINE
  8
Layer1
  6
CONTINUOUS
 62
7
 66
1
 10
0
 20
0
 30
0
  0
VERTEX
  8
Layer1
 10
833.579
 20
480.64
  0
VERTEX
  8
Layer1
 10
833.062
 20
478.707
  0
VERTEX
  8
Layer1
 10
832.544
 20
480.64
  0
SEQEND
  0
TEXT
  8
Layer1
 62
7
 10
847.132
 20
528.707
 72
1
 11
847.132
 21
528.707
 40
4
 41
1
 50
90
  1
 120 
  0
LINE
  8
Layer1
  6
CONTINUOUS
 62
7
 10
764.145
 20
588.707
 11
848.132
 21
588.707
  0
LINE
  8
Layer1
  6
CONTINUOUS
 62
7
 10
764.145
 20
468.707
 11
848.132
 21
468.707
  0
POLYLINE
  8
Layer1
  6
CONTINUOUS
 62
7
 66
1
 10
0
 20
0
 30
0
  0
VERTEX
  8
Layer1
 10
847.132
 20
588.707
  0
VERTEX
  8
Layer1
 10
847.132
 20
468.707
  0
SEQEND
  0
POLYLINE
  8
Layer1
  6
CONTINUOUS
 62
7
 66
1
 10
0
 20
0
 30
0
  0
VERTEX
  8
Layer1
 10
846.614
 20
586.774
  0
VERTEX
  8
Layer1
 10
847.132
 20
588.707
  0
VERTEX
  8
Layer1
 10
847.649
 20
586.774
  0
SEQEND
  0
POLYLINE
  8
Layer1
  6
CONTINUOUS
 62
7
 66
1
 10
0
 20
0
 30
0
  0
VERTEX
  8
Layer1
 10
847.649
 20
470.64
  0
VERTEX
  8
Layer1
 10
847.132
 20
468.707
  0
VERTEX
  8
Layer1
 10
846.614
 20
470.64
  0
SEQEND
  0
TEXT
  8
Layer1
 62
7
 10
677.645
 20
615.654
 72
1
 11
677.645
 21
615.654
 40
4
 41
1
  1
 50 
  0
LINE
  8
Layer1
  6
CONTINUOUS
 62
7
 10
652.645
 20
592.399
 11
652.645
 21
616.654
  0
LINE
  8
Layer1
  6
CONTINUOUS
 62
7
 10
702.645
 20
587.418
 11
702.645
 21
616.654
  0
POLYLINE
  8
Layer1
  6
CONTINUOUS
 62
7
 66
1
 10
0
 20
0
 30
0
  0
VERTEX
  8
Layer1
 10
652.645
 20
615.654
  0
VERTEX
  8
Layer1
 10
702.645
 20
615.654
  0
SEQEND
  0
POLYLINE
  8
Layer1
  6
CONTINUOUS
 62
7
 66
1
 10
0
 20
0
 30
0
  0
VERTEX
  8
Layer1
 10
654.577
 20
615.138
  0
VERTEX
  8
Layer1
 10
652.645
 20
615.654
  0
VERTEX
  8
Layer1
 10
654.577
 20
616.173
  0
SEQEND
  0
POLYLINE
  8
Layer1
  6
CONTINUOUS
 62
7
 66
1
 10
0
 20
0
 30
0
  0
VERTEX
  8
Layer1
 10
700.713
 20
616.173
  0
VERTEX
  8
Layer1
 10
702.645
 20
615.654
  0
VERTEX
  8
Layer1
 10
700.713
 20
615.138
  0
SEQEND
  0
TEXT
  8
Layer1
 62
7
 10
727.645
 20
615.654
 72
1
 11
727.645
 21
615.654
 40
4
 41
1
  1
 50 
  0
LINE
  8
Layer1
  6
CONTINUOUS
 62
7
 10
752.645
 20
587.39
 11
752.645
 21
616.654
  0
POLYLINE
  8
Layer1
  6
CONTINUOUS
 62
7
 66
1
 10
0
 20
0
 30
0
  0
VERTEX
  8
Layer1
 10
702.645
 20
615.654
  0
VERTEX
  8
Layer1
 10
752.645
 20
615.654
  0
SEQEND
  0
POLYLINE
  8
Layer1
  6
CONTINUOUS
 62
7
 66
1
 10
0
 20
0
 30
0
  0
VERTEX
  8
Layer1
 10
704.577
 20
615.138
  0
VERTEX
  8
Layer1
 10
702.645
 20
615.654
  0
VERTEX
  8
Layer1
 10
704.577
 20
616.173
  0
SEQEND
  0
POLYLINE
  8
Layer1
  6
CONTINUOUS
 62
7
 66
1
 10
0
 20
0
 30
0
  0
VERTEX
  8
Layer1
 10
750.713
 20
616.173
  0
VERTEX
  8
Layer1
 10
752.645
 20
615.654
  0
VERTEX
  8
Layer1
 10
750.713
 20
615.138
  0
SEQEND
  0
TEXT
  8
Layer1
 62
7
 10
702.614
 20
627.192
 72
1
 11
702.614
 21
627.192
 40
4
 41
1
  1
 125.
  0
LINE
  8
Layer1
  6
CONTINUOUS
 62
7
 10
765.145
 20
587.707
 11
765.145
 21
628.192
  0
LINE
  8
Layer1
  6
CONTINUOUS
 62
7
 10
640.083
 20
587.707
 11
640.083
 21
628.192
  0
POLYLINE
  8
Layer1
  6
CONTINUOUS
 62
7
 66
1
 10
0
 20
0
 30
0
  0
VERTEX
  8
Layer1
 10
765.145
 20
627.192
  0
VERTEX
  8
Layer1
 10
640.083
 20
627.192
  0
SEQEND
  0
POLYLINE
  8
Layer1
  6
CONTINUOUS
 62
7
 66
1
 10
0
 20
0
 30
0
  0
VERTEX
  8
Layer1
 10
763.213
 20
627.71
  0
VERTEX
  8
Layer1
 10
765.145
 20
627.192
  0
VERTEX
  8
Layer1
 10
763.213
 20
626.674
  0
SEQEND
  0
POLYLINE
  8
Layer1
  6
CONTINUOUS
 62
7
 66
1
 10
0
 20
0
 30
0
  0
VERTEX
  8
Layer1
 10
642.015
 20
626.674
  0
VERTEX
  8
Layer1
 10
640.083
 20
627.192
  0
VERTEX
  8
Layer1
 10
642.015
 20
627.71
  0
SEQEND
  0
TEXT
  8
Layer1
 62
7
 10
753.895
 20
442.552
 72
1
 11
753.895
 21
442.552
 40
4
 41
1
  1
 22.5 
  0
LINE
  8
Layer1
  6
CONTINUOUS
 62
7
 10
742.645
 20
489.005
 11
742.645
 21
441.552
  0
LINE
  8
Layer1
  6
CONTINUOUS
 62
7
 10
765.145
 20
469.707
 11
765.145
 21
441.552
  0
POLYLINE
  8
Layer1
  6
CONTINUOUS
 62
7
 66
1
 10
0
 20
0
 30
0
  0
VERTEX
  8
Layer1
 10
742.645
 20
442.552
  0
VERTEX
  8
Layer1
 10
765.145
 20
442.552
  0
SEQEND
  0
POLYLINE
  8
Layer1
  6
CONTINUOUS
 62
7
 66
1
 10
0
 20
0
 30
0
  0
VERTEX
  8
Layer1
 10
744.577
 20
442.034
  0
VERTEX
  8
Layer1
 10
742.645
 20
442.552
  0
VERTEX
  8
Layer1
 10
744.577
 20
443.068
  0
SEQEND
  0
POLYLINE
  8
Layer1
  6
CONTINUOUS
 62
7
 66
1
 10
0
 20
0
 30
0
  0
VERTEX
  8
Layer1
 10
763.213
 20
443.068
  0
VERTEX
  8
Layer1
 10
765.145
 20
442.552
  0
VERTEX
  8
Layer1
 10
763.213
 20
442.034
  0
SEQEND
  0
TEXT
  8
Layer1
 62
7
 10
742.645
 20
432.787
 72
1
 11
742.645
 21
432.787
 40
4
 41
1
  1
 25 
  0
LINE
  8
Layer1
  6
CONTINUOUS
 62
7
 10
730.145
 20
484.511
 11
730.145
 21
431.787
  0
LINE
  8
Layer1
  6
CONTINUOUS
 62
7
 10
755.145
 20
483.095
 11
755.145
 21
431.787
  0
POLYLINE
  8
Layer1
  6
CONTINUOUS
 62
7
 66
1
 10
0
 20
0
 30
0
  0
VERTEX
  8
Layer1
 10
730.145
 20
432.787
  0
VERTEX
  8
Layer1
 10
755.145
 20
432.787
  0
SEQEND
  0
POLYLINE
  8
Layer1
  6
CONTINUOUS
 62
7
 66
1
 10
0
 20
0
 30
0
  0
VERTEX
  8
Layer1
 10
732.077
 20
432.269
  0
VERTEX
  8
Layer1
 10
730.145
 20
432.787
  0
VERTEX
  8
Layer1
 10
732.077
 20
433.303
  0
SEQEND
  0
POLYLINE
  8
Layer1
  6
CONTINUOUS
 62
7
 66
1
 10
0
 20
0
 30
0
  0
VERTEX
  8
Layer1
 10
753.213
 20
433.303
  0
VERTEX
  8
Layer1
 10
755.145
 20
432.787
  0
VERTEX
  8
Layer1
 10
753.213
 20
432.269
  0
SEQEND
  0
TEXT
  8
Layer1
 62
7
 10
772.672
 20
432.787
 72
1
 11
772.672
 21
432.787
 40
4
 41
1
  1
 10 
  0
LINE
  8
Layer1
  6
CONTINUOUS
 62
7
 10
765.145
 20
442.552
 11
765.145
 21
431.787
  0
POLYLINE
  8
Layer1
  6
CONTINUOUS
 62
7
 66
1
 10
0
 20
0
 30
0
  0
VERTEX
  8
Layer1
 10
750.145
 20
432.787
  0
VERTEX
  8
Layer1
 10
755.145
 20
432.787
  0
SEQEND
  0
POLYLINE
  8
Layer1
  6
CONTINUOUS
 62
7
 66
1
 10
0
 20
0
 30
0
  0
VERTEX
  8
Layer1
 10
753.213
 20
433.303
  0
VERTEX
  8
Layer1
 10
755.145
 20
432.787
  0
VERTEX
  8
Layer1
 10
753.213
 20
432.269
  0
SEQEND
  0
POLYLINE
  8
Layer1
  6
CONTINUOUS
 62
7
 66
1
 10
0
 20
0
 30
0
  0
VERTEX
  8
Layer1
 10
776.672
 20
432.787
  0
VERTEX
  8
Layer1
 10
765.145
 20
432.787
  0
SEQEND
  0
POLYLINE
  8
Layer1
  6
CONTINUOUS
 62
7
 66
1
 10
0
 20
0
 30
0
  0
VERTEX
  8
Layer1
 10
767.077
 20
432.269
  0
VERTEX
  8
Layer1
 10
765.145
 20
432.787
  0
VERTEX
  8
Layer1
 10
767.077
 20
433.303
  0
SEQEND
  0
LINE
  8
Layer1
  6
CONTINUOUS
 62
7
 10
755.145
 20
432.787
 11
765.145
 21
432.787
  0
TEXT
  8
Layer1
 62
7
 10
742.645
 20
420.817
 72
1
 11
742.645
 21
420.817
 40
4
 41
1
  1
 45 
  0
LINE
  8
Layer1
  6
CONTINUOUS
 62
7
 10
765.145
 20
432.787
 11
765.145
 21
419.817
  0
LINE
  8
Layer1
  6
CONTINUOUS
 62
7
 10
720.145
 20
488.707
 11
720.145
 21
419.817
  0
POLYLINE
  8
Layer1
  6
CONTINUOUS
 62
7
 66
1
 10
0
 20
0
 30
0
  0
VERTEX
  8
Layer1
 10
765.145
 20
420.817
  0
VERTEX
  8
Layer1
 10
720.145
 20
420.817
  0
SEQEND
  0
POLYLINE
  8
Layer1
  6
CONTINUOUS
 62
7
 66
1
 10
0
 20
0
 30
0
  0
VERTEX
  8
Layer1
 10
763.213
 20
421.335
  0
VERTEX
  8
Layer1
 10
765.145
 20
420.817
  0
VERTEX
  8
Layer1
 10
763.213
 20
420.298
  0
SEQEND
  0
POLYLINE
  8
Layer1
  6
CONTINUOUS
 62
7
 66
1
 10
0
 20
0
 30
0
  0
VERTEX
  8
Layer1
 10
722.077
 20
420.298
  0
VERTEX
  8
Layer1
 10
720.145
 20
420.817
  0
VERTEX
  8
Layer1
 10
722.077
 20
421.335
  0
SEQEND
  0
CIRCLE
  8
Layer1
  6
CONTINUOUS
 62
7
 10
677.645
 20
578.707
 40
4
  0
LINE
  8
Layer1
  6
CENTER1
 62
7
 10
677.645
 20
572.159
 11
677.645
 21
585.655
  0
LINE
  8
Layer1
  6
CENTER1
 62
7
 10
677.645
 20
485.255
 11
677.645
 21
471.76
  0
CIRCLE
  8
Layer1
  6
CONTINUOUS
 62
7
 10
677.645
 20
478.707
 40
4
  0
TEXT
  8
Layer1
 62
7
 10
721.395
 20
605.806
 72
1
 11
721.395
 21
605.806
 40
4
 41
1
  1
 87.5 
  0
LINE
  8
Layer1
  6
CONTINUOUS
 62
7
 10
677.645
 20
585.655
 11
677.645
 21
606.806
  0
LINE
  8
Layer1
  6
CONTINUOUS
 62
7
 10
765.145
 20
596.231
 11
765.145
 21
606.806
  0
POLYLINE
  8
Layer1
  6
CONTINUOUS
 62
7
 66
1
 10
0
 20
0
 30
0
  0
VERTEX
  8
Layer1
 10
677.645
 20
605.806
  0
VERTEX
  8
Layer1
 10
765.145
 20
605.806
  0
SEQEND
  0
POLYLINE
  8
Layer1
  6
CONTINUOUS
 62
7
 66
1
 10
0
 20
0
 30
0
  0
VERTEX
  8
Layer1
 10
679.577
 20
605.289
  0
VERTEX
  8
Layer1
 10
677.645
 20
605.806
  0
VERTEX
  8
Layer1
 10
679.577
 20
606.322
  0
SEQEND
  0
POLYLINE
  8
Layer1
  6
CONTINUOUS
 62
7
 66
1
 10
0
 20
0
 30
0
  0
VERTEX
  8
Layer1
 10
763.213
 20
606.322
  0
VERTEX
  8
Layer1
 10
765.145
 20
605.806
  0
VERTEX
  8
Layer1
 10
763.213
 20
605.289
  0
SEQEND
  0
TEXT
  8
Layer1
 62
7
 10
758.895
 20
615.654
 72
1
 11
758.895
 21
615.654
 40
4
 41
1
  1
 12.5 
  0
LINE
  8
Layer1
  6
CONTINUOUS
 62
7
 10
765.145
 20
627.192
 11
765.145
 21
614.654
  0
POLYLINE
  8
Layer1
  6
CONTINUOUS
 62
7
 66
1
 10
0
 20
0
 30
0
  0
VERTEX
  8
Layer1
 10
752.645
 20
615.654
  0
VERTEX
  8
Layer1
 10
765.145
 20
615.654
  0
SEQEND
  0
POLYLINE
  8
Layer1
  6
CONTINUOUS
 62
7
 66
1
 10
0
 20
0
 30
0
  0
VERTEX
  8
Layer1
 10
754.577
 20
615.138
  0
VERTEX
  8
Layer1
 10
752.645
 20
615.654
  0
VERTEX
  8
Layer1
 10
754.577
 20
616.173
  0
SEQEND
  0
POLYLINE
  8
Layer1
  6
CONTINUOUS
 62
7
 66
1
 10
0
 20
0
 30
0
  0
VERTEX
  8
Layer1
 10
763.213
 20
616.173
  0
VERTEX
  8
Layer1
 10
765.145
 20
615.654
  0
VERTEX
  8
Layer1
 10
763.213
 20
615.138
  0
SEQEND
  0
POLYLINE
  8
Layer1
  6
CONTINUOUS
 62
7
 66
1
 10
0
 20
0
 30
0
 70
1
  0
VERTEX
  8
Layer1
 10
425.942
 20
305.339
  0
VERTEX
  8
Layer1
 10
423.465
 20
303.91
  0
VERTEX
  8
Layer1
 10
423.465
 20
301.05
  0
VERTEX
  8
Layer1
 10
425.942
 20
299.62
  0
VERTEX
  8
Layer1
 10
428.419
 20
301.05
  0
VERTEX
  8
Layer1
 10
428.419
 20
303.91
  0
SEQEND
  0
POLYLINE
  8
Layer1
  6
CONTINUOUS
 62
7
 66
1
 10
0
 20
0
 30
0
 70
1
  0
VERTEX
  8
Layer1
 10
649.645
 20
499.638
  0
VERTEX
  8
Layer1
 10
646.674
 20
497.923
  0
VERTEX
  8
Layer1
 10
646.674
 20
494.493
  0
VERTEX
  8
Layer1
 10
649.645
 20
492.778
  0
VERTEX
  8
Layer1
 10
652.615
 20
494.493
  0
VERTEX
  8
Layer1
 10
652.615
 20
497.923
  0
SEQEND
  0
POLYLINE
  8
Layer1
  6
CONTINUOUS
 62
7
 66
1
 10
0
 20
0
 30
0
 70
1
  0
VERTEX
  8
Layer1
 10
649.645
 20
564.638
  0
VERTEX
  8
Layer1
 10
646.674
 20
562.923
  0
VERTEX
  8
Layer1
 10
646.674
 20
559.493
  0
VERTEX
  8
Layer1
 10
649.645
 20
557.778
  0
VERTEX
  8
Layer1
 10
652.615
 20
559.493
  0
VERTEX
  8
Layer1
 10
652.615
 20
562.923
  0
SEQEND
  0
POLYLINE
  8
Layer1
  6
CONTINUOUS
 62
7
 66
1
 10
0
 20
0
 30
0
 70
1
  0
VERTEX
  8
Layer1
 10
679.645
 20
499.638
  0
VERTEX
  8
Layer1
 10
676.674
 20
497.923
  0
VERTEX
  8
Layer1
 10
676.674
 20
494.493
  0
VERTEX
  8
Layer1
 10
679.645
 20
492.778
  0
VERTEX
  8
Layer1
 10
682.615
 20
494.493
  0
VERTEX
  8
Layer1
 10
682.615
 20
497.923
  0
SEQEND
  0
POLYLINE
  8
Layer1
  6
CONTINUOUS
 62
7
 66
1
 10
0
 20
0
 30
0
 70
1
  0
VERTEX
  8
Layer1
 10
679.645
 20
564.638
  0
VERTEX
  8
Layer1
 10
676.674
 20
562.923
  0
VERTEX
  8
Layer1
 10
676.674
 20
559.493
  0
VERTEX
  8
Layer1
 10
679.645
 20
557.778
  0
VERTEX
  8
Layer1
 10
682.615
 20
559.493
  0
VERTEX
  8
Layer1
 10
682.615
 20
562.923
  0
SEQEND
  0
POLYLINE
  8
Layer1
  6
CONTINUOUS
 62
7
 66
1
 10
0
 20
0
 30
0
 70
1
  0
VERTEX
  8
Layer1
 10
709.645
 20
564.638
  0
VERTEX
  8
Layer1
 10
706.674
 20
562.923
  0
VERTEX
  8
Layer1
 10
706.674
 20
559.493
  0
VERTEX
  8
Layer1
 10
709.645
 20
557.778
  0
VERTEX
  8
Layer1
 10
712.615
 20
559.493
  0
VERTEX
  8
Layer1
 10
712.615
 20
562.923
  0
SEQEND
  0
POLYLINE
  8
Layer1
  6
CONTINUOUS
 62
7
 66
1
 10
0
 20
0
 30
0
  0
VERTEX
  8
Layer1
 10
674.771
 20
475.927
  0
VERTEX
  8
Layer1
 10
648.454
 20
450.288
  0
SEQEND
  0
LINE
  8
Layer1
  6
CONTINUOUS
 62
7
 10
648.454
 20
450.288
 11
596.454
 21
450.288
  0
TEXT
  8
Layer1
 62
7
 10
596.454
 20
450.288
 40
8
 41
1
  1
2-φ8ノック穴
  0
POLYLINE
  8
Layer1
  6
CONTINUOUS
 62
7
 66
1
 10
0
 20
0
 30
0
  0
VERTEX
  8
Layer1
 10
745.473
 20
493.38
  0
VERTEX
  8
Layer1
 10
792.064
 20
453.414
  0
SEQEND
  0
LINE
  8
Layer1
  6
CONTINUOUS
 62
7
 10
792.064
 20
453.414
 11
844.064
 21
453.414
  0
TEXT
  8
Layer1
 62
7
 10
844.064
 20
453.414
 72
2
 11
844.064
 21
453.414
 40
8
 41
1
  1
2-φ8ノック穴
  0
TEXT
  8
Layer1
 62
7
 10
828.421
 20
532.066
 73
3
 11
828.421
 21
532.066
 40
4
 41
1
 50
90
  1
±0.02(ノック穴)
  0
TEXT
  8
Layer1
 62
7
 10
801.098
 20
531.693
 73
3
 11
801.098
 21
531.693
 40
4
 41
1
 50
90
  1
±0.02(ノック穴)
  0
TEXT
  8
Layer1
 62
7
 10
725.345
 20
612.683
 73
3
 11
725.345
 21
612.683
 40
4
 41
1
 50
2.03555e-013
  1
±0.02(ノック穴)
  0
TEXT
  8
Layer1
 62
7
 10
755.709
 20
451.412
 73
3
 11
755.709
 21
451.412
 40
4
 41
1
 50
2.03555e-013
  1
±0.02(ノック穴)
  0
TEXT
  8
Layer1
 62
7
 10
376.191
 20
517.015
 73
3
 11
376.191
 21
517.015
 40
10
 41
1
  1
N-EMC-50-50-25
  0
LINE
  8
Layer1
  6
CONTINUOUS
 62
7
 10
369.186
 20
520.907
 11
369.186
 21
503.467
  0
LINE
  8
Layer1
  6
CONTINUOUS
 62
7
 10
369.186
 20
503.467
 11
451.984
 21
503.467
  0
LINE
  8
Layer1
  6
CONTINUOUS
 62
7
 10
451.984
 20
520.907
 11
451.984
 21
503.467
  0
LINE
  8
Layer1
  6
CONTINUOUS
 62
7
 10
369.186
 20
520.907
 11
451.984
 21
520.907
  0
ENDSEC
  0
EOF
