  0
SECTION
  2
HEADER
  9
$EXTMIN
 10
0
 20
0
  9
$EXTMAX
 10
1189
 20
841
  9
$LTSCALE
 40
1
  9
$LIMMIN
 10
0
 20
0
  9
$LIMMAX
 10
1189
 20
841
  9
$DIMSCALE
 40
1
  0
ENDSEC
  0
SECTION
  2
TABLES
  0
TABLE
  2
LTYPE
 70
9
  0
LTYPE
  2
CONTINUOUS
 70
64
  3
----------
 72
65
 73
0
 40
0
  0
LTYPE
  2
DASHED1
 70
64
  3
--  --  --  --  --  --  --  --  
 72
65
 73
2
 40
2.5
 49
1.25
 49
-1.25
  0
LTYPE
  2
DASHED2
 70
64
  3
----    ----    ----    ----    
 72
65
 73
2
 40
5
 49
2.5
 49
-2.5
  0
LTYPE
  2
DASHED3
 70
64
  3
------  ------  ------  ------  
 72
65
 73
2
 40
5
 49
3.75
 49
-1.25
  0
LTYPE
  2
CENTER1
 70
64
  3
----- - ----- - ----- - ----- - 
 72
65
 73
4
 40
7.5
 49
3.75
 49
-1.25
 49
1.25
 49
-1.25
  0
LTYPE
  2
CENTER2
 70
64
  3
----------  --  ----------  --  
 72
65
 73
4
 40
13.75
 49
6.25
 49
-2.5
 49
2.5
 49
-2.5
  0
LTYPE
  2
PHANTOM1
 70
64
  3
--- - - --- - - --- - - --- - - 
 72
65
 73
6
 40
9.5
 49
3.25
 49
-1.25
 49
1.25
 49
-1.25
 49
1.25
 49
-1.25
  0
LTYPE
  2
PHANTOM2
 70
64
  3
--------  -  -  --------  -  -  
 72
65
 73
6
 40
18
 49
8
 49
-2.5
 49
1.25
 49
-2.5
 49
1.25
 49
-2.5
  0
LTYPE
  2
DOT
 70
64
  3
-   -   -   -   -   -   -   -   
 72
65
 73
2
 40
2.5
 49
0.625
 49
-1.875
  0
LTYPE
  2
HOJO
 70
64
  3
-   -   -   -   -   -   -   -   
 72
65
 73
2
 40
2.5
 49
0.625
 49
-1.875
  0
ENDTAB
  0
TABLE
  2
STYLE
 70
2
  0
STYLE
  2
STANDARD
 70
64
 40
0
 41
1
 42
0
 50
0
 71
0
  3
TXT
  4
BIGFONT
  0
STYLE
  2
TATEGAKI
 70
68
 40
0
 41
1
 42
0
 50
0
 71
0
  3
TXT
  4
EXTFONT
  0
ENDTAB
  0
TABLE
  2
LAYER
 70
1
  0
LAYER
  2
Layer1
 70
64
 62
7
  6
CONTINUOUS
  0
ENDTAB
  0
ENDSEC
  0
SECTION
  2
ENTITIES
  0
LINE
  8
Layer1
  6
CONTINUOUS
 62
7
 10
683.773
 20
317.13
 11
678.122
 21
311.479
  0
LINE
  8
Layer1
  6
CONTINUOUS
 62
7
 10
448.67
 20
235.322
 11
330.67
 21
235.322
  0
LINE
  8
Layer1
  6
CENTER1
 62
7
 10
389.67
 20
392.366
 11
389.67
 21
230.166
  0
LINE
  8
Layer1
  6
CONTINUOUS
 62
7
 10
400.67
 20
235.322
 11
409.038
 21
235.322
  0
LINE
  8
Layer1
  6
CENTER1
 62
7
 10
597.82
 20
515.113
 11
810.139
 21
515.113
  0
CIRCLE
  8
Layer1
  6
CONTINUOUS
 62
7
 10
650.359
 20
590.113
 40
7
  0
CIRCLE
  8
Layer1
  6
CONTINUOUS
 62
7
 10
770.359
 20
590.113
 40
7
  0
CIRCLE
  8
Layer1
  6
CONTINUOUS
 62
7
 10
650.359
 20
440.113
 40
7
  0
CIRCLE
  8
Layer1
  6
CONTINUOUS
 62
7
 10
770.359
 20
440.113
 40
7
  0
CIRCLE
  8
Layer1
  6
CONTINUOUS
 62
7
 10
650.359
 20
590.113
 40
4.5
  0
CIRCLE
  8
Layer1
  6
CONTINUOUS
 62
7
 10
770.359
 20
590.113
 40
4.5
  0
CIRCLE
  8
Layer1
  6
CONTINUOUS
 62
7
 10
650.359
 20
440.113
 40
4.5
  0
CIRCLE
  8
Layer1
  6
CONTINUOUS
 62
7
 10
770.359
 20
440.113
 40
4.5
  0
LINE
  8
Layer1
  6
CONTINUOUS
 62
7
 10
398.544
 20
235.322
 11
416.147
 21
235.322
  0
LINE
  8
Layer1
  6
DASHED1
 62
7
 10
425.187
 20
318.322
 11
425.17
 21
318.306
  0
CIRCLE
  8
Layer1
  6
CONTINUOUS
 62
7
 10
432.17
 20
297.822
 40
4
  0
CIRCLE
  8
Layer1
  6
CONTINUOUS
 62
7
 10
432.17
 20
262.822
 40
4
  0
LINE
  8
Layer1
  6
CENTER1
 62
7
 10
328.364
 20
280.322
 11
442.731
 21
280.322
  0
LINE
  8
Layer1
  6
CENTER1
 62
7
 10
650.359
 20
449.174
 11
650.359
 21
430.983
  0
LINE
  8
Layer1
  6
CENTER1
 62
7
 10
650.359
 20
578.086
 11
650.359
 21
602.14
  0
LINE
  8
Layer1
  6
CENTER1
 62
7
 10
770.359
 20
580.283
 11
770.359
 21
597.648
  0
LINE
  8
Layer1
  6
CENTER1
 62
7
 10
641.115
 20
440.113
 11
779.904
 21
440.113
  0
LINE
  8
Layer1
  6
CENTER1
 62
7
 10
770.359
 20
448.495
 11
770.359
 21
430.113
  0
LINE
  8
Layer1
  6
CONTINUOUS
 62
7
 10
797.859
 20
566.613
 11
805.359
 21
566.613
  0
LINE
  8
Layer1
  6
CONTINUOUS
 62
7
 10
797.859
 20
579.613
 11
805.359
 21
579.613
  0
LINE
  8
Layer1
  6
CONTINUOUS
 62
7
 10
805.359
 20
566.613
 11
805.359
 21
579.613
  0
LINE
  8
Layer1
  6
CONTINUOUS
 62
7
 10
805.859
 20
567.113
 11
805.859
 21
579.113
  0
LINE
  8
Layer1
  6
CONTINUOUS
 62
7
 10
805.359
 20
566.613
 11
805.859
 21
567.113
  0
LINE
  8
Layer1
  6
CONTINUOUS
 62
7
 10
805.359
 20
579.613
 11
805.859
 21
579.113
  0
LINE
  8
Layer1
  6
CONTINUOUS
 62
7
 10
797.859
 20
579.613
 11
797.859
 21
566.613
  0
LINE
  8
Layer1
  6
CONTINUOUS
 62
7
 10
798.436
 20
578.613
 11
804.782
 21
578.613
  0
LINE
  8
Layer1
  6
CONTINUOUS
 62
7
 10
799.013
 20
577.613
 11
804.205
 21
577.613
  0
LINE
  8
Layer1
  6
CONTINUOUS
 62
7
 10
799.59
 20
576.613
 11
803.628
 21
576.613
  0
LINE
  8
Layer1
  6
CONTINUOUS
 62
7
 10
800.166
 20
575.613
 11
803.051
 21
575.613
  0
LINE
  8
Layer1
  6
CONTINUOUS
 62
7
 10
797.859
 20
450.613
 11
805.359
 21
450.613
  0
LINE
  8
Layer1
  6
CONTINUOUS
 62
7
 10
797.859
 20
463.613
 11
805.359
 21
463.613
  0
LINE
  8
Layer1
  6
CONTINUOUS
 62
7
 10
805.359
 20
450.613
 11
805.359
 21
463.613
  0
LINE
  8
Layer1
  6
CONTINUOUS
 62
7
 10
805.859
 20
451.113
 11
805.859
 21
463.113
  0
LINE
  8
Layer1
  6
CONTINUOUS
 62
7
 10
805.359
 20
450.613
 11
805.859
 21
451.113
  0
LINE
  8
Layer1
  6
CONTINUOUS
 62
7
 10
805.359
 20
463.613
 11
805.859
 21
463.113
  0
LINE
  8
Layer1
  6
CONTINUOUS
 62
7
 10
797.859
 20
463.613
 11
797.859
 21
450.613
  0
LINE
  8
Layer1
  6
CONTINUOUS
 62
7
 10
798.436
 20
462.613
 11
804.782
 21
462.613
  0
LINE
  8
Layer1
  6
CONTINUOUS
 62
7
 10
799.013
 20
461.613
 11
804.205
 21
461.613
  0
LINE
  8
Layer1
  6
CONTINUOUS
 62
7
 10
799.59
 20
460.613
 11
803.628
 21
460.613
  0
LINE
  8
Layer1
  6
CONTINUOUS
 62
7
 10
800.166
 20
459.613
 11
803.051
 21
459.613
  0
CIRCLE
  8
Layer1
  6
CONTINUOUS
 62
7
 10
686.859
 20
515.113
 40
3.76681
  0
ARC
  8
Layer1
  6
CONTINUOUS
 62
7
 10
682.387
 20
515.147
 40
1
 50
140.711
 51
225
  0
LINE
  8
Layer1
  6
CONTINUOUS
 62
7
 10
691.369
 20
516.757
 11
693.633
 21
516.757
  0
LINE
  8
Layer1
  6
CONTINUOUS
 62
7
 10
691.369
 20
513.271
 11
693.633
 21
513.271
  0
LINE
  8
Layer1
  6
CONTINUOUS
 62
7
 10
693.633
 20
516.757
 11
693.633
 21
513.271
  0
ARC
  8
Layer1
  6
CONTINUOUS
 62
7
 10
686.859
 20
515.113
 40
4.80058
 50
20.031
 51
140.098
  0
ARC
  8
Layer1
  6
CONTINUOUS
 62
7
 10
686.859
 20
515.113
 40
4.80058
 50
218.056
 51
337.793
  0
ARC
  8
Layer1
  6
CONTINUOUS
 62
7
 10
673.966
 20
507.862
 40
10.1292
 50
24.1178
 51
40.4581
  0
ARC
  8
Layer1
  6
CONTINUOUS
 62
7
 10
673.906
 20
522.353
 40
10.1292
 50
319.542
 51
335.882
  0
ARC
  8
Layer1
  6
CONTINUOUS
 62
7
 10
692.5
 20
516.757
 40
0.542282
 50
0
 51
180
  0
ARC
  8
Layer1
  6
CONTINUOUS
 62
7
 10
692.5
 20
513.271
 40
0.657613
 50
180
 51
2.03555e-013
  0
LINE
  8
Layer1
  6
CONTINUOUS
 62
7
 10
385.869
 20
326.915
 11
393.715
 21
326.915
  0
LINE
  8
Layer1
  6
CONTINUOUS
 62
7
 10
385.541
 20
326.311
 11
394.015
 21
326.311
  0
LINE
  8
Layer1
  6
CONTINUOUS
 62
7
 10
385.446
 20
322.932
 11
393.895
 21
322.932
  0
LINE
  8
Layer1
  6
CONTINUOUS
 62
7
 10
394.619
 20
322.208
 11
384.722
 21
322.208
  0
LINE
  8
Layer1
  6
CONTINUOUS
 62
7
 10
394.619
 20
322.208
 11
394.619
 21
320.337
  0
LINE
  8
Layer1
  6
CONTINUOUS
 62
7
 10
384.722
 20
322.208
 11
384.722
 21
320.337
  0
POLYLINE
  8
Layer1
  6
CONTINUOUS
 62
7
 66
1
 10
0
 20
0
 30
0
  0
VERTEX
  8
Layer1
 10
389.664
 20
324.128
  0
VERTEX
  8
Layer1
 10
389.599
 20
324.185
  0
VERTEX
  8
Layer1
 10
389.532
 20
324.24
  0
VERTEX
  8
Layer1
 10
389.464
 20
324.294
  0
VERTEX
  8
Layer1
 10
389.394
 20
324.346
  0
VERTEX
  8
Layer1
 10
389.323
 20
324.396
  0
VERTEX
  8
Layer1
 10
389.251
 20
324.444
  0
VERTEX
  8
Layer1
 10
389.177
 20
324.49
  0
VERTEX
  8
Layer1
 10
389.103
 20
324.534
  0
VERTEX
  8
Layer1
 10
389.027
 20
324.577
  0
VERTEX
  8
Layer1
 10
388.951
 20
324.617
  0
VERTEX
  8
Layer1
 10
388.873
 20
324.656
  0
VERTEX
  8
Layer1
 10
388.794
 20
324.692
  0
VERTEX
  8
Layer1
 10
388.715
 20
324.726
  0
VERTEX
  8
Layer1
 10
388.634
 20
324.759
  0
VERTEX
  8
Layer1
 10
388.553
 20
324.789
  0
VERTEX
  8
Layer1
 10
388.471
 20
324.817
  0
VERTEX
  8
Layer1
 10
388.388
 20
324.843
  0
VERTEX
  8
Layer1
 10
388.305
 20
324.867
  0
VERTEX
  8
Layer1
 10
388.221
 20
324.888
  0
VERTEX
  8
Layer1
 10
388.137
 20
324.908
  0
VERTEX
  8
Layer1
 10
388.051
 20
324.925
  0
VERTEX
  8
Layer1
 10
387.966
 20
324.94
  0
VERTEX
  8
Layer1
 10
387.88
 20
324.953
  0
VERTEX
  8
Layer1
 10
387.794
 20
324.964
  0
VERTEX
  8
Layer1
 10
387.708
 20
324.972
  0
VERTEX
  8
Layer1
 10
387.621
 20
324.978
  0
VERTEX
  8
Layer1
 10
387.534
 20
324.982
  0
VERTEX
  8
Layer1
 10
387.448
 20
324.984
  0
VERTEX
  8
Layer1
 10
387.361
 20
324.983
  0
VERTEX
  8
Layer1
 10
387.274
 20
324.98
  0
VERTEX
  8
Layer1
 10
387.188
 20
324.975
  0
VERTEX
  8
Layer1
 10
387.101
 20
324.968
  0
VERTEX
  8
Layer1
 10
387.015
 20
324.958
  0
VERTEX
  8
Layer1
 10
386.929
 20
324.947
  0
VERTEX
  8
Layer1
 10
386.844
 20
324.933
  0
VERTEX
  8
Layer1
 10
386.759
 20
324.916
  0
VERTEX
  8
Layer1
 10
386.674
 20
324.898
  0
VERTEX
  8
Layer1
 10
386.59
 20
324.877
  0
VERTEX
  8
Layer1
 10
386.506
 20
324.855
  0
VERTEX
  8
Layer1
 10
386.423
 20
324.83
  0
VERTEX
  8
Layer1
 10
386.34
 20
324.803
  0
VERTEX
  8
Layer1
 10
386.259
 20
324.774
  0
VERTEX
  8
Layer1
 10
386.178
 20
324.742
  0
VERTEX
  8
Layer1
 10
386.099
 20
324.709
  0
VERTEX
  8
Layer1
 10
386.019
 20
324.674
  0
VERTEX
  8
Layer1
 10
385.941
 20
324.636
  0
VERTEX
  8
Layer1
 10
385.864
 20
324.597
  0
VERTEX
  8
Layer1
 10
385.787
 20
324.555
  0
SEQEND
  0
POLYLINE
  8
Layer1
  6
CONTINUOUS
 62
7
 66
1
 10
0
 20
0
 30
0
  0
VERTEX
  8
Layer1
 10
394.016
 20
324.501
  0
VERTEX
  8
Layer1
 10
393.929
 20
324.536
  0
VERTEX
  8
Layer1
 10
393.84
 20
324.57
  0
VERTEX
  8
Layer1
 10
393.753
 20
324.602
  0
VERTEX
  8
Layer1
 10
393.662
 20
324.632
  0
VERTEX
  8
Layer1
 10
393.572
 20
324.661
  0
VERTEX
  8
Layer1
 10
393.481
 20
324.687
  0
VERTEX
  8
Layer1
 10
393.39
 20
324.712
  0
VERTEX
  8
Layer1
 10
393.299
 20
324.735
  0
VERTEX
  8
Layer1
 10
393.207
 20
324.756
  0
VERTEX
  8
Layer1
 10
393.114
 20
324.776
  0
VERTEX
  8
Layer1
 10
393.022
 20
324.793
  0
VERTEX
  8
Layer1
 10
392.928
 20
324.809
  0
VERTEX
  8
Layer1
 10
392.835
 20
324.823
  0
VERTEX
  8
Layer1
 10
392.741
 20
324.834
  0
VERTEX
  8
Layer1
 10
392.647
 20
324.844
  0
VERTEX
  8
Layer1
 10
392.553
 20
324.853
  0
VERTEX
  8
Layer1
 10
392.459
 20
324.859
  0
VERTEX
  8
Layer1
 10
392.365
 20
324.863
  0
VERTEX
  8
Layer1
 10
392.27
 20
324.866
  0
VERTEX
  8
Layer1
 10
392.176
 20
324.866
  0
VERTEX
  8
Layer1
 10
392.081
 20
324.865
  0
VERTEX
  8
Layer1
 10
391.987
 20
324.862
  0
VERTEX
  8
Layer1
 10
391.893
 20
324.857
  0
VERTEX
  8
Layer1
 10
391.799
 20
324.85
  0
VERTEX
  8
Layer1
 10
391.705
 20
324.841
  0
VERTEX
  8
Layer1
 10
391.611
 20
324.83
  0
VERTEX
  8
Layer1
 10
391.517
 20
324.818
  0
VERTEX
  8
Layer1
 10
391.424
 20
324.803
  0
VERTEX
  8
Layer1
 10
391.331
 20
324.787
  0
VERTEX
  8
Layer1
 10
391.239
 20
324.769
  0
VERTEX
  8
Layer1
 10
391.147
 20
324.749
  0
VERTEX
  8
Layer1
 10
391.054
 20
324.727
  0
VERTEX
  8
Layer1
 10
390.964
 20
324.703
  0
VERTEX
  8
Layer1
 10
390.872
 20
324.677
  0
VERTEX
  8
Layer1
 10
390.782
 20
324.65
  0
VERTEX
  8
Layer1
 10
390.691
 20
324.621
  0
VERTEX
  8
Layer1
 10
390.602
 20
324.59
  0
VERTEX
  8
Layer1
 10
390.514
 20
324.557
  0
VERTEX
  8
Layer1
 10
390.426
 20
324.523
  0
VERTEX
  8
Layer1
 10
390.34
 20
324.487
  0
VERTEX
  8
Layer1
 10
390.253
 20
324.449
  0
VERTEX
  8
Layer1
 10
390.166
 20
324.409
  0
VERTEX
  8
Layer1
 10
390.082
 20
324.368
  0
VERTEX
  8
Layer1
 10
389.997
 20
324.324
  0
VERTEX
  8
Layer1
 10
389.914
 20
324.28
  0
VERTEX
  8
Layer1
 10
389.832
 20
324.233
  0
VERTEX
  8
Layer1
 10
389.751
 20
324.185
  0
VERTEX
  8
Layer1
 10
389.67
 20
324.136
  0
SEQEND
  0
LINE
  8
Layer1
  6
CONTINUOUS
 62
7
 10
386.133
 20
324.724
 11
385.799
 21
324.534
  0
LINE
  8
Layer1
  6
CONTINUOUS
 62
7
 10
385.869
 20
326.915
 11
385.009
 21
325.331
  0
LINE
  8
Layer1
  6
CONTINUOUS
 62
7
 10
393.715
 20
326.915
 11
394.601
 21
325.099
  0
LINE
  8
Layer1
  6
CONTINUOUS
 62
7
 10
393.532
 20
324.645
 11
394.016
 21
324.501
  0
POLYLINE
  8
Layer1
  6
CONTINUOUS
 62
7
 66
1
 10
0
 20
0
 30
0
  0
VERTEX
  8
Layer1
 10
385.009
 20
325.331
  0
VERTEX
  8
Layer1
 10
384.994
 20
325.303
  0
VERTEX
  8
Layer1
 10
384.981
 20
325.275
  0
VERTEX
  8
Layer1
 10
384.969
 20
325.245
  0
VERTEX
  8
Layer1
 10
384.958
 20
325.216
  0
VERTEX
  8
Layer1
 10
384.949
 20
325.185
  0
VERTEX
  8
Layer1
 10
384.942
 20
325.154
  0
VERTEX
  8
Layer1
 10
384.937
 20
325.123
  0
VERTEX
  8
Layer1
 10
384.933
 20
325.092
  0
VERTEX
  8
Layer1
 10
384.931
 20
325.06
  0
VERTEX
  8
Layer1
 10
384.931
 20
325.029
  0
VERTEX
  8
Layer1
 10
384.932
 20
324.997
  0
VERTEX
  8
Layer1
 10
384.936
 20
324.966
  0
VERTEX
  8
Layer1
 10
384.941
 20
324.934
  0
VERTEX
  8
Layer1
 10
384.947
 20
324.903
  0
VERTEX
  8
Layer1
 10
384.955
 20
324.873
  0
VERTEX
  8
Layer1
 10
384.965
 20
324.843
  0
VERTEX
  8
Layer1
 10
384.977
 20
324.813
  0
VERTEX
  8
Layer1
 10
384.99
 20
324.784
  0
VERTEX
  8
Layer1
 10
385.004
 20
324.756
  0
VERTEX
  8
Layer1
 10
385.02
 20
324.729
  0
VERTEX
  8
Layer1
 10
385.038
 20
324.703
  0
VERTEX
  8
Layer1
 10
385.057
 20
324.678
  0
VERTEX
  8
Layer1
 10
385.077
 20
324.653
  0
VERTEX
  8
Layer1
 10
385.099
 20
324.63
  0
VERTEX
  8
Layer1
 10
385.122
 20
324.609
  0
VERTEX
  8
Layer1
 10
385.147
 20
324.588
  0
VERTEX
  8
Layer1
 10
385.171
 20
324.569
  0
VERTEX
  8
Layer1
 10
385.197
 20
324.551
  0
VERTEX
  8
Layer1
 10
385.224
 20
324.534
  0
VERTEX
  8
Layer1
 10
385.253
 20
324.52
  0
VERTEX
  8
Layer1
 10
385.282
 20
324.506
  0
VERTEX
  8
Layer1
 10
385.311
 20
324.494
  0
VERTEX
  8
Layer1
 10
385.34
 20
324.484
  0
VERTEX
  8
Layer1
 10
385.371
 20
324.476
  0
VERTEX
  8
Layer1
 10
385.402
 20
324.469
  0
VERTEX
  8
Layer1
 10
385.433
 20
324.464
  0
VERTEX
  8
Layer1
 10
385.465
 20
324.46
  0
VERTEX
  8
Layer1
 10
385.496
 20
324.459
  0
VERTEX
  8
Layer1
 10
385.527
 20
324.459
  0
VERTEX
  8
Layer1
 10
385.56
 20
324.46
  0
VERTEX
  8
Layer1
 10
385.59
 20
324.464
  0
VERTEX
  8
Layer1
 10
385.622
 20
324.469
  0
VERTEX
  8
Layer1
 10
385.653
 20
324.476
  0
VERTEX
  8
Layer1
 10
385.683
 20
324.484
  0
VERTEX
  8
Layer1
 10
385.714
 20
324.494
  0
VERTEX
  8
Layer1
 10
385.743
 20
324.506
  0
VERTEX
  8
Layer1
 10
385.772
 20
324.519
  0
VERTEX
  8
Layer1
 10
385.799
 20
324.534
  0
SEQEND
  0
POLYLINE
  8
Layer1
  6
CONTINUOUS
 62
7
 66
1
 10
0
 20
0
 30
0
  0
VERTEX
  8
Layer1
 10
394.016
 20
324.501
  0
VERTEX
  8
Layer1
 10
394.037
 20
324.495
  0
VERTEX
  8
Layer1
 10
394.058
 20
324.49
  0
VERTEX
  8
Layer1
 10
394.08
 20
324.487
  0
VERTEX
  8
Layer1
 10
394.1
 20
324.484
  0
VERTEX
  8
Layer1
 10
394.121
 20
324.482
  0
VERTEX
  8
Layer1
 10
394.143
 20
324.481
  0
VERTEX
  8
Layer1
 10
394.164
 20
324.481
  0
VERTEX
  8
Layer1
 10
394.186
 20
324.482
  0
VERTEX
  8
Layer1
 10
394.207
 20
324.484
  0
VERTEX
  8
Layer1
 10
394.228
 20
324.487
  0
VERTEX
  8
Layer1
 10
394.249
 20
324.491
  0
VERTEX
  8
Layer1
 10
394.27
 20
324.496
  0
VERTEX
  8
Layer1
 10
394.291
 20
324.502
  0
VERTEX
  8
Layer1
 10
394.311
 20
324.509
  0
VERTEX
  8
Layer1
 10
394.331
 20
324.517
  0
VERTEX
  8
Layer1
 10
394.35
 20
324.525
  0
VERTEX
  8
Layer1
 10
394.369
 20
324.535
  0
VERTEX
  8
Layer1
 10
394.388
 20
324.545
  0
VERTEX
  8
Layer1
 10
394.407
 20
324.556
  0
VERTEX
  8
Layer1
 10
394.424
 20
324.568
  0
VERTEX
  8
Layer1
 10
394.441
 20
324.581
  0
VERTEX
  8
Layer1
 10
394.458
 20
324.594
  0
VERTEX
  8
Layer1
 10
394.474
 20
324.609
  0
VERTEX
  8
Layer1
 10
394.489
 20
324.623
  0
VERTEX
  8
Layer1
 10
394.504
 20
324.639
  0
VERTEX
  8
Layer1
 10
394.518
 20
324.655
  0
VERTEX
  8
Layer1
 10
394.532
 20
324.672
  0
VERTEX
  8
Layer1
 10
394.543
 20
324.69
  0
VERTEX
  8
Layer1
 10
394.555
 20
324.708
  0
VERTEX
  8
Layer1
 10
394.566
 20
324.726
  0
VERTEX
  8
Layer1
 10
394.575
 20
324.745
  0
VERTEX
  8
Layer1
 10
394.584
 20
324.765
  0
VERTEX
  8
Layer1
 10
394.592
 20
324.785
  0
VERTEX
  8
Layer1
 10
394.6
 20
324.805
  0
VERTEX
  8
Layer1
 10
394.606
 20
324.825
  0
VERTEX
  8
Layer1
 10
394.611
 20
324.846
  0
VERTEX
  8
Layer1
 10
394.616
 20
324.867
  0
VERTEX
  8
Layer1
 10
394.619
 20
324.888
  0
VERTEX
  8
Layer1
 10
394.622
 20
324.909
  0
VERTEX
  8
Layer1
 10
394.623
 20
324.931
  0
VERTEX
  8
Layer1
 10
394.624
 20
324.952
  0
VERTEX
  8
Layer1
 10
394.623
 20
324.973
  0
VERTEX
  8
Layer1
 10
394.622
 20
324.995
  0
VERTEX
  8
Layer1
 10
394.62
 20
325.016
  0
VERTEX
  8
Layer1
 10
394.618
 20
325.037
  0
VERTEX
  8
Layer1
 10
394.612
 20
325.058
  0
VERTEX
  8
Layer1
 10
394.608
 20
325.079
  0
VERTEX
  8
Layer1
 10
394.601
 20
325.099
  0
SEQEND
  0
LINE
  8
Layer1
  6
CONTINUOUS
 62
7
 10
392.739
 20
324.835
 11
392.739
 21
322.932
  0
LINE
  8
Layer1
  6
CONTINUOUS
 62
7
 10
386.593
 20
324.878
 11
386.593
 21
322.932
  0
LINE
  8
Layer1
  6
CONTINUOUS
 62
7
 10
385.446
 20
322.932
 11
384.722
 21
322.208
  0
LINE
  8
Layer1
  6
CONTINUOUS
 62
7
 10
393.895
 20
322.932
 11
394.619
 21
322.208
  0
CIRCLE
  8
Layer1
  6
CONTINUOUS
 62
7
 10
710.359
 20
440.113
 40
7
  0
CIRCLE
  8
Layer1
  6
CONTINUOUS
 62
7
 10
710.359
 20
440.113
 40
4.5
  0
LINE
  8
Layer1
  6
CENTER1
 62
7
 10
710.359
 20
450.952
 11
710.359
 21
431.083
  0
CIRCLE
  8
Layer1
  6
CONTINUOUS
 62
7
 10
710.359
 20
590.113
 40
7
  0
CIRCLE
  8
Layer1
  6
CONTINUOUS
 62
7
 10
710.359
 20
590.113
 40
4.5
  0
LINE
  8
Layer1
  6
CENTER1
 62
7
 10
710.359
 20
581.533
 11
710.359
 21
598.898
  0
LINE
  8
Layer1
  6
CONTINUOUS
 62
7
 10
737.859
 20
580.113
 11
737.859
 21
450.113
  0
LINE
  8
Layer1
  6
CENTER1
 62
7
 10
739.306
 20
457.613
 11
782.215
 21
457.613
  0
CIRCLE
  8
Layer1
  6
CONTINUOUS
 62
7
 10
772.859
 20
572.613
 40
4.5
  0
CIRCLE
  8
Layer1
  6
CONTINUOUS
 62
7
 10
772.859
 20
457.613
 40
4.5
  0
CIRCLE
  8
Layer1
  6
CONTINUOUS
 62
7
 10
747.859
 20
457.613
 40
4.5
  0
CIRCLE
  8
Layer1
  6
CONTINUOUS
 62
7
 10
747.859
 20
572.613
 40
4.5
  0
CIRCLE
  8
Layer1
  6
DASHED1
 62
7
 10
772.859
 20
572.613
 40
7
  0
CIRCLE
  8
Layer1
  6
DASHED1
 62
7
 10
772.859
 20
457.613
 40
7
  0
CIRCLE
  8
Layer1
  6
DASHED1
 62
7
 10
747.859
 20
457.613
 40
7
  0
CIRCLE
  8
Layer1
  6
DASHED1
 62
7
 10
747.859
 20
572.613
 40
7
  0
LINE
  8
Layer1
  6
CENTER1
 62
7
 10
772.859
 20
468.052
 11
772.859
 21
446.173
  0
LINE
  8
Layer1
  6
CENTER1
 62
7
 10
772.859
 20
583.933
 11
772.859
 21
563.162
  0
LINE
  8
Layer1
  6
CENTER1
 62
7
 10
747.859
 20
465.303
 11
747.859
 21
445.917
  0
LINE
  8
Layer1
  6
CENTER1
 62
7
 10
747.859
 20
581.688
 11
747.859
 21
563.957
  0
LINE
  8
Layer1
  6
CONTINUOUS
 62
7
 10
735.859
 20
580.113
 11
735.859
 21
450.113
  0
POLYLINE
  8
Layer1
  6
CONTINUOUS
 62
7
 66
1
 10
0
 20
0
 30
0
  0
VERTEX
  8
Layer1
 10
701.732
 20
523.642
  0
VERTEX
  8
Layer1
 10
701.717
 20
523.693
  0
VERTEX
  8
Layer1
 10
701.697
 20
523.755
  0
VERTEX
  8
Layer1
 10
701.676
 20
523.817
  0
VERTEX
  8
Layer1
 10
701.652
 20
523.878
  0
VERTEX
  8
Layer1
 10
701.625
 20
523.938
  0
VERTEX
  8
Layer1
 10
701.597
 20
523.997
  0
VERTEX
  8
Layer1
 10
701.567
 20
524.055
  0
VERTEX
  8
Layer1
 10
701.535
 20
524.113
  0
VERTEX
  8
Layer1
 10
701.501
 20
524.169
  0
VERTEX
  8
Layer1
 10
701.466
 20
524.224
  0
VERTEX
  8
Layer1
 10
701.45
 20
524.248
  0
SEQEND
  0
LINE
  8
Layer1
  6
DASHED1
 62
7
 10
671.803
 20
523.113
 11
671.803
 21
507.113
  0
LINE
  8
Layer1
  6
DASHED1
 62
7
 10
699.508
 20
505.113
 11
673.824
 21
505.113
  0
LINE
  8
Layer1
  6
DASHED1
 62
7
 10
699.306
 20
525.113
 11
673.803
 21
525.113
  0
LINE
  8
Layer1
  6
DASHED1
 62
7
 10
701.803
 20
522.9
 11
701.803
 21
507.193
  0
POLYLINE
  8
Layer1
  6
CONTINUOUS
 62
7
 66
1
 10
0
 20
0
 30
0
  0
VERTEX
  8
Layer1
 10
700.519
 20
505.245
  0
VERTEX
  8
Layer1
 10
700.568
 20
505.265
  0
VERTEX
  8
Layer1
 10
700.628
 20
505.291
  0
VERTEX
  8
Layer1
 10
700.688
 20
505.319
  0
VERTEX
  8
Layer1
 10
700.746
 20
505.349
  0
VERTEX
  8
Layer1
 10
700.803
 20
505.381
  0
VERTEX
  8
Layer1
 10
700.859
 20
505.414
  0
VERTEX
  8
Layer1
 10
700.914
 20
505.45
  0
VERTEX
  8
Layer1
 10
700.968
 20
505.487
  0
VERTEX
  8
Layer1
 10
701.022
 20
505.526
  0
VERTEX
  8
Layer1
 10
701.072
 20
505.567
  0
VERTEX
  8
Layer1
 10
701.123
 20
505.609
  0
VERTEX
  8
Layer1
 10
701.171
 20
505.653
  0
VERTEX
  8
Layer1
 10
701.217
 20
505.698
  0
VERTEX
  8
Layer1
 10
701.263
 20
505.745
  0
VERTEX
  8
Layer1
 10
701.307
 20
505.794
  0
VERTEX
  8
Layer1
 10
701.349
 20
505.844
  0
VERTEX
  8
Layer1
 10
701.39
 20
505.895
  0
VERTEX
  8
Layer1
 10
701.429
 20
505.948
  0
VERTEX
  8
Layer1
 10
701.466
 20
506.001
  0
VERTEX
  8
Layer1
 10
701.501
 20
506.056
  0
VERTEX
  8
Layer1
 10
701.535
 20
506.113
  0
VERTEX
  8
Layer1
 10
701.567
 20
506.17
  0
VERTEX
  8
Layer1
 10
701.597
 20
506.228
  0
VERTEX
  8
Layer1
 10
701.607
 20
506.249
  0
SEQEND
  0
LINE
  8
Layer1
  6
CONTINUOUS
 62
7
 10
671.803
 20
507.113
 11
671.804
 21
507.058
  0
POLYLINE
  8
Layer1
  6
CONTINUOUS
 62
7
 66
1
 10
0
 20
0
 30
0
  0
VERTEX
  8
Layer1
 10
673.803
 20
525.113
  0
VERTEX
  8
Layer1
 10
673.738
 20
525.111
  0
VERTEX
  8
Layer1
 10
673.689
 20
525.109
  0
SEQEND
  0
LINE
  8
Layer1
  6
CONTINUOUS
 62
7
 10
673.803
 20
525.113
 11
674.903
 21
525.113
  0
LINE
  8
Layer1
  6
CONTINUOUS
 62
7
 10
673.824
 20
505.113
 11
674.903
 21
505.113
  0
LINE
  8
Layer1
  6
CONTINUOUS
 62
7
 10
671.803
 20
507.113
 11
671.803
 21
508.069
  0
LINE
  8
Layer1
  6
CONTINUOUS
 62
7
 10
701.803
 20
508.339
 11
701.803
 21
507.193
  0
POLYLINE
  8
Layer1
  6
CONTINUOUS
 62
7
 66
1
 10
0
 20
0
 30
0
  0
VERTEX
  8
Layer1
 10
700.587
 20
524.952
  0
VERTEX
  8
Layer1
 10
700.568
 20
524.96
  0
VERTEX
  8
Layer1
 10
700.508
 20
524.984
  0
VERTEX
  8
Layer1
 10
700.446
 20
525.006
  0
VERTEX
  8
Layer1
 10
700.384
 20
525.026
  0
VERTEX
  8
Layer1
 10
700.321
 20
525.044
  0
VERTEX
  8
Layer1
 10
700.258
 20
525.06
  0
VERTEX
  8
Layer1
 10
700.193
 20
525.074
  0
VERTEX
  8
Layer1
 10
700.129
 20
525.086
  0
VERTEX
  8
Layer1
 10
700.064
 20
525.095
  0
VERTEX
  8
Layer1
 10
699.999
 20
525.103
  0
VERTEX
  8
Layer1
 10
699.934
 20
525.108
  0
VERTEX
  8
Layer1
 10
699.913
 20
525.109
  0
SEQEND
  0
POLYLINE
  8
Layer1
  6
CONTINUOUS
 62
7
 66
1
 10
0
 20
0
 30
0
  0
VERTEX
  8
Layer1
 10
672.948
 20
524.92
  0
VERTEX
  8
Layer1
 10
672.918
 20
524.906
  0
VERTEX
  8
Layer1
 10
672.86
 20
524.876
  0
VERTEX
  8
Layer1
 10
672.803
 20
524.845
  0
VERTEX
  8
Layer1
 10
672.747
 20
524.811
  0
VERTEX
  8
Layer1
 10
672.692
 20
524.776
  0
VERTEX
  8
Layer1
 10
672.638
 20
524.738
  0
VERTEX
  8
Layer1
 10
672.585
 20
524.699
  0
VERTEX
  8
Layer1
 10
672.534
 20
524.659
  0
VERTEX
  8
Layer1
 10
672.484
 20
524.616
  0
VERTEX
  8
Layer1
 10
672.436
 20
524.572
  0
VERTEX
  8
Layer1
 10
672.389
 20
524.527
  0
VERTEX
  8
Layer1
 10
672.343
 20
524.48
  0
VERTEX
  8
Layer1
 10
672.3
 20
524.431
  0
VERTEX
  8
Layer1
 10
672.257
 20
524.381
  0
VERTEX
  8
Layer1
 10
672.216
 20
524.33
  0
VERTEX
  8
Layer1
 10
672.177
 20
524.278
  0
VERTEX
  8
Layer1
 10
672.14
 20
524.224
  0
VERTEX
  8
Layer1
 10
672.105
 20
524.169
  0
VERTEX
  8
Layer1
 10
672.071
 20
524.113
  0
VERTEX
  8
Layer1
 10
672.04
 20
524.055
  0
VERTEX
  8
Layer1
 10
672.034
 20
524.046
  0
SEQEND
  0
POLYLINE
  8
Layer1
  6
CONTINUOUS
 62
7
 66
1
 10
0
 20
0
 30
0
  0
VERTEX
  8
Layer1
 10
671.807
 20
523.237
  0
VERTEX
  8
Layer1
 10
671.804
 20
523.178
  0
VERTEX
  8
Layer1
 10
671.803
 20
523.113
  0
SEQEND
  0
POLYLINE
  8
Layer1
  6
CONTINUOUS
 62
7
 66
1
 10
0
 20
0
 30
0
  0
VERTEX
  8
Layer1
 10
671.968
 20
506.317
  0
VERTEX
  8
Layer1
 10
671.981
 20
506.287
  0
VERTEX
  8
Layer1
 10
672.009
 20
506.228
  0
VERTEX
  8
Layer1
 10
672.04
 20
506.17
  0
VERTEX
  8
Layer1
 10
672.071
 20
506.113
  0
VERTEX
  8
Layer1
 10
672.105
 20
506.056
  0
VERTEX
  8
Layer1
 10
672.14
 20
506.001
  0
VERTEX
  8
Layer1
 10
672.177
 20
505.948
  0
VERTEX
  8
Layer1
 10
672.216
 20
505.895
  0
VERTEX
  8
Layer1
 10
672.257
 20
505.844
  0
VERTEX
  8
Layer1
 10
672.3
 20
505.794
  0
VERTEX
  8
Layer1
 10
672.343
 20
505.745
  0
VERTEX
  8
Layer1
 10
672.389
 20
505.698
  0
VERTEX
  8
Layer1
 10
672.436
 20
505.653
  0
VERTEX
  8
Layer1
 10
672.484
 20
505.609
  0
VERTEX
  8
Layer1
 10
672.534
 20
505.567
  0
VERTEX
  8
Layer1
 10
672.585
 20
505.526
  0
VERTEX
  8
Layer1
 10
672.638
 20
505.487
  0
VERTEX
  8
Layer1
 10
672.692
 20
505.45
  0
VERTEX
  8
Layer1
 10
672.747
 20
505.414
  0
VERTEX
  8
Layer1
 10
672.803
 20
505.381
  0
VERTEX
  8
Layer1
 10
672.86
 20
505.349
  0
VERTEX
  8
Layer1
 10
672.918
 20
505.319
  0
VERTEX
  8
Layer1
 10
672.978
 20
505.291
  0
VERTEX
  8
Layer1
 10
673.038
 20
505.265
  0
VERTEX
  8
Layer1
 10
673.083
 20
505.247
  0
SEQEND
  0
LINE
  8
Layer1
  6
CENTER1
 62
7
 10
724.859
 20
564.614
 11
724.859
 21
583.209
  0
LINE
  8
Layer1
  6
CENTER1
 62
7
 10
640.605
 20
572.613
 11
657.006
 21
572.613
  0
LINE
  8
Layer1
  6
CENTER1
 62
7
 10
716.729
 20
572.613
 11
732.883
 21
572.613
  0
LINE
  8
Layer1
  6
CENTER1
 62
7
 10
686.859
 20
564.928
 11
686.859
 21
583.522
  0
LINE
  8
Layer1
  6
CENTER1
 62
7
 10
648.859
 20
563.653
 11
648.859
 21
582.248
  0
CIRCLE
  8
Layer1
  6
CONTINUOUS
 62
7
 10
648.859
 20
572.613
 40
6.5
  0
CIRCLE
  8
Layer1
  6
CONTINUOUS
 62
7
 10
724.859
 20
572.613
 40
6.5
  0
LINE
  8
Layer1
  6
CENTER1
 62
7
 10
678.151
 20
572.613
 11
695.461
 21
572.613
  0
CIRCLE
  8
Layer1
  6
CONTINUOUS
 62
7
 10
686.859
 20
572.613
 40
6.5
  0
LINE
  8
Layer1
  6
CENTER1
 62
7
 10
640.605
 20
457.613
 11
657.006
 21
457.613
  0
LINE
  8
Layer1
  6
CENTER1
 62
7
 10
716.729
 20
457.613
 11
732.883
 21
457.613
  0
CIRCLE
  8
Layer1
  6
CONTINUOUS
 62
7
 10
648.806
 20
457.613
 40
6.5
  0
CIRCLE
  8
Layer1
  6
CONTINUOUS
 62
7
 10
724.806
 20
457.613
 40
6.5
  0
LINE
  8
Layer1
  6
CENTER1
 62
7
 10
678.832
 20
457.613
 11
696.142
 21
457.613
  0
CIRCLE
  8
Layer1
  6
CONTINUOUS
 62
7
 10
686.806
 20
457.613
 40
6.5
  0
LINE
  8
Layer1
  6
CENTER1
 62
7
 10
648.859
 20
449.306
 11
648.859
 21
465.919
  0
LINE
  8
Layer1
  6
CENTER1
 62
7
 10
686.859
 20
448.647
 11
686.859
 21
465.579
  0
LINE
  8
Layer1
  6
CENTER1
 62
7
 10
724.859
 20
448.997
 11
724.859
 21
465.521
  0
LINE
  8
Layer1
  6
CENTER1
 62
7
 10
739.623
 20
572.613
 11
781.289
 21
572.613
  0
LINE
  8
Layer1
  6
CENTER1
 62
7
 10
607.665
 20
557.613
 11
656.9
 21
557.613
  0
LINE
  8
Layer1
  6
CENTER1
 62
7
 10
780.294
 20
573.113
 11
806.772
 21
573.113
  0
LINE
  8
Layer1
  6
CENTER1
 62
7
 10
778.061
 20
457.113
 11
806.897
 21
457.113
  0
POLYLINE
  8
Layer1
  6
CONTINUOUS
 62
7
 66
1
 10
0
 20
0
 30
0
 70
1
  0
VERTEX
  8
Layer1
 10
432.17
 20
300.682
  0
VERTEX
  8
Layer1
 10
429.695
 20
299.252
  0
VERTEX
  8
Layer1
 10
429.695
 20
296.392
  0
VERTEX
  8
Layer1
 10
432.17
 20
294.962
  0
VERTEX
  8
Layer1
 10
434.647
 20
296.392
  0
VERTEX
  8
Layer1
 10
434.647
 20
299.252
  0
SEQEND
  0
POLYLINE
  8
Layer1
  6
CONTINUOUS
 62
7
 66
1
 10
0
 20
0
 30
0
 70
1
  0
VERTEX
  8
Layer1
 10
347.17
 20
300.682
  0
VERTEX
  8
Layer1
 10
344.694
 20
299.252
  0
VERTEX
  8
Layer1
 10
344.694
 20
296.392
  0
VERTEX
  8
Layer1
 10
347.17
 20
294.962
  0
VERTEX
  8
Layer1
 10
349.647
 20
296.392
  0
VERTEX
  8
Layer1
 10
349.647
 20
299.252
  0
SEQEND
  0
CIRCLE
  8
Layer1
  6
CONTINUOUS
 62
7
 10
347.17
 20
262.822
 40
4
  0
POLYLINE
  8
Layer1
  6
CONTINUOUS
 62
7
 66
1
 10
0
 20
0
 30
0
 70
1
  0
VERTEX
  8
Layer1
 10
347.17
 20
265.682
  0
VERTEX
  8
Layer1
 10
344.694
 20
264.252
  0
VERTEX
  8
Layer1
 10
344.694
 20
261.392
  0
VERTEX
  8
Layer1
 10
347.17
 20
259.962
  0
VERTEX
  8
Layer1
 10
349.647
 20
261.392
  0
VERTEX
  8
Layer1
 10
349.647
 20
264.252
  0
SEQEND
  0
POLYLINE
  8
Layer1
  6
CONTINUOUS
 62
7
 66
1
 10
0
 20
0
 30
0
 70
1
  0
VERTEX
  8
Layer1
 10
432.17
 20
265.682
  0
VERTEX
  8
Layer1
 10
429.695
 20
264.252
  0
VERTEX
  8
Layer1
 10
429.695
 20
261.392
  0
VERTEX
  8
Layer1
 10
432.17
 20
259.962
  0
VERTEX
  8
Layer1
 10
434.647
 20
261.392
  0
VERTEX
  8
Layer1
 10
434.647
 20
264.252
  0
SEQEND
  0
LINE
  8
Layer1
  6
CONTINUOUS
 62
7
 10
473.67
 20
235.322
 11
305.67
 21
235.322
  0
LINE
  8
Layer1
  6
CONTINUOUS
 62
7
 10
323.67
 20
304.322
 11
323.67
 21
258.322
  0
LINE
  8
Layer1
  6
CONTINUOUS
 62
7
 10
455.67
 20
304.122
 11
455.67
 21
258.322
  0
LINE
  8
Layer1
  6
CONTINUOUS
 62
7
 10
400.67
 20
235.322
 11
409.038
 21
235.322
  0
LINE
  8
Layer1
  6
CONTINUOUS
 62
7
 10
378.67
 20
235.322
 11
370.814
 21
235.322
  0
LINE
  8
Layer1
  6
CONTINUOUS
 62
7
 10
398.544
 20
235.322
 11
416.147
 21
235.322
  0
CIRCLE
  8
Layer1
  6
CONTINUOUS
 62
7
 10
347.17
 20
297.822
 40
4
  0
LINE
  8
Layer1
  6
CONTINUOUS
 62
7
 10
474.67
 20
252.322
 11
474.67
 21
236.322
  0
LINE
  8
Layer1
  6
CONTINUOUS
 62
7
 10
304.67
 20
236.322
 11
304.67
 21
252.322
  0
LINE
  8
Layer1
  6
CONTINUOUS
 62
7
 10
305.67
 20
253.322
 11
318.67
 21
253.322
  0
LINE
  8
Layer1
  6
CENTER1
 62
7
 10
314.67
 20
258.001
 11
314.67
 21
232.105
  0
LINE
  8
Layer1
  6
CENTER1
 62
7
 10
464.67
 20
257.464
 11
464.67
 21
230.629
  0
LINE
  8
Layer1
  6
CONTINUOUS
 62
7
 10
339.67
 20
256.322
 11
339.67
 21
304.322
  0
LINE
  8
Layer1
  6
CONTINUOUS
 62
7
 10
439.67
 20
256.322
 11
439.67
 21
304.322
  0
LINE
  8
Layer1
  6
CONTINUOUS
 62
7
 10
473.67
 20
253.322
 11
460.67
 21
253.322
  0
LINE
  8
Layer1
  6
CENTER1
 62
7
 10
347.17
 20
309.624
 11
347.17
 21
291.377
  0
LINE
  8
Layer1
  6
CENTER1
 62
7
 10
432.17
 20
309.088
 11
432.17
 21
289.23
  0
LINE
  8
Layer1
  6
CENTER1
 62
7
 10
337.843
 20
297.822
 11
354.632
 21
297.822
  0
LINE
  8
Layer1
  6
CENTER1
 62
7
 10
337.306
 20
262.822
 11
356.251
 21
262.822
  0
LINE
  8
Layer1
  6
CONTINUOUS
 62
7
 10
338.67
 20
305.322
 11
324.67
 21
305.322
  0
LINE
  8
Layer1
  6
CONTINUOUS
 62
7
 10
338.67
 20
305.322
 11
339.67
 21
304.322
  0
LINE
  8
Layer1
  6
CONTINUOUS
 62
7
 10
439.67
 20
304.122
 11
440.67
 21
305.122
  0
LINE
  8
Layer1
  6
CONTINUOUS
 62
7
 10
438.67
 20
305.322
 11
439.67
 21
304.322
  0
LINE
  8
Layer1
  6
CONTINUOUS
 62
7
 10
339.67
 20
304.322
 11
340.67
 21
305.322
  0
LINE
  8
Layer1
  6
DASHED1
 62
7
 10
437.67
 20
292.322
 11
437.67
 21
320.322
  0
LINE
  8
Layer1
  6
DASHED1
 62
7
 10
341.67
 20
292.322
 11
341.67
 21
320.322
  0
LINE
  8
Layer1
  6
CONTINUOUS
 62
7
 10
323.67
 20
366.322
 11
323.67
 21
379.322
  0
LINE
  8
Layer1
  6
CONTINUOUS
 62
7
 10
455.67
 20
366.322
 11
455.67
 21
379.322
  0
LINE
  8
Layer1
  6
CONTINUOUS
 62
7
 10
454.67
 20
380.322
 11
324.67
 21
380.322
  0
LINE
  8
Layer1
  6
CONTINUOUS
 62
7
 10
324.67
 20
365.322
 11
339.67
 21
365.322
  0
LINE
  8
Layer1
  6
CONTINUOUS
 62
7
 10
454.67
 20
365.322
 11
439.67
 21
365.322
  0
LINE
  8
Layer1
  6
CONTINUOUS
 62
7
 10
305.67
 20
253.322
 11
304.67
 21
252.322
  0
LINE
  8
Layer1
  6
CONTINUOUS
 62
7
 10
304.67
 20
236.322
 11
305.67
 21
235.322
  0
LINE
  8
Layer1
  6
CONTINUOUS
 62
7
 10
473.67
 20
235.322
 11
474.67
 21
236.322
  0
LINE
  8
Layer1
  6
CONTINUOUS
 62
7
 10
474.67
 20
252.322
 11
473.67
 21
253.322
  0
LINE
  8
Layer1
  6
CENTER1
 62
7
 10
347.17
 20
269.909
 11
347.17
 21
250.587
  0
LINE
  8
Layer1
  6
CENTER1
 62
7
 10
432.17
 20
270.445
 11
432.17
 21
251.124
  0
LINE
  8
Layer1
  6
CENTER1
 62
7
 10
426.022
 20
297.822
 11
439.67
 21
297.822
  0
LINE
  8
Layer1
  6
DASHED1
 62
7
 10
343.67
 20
290.322
 11
435.67
 21
290.322
  0
LINE
  8
Layer1
  6
CENTER1
 62
7
 10
425.74
 20
262.822
 11
439.67
 21
262.822
  0
LINE
  8
Layer1
  6
CENTER1
 62
7
 10
332.17
 20
385.189
 11
332.17
 21
355.681
  0
LINE
  8
Layer1
  6
CENTER1
 62
7
 10
447.17
 20
385.189
 11
447.17
 21
356.754
  0
LINE
  8
Layer1
  6
CONTINUOUS
 62
7
 10
324.67
 20
380.322
 11
323.67
 21
379.322
  0
LINE
  8
Layer1
  6
CONTINUOUS
 62
7
 10
454.67
 20
380.322
 11
455.67
 21
379.322
  0
LINE
  8
Layer1
  6
CONTINUOUS
 62
7
 10
455.67
 20
366.322
 11
454.67
 21
365.322
  0
LINE
  8
Layer1
  6
CONTINUOUS
 62
7
 10
323.67
 20
366.322
 11
324.67
 21
365.322
  0
ARC
  8
Layer1
  6
CONTINUOUS
 62
7
 10
339.67
 20
363.322
 40
2
 50
0
 51
90
  0
ARC
  8
Layer1
  6
CONTINUOUS
 62
7
 10
439.67
 20
363.322
 40
2
 50
90
 51
180
  0
LINE
  8
Layer1
  6
CONTINUOUS
 62
7
 10
437.67
 20
320.322
 11
437.67
 21
363.322
  0
LINE
  8
Layer1
  6
CONTINUOUS
 62
7
 10
341.67
 20
320.322
 11
341.67
 21
363.322
  0
LINE
  8
Layer1
  6
CENTER1
 62
7
 10
447.17
 20
323.973
 11
447.17
 21
295.818
  0
LINE
  8
Layer1
  6
CENTER1
 62
7
 10
332.17
 20
322.619
 11
332.17
 21
300.948
  0
ARC
  8
Layer1
  6
CONTINUOUS
 62
7
 10
318.67
 20
258.322
 40
5
 50
270
 51
0
  0
ARC
  8
Layer1
  6
CONTINUOUS
 62
7
 10
460.67
 20
258.322
 40
5
 50
180
 51
270
  0
LINE
  8
Layer1
  6
CONTINUOUS
 62
7
 10
438.67
 20
255.322
 11
340.67
 21
255.322
  0
LINE
  8
Layer1
  6
CONTINUOUS
 62
7
 10
455.67
 20
319.322
 11
455.67
 21
306.322
  0
LINE
  8
Layer1
  6
CONTINUOUS
 62
7
 10
323.67
 20
319.322
 11
323.67
 21
306.322
  0
LINE
  8
Layer1
  6
CONTINUOUS
 62
7
 10
339.67
 20
256.322
 11
340.67
 21
255.322
  0
LINE
  8
Layer1
  6
CONTINUOUS
 62
7
 10
438.67
 20
255.322
 11
439.67
 21
256.322
  0
LINE
  8
Layer1
  6
CONTINUOUS
 62
7
 10
323.67
 20
306.322
 11
324.67
 21
305.322
  0
LINE
  8
Layer1
  6
CONTINUOUS
 62
7
 10
324.67
 20
305.322
 11
323.67
 21
304.322
  0
LINE
  8
Layer1
  6
CONTINUOUS
 62
7
 10
455.67
 20
306.322
 11
454.67
 21
305.322
  0
LINE
  8
Layer1
  6
CONTINUOUS
 62
7
 10
454.47
 20
305.322
 11
455.67
 21
304.122
  0
LINE
  8
Layer1
  6
CONTINUOUS
 62
7
 10
454.47
 20
305.322
 11
338.67
 21
305.322
  0
LINE
  8
Layer1
  6
DASHED1
 62
7
 10
341.67
 20
292.322
 11
343.67
 21
290.322
  0
LINE
  8
Layer1
  6
DASHED1
 62
7
 10
435.67
 20
290.322
 11
437.67
 21
292.322
  0
LINE
  8
Layer1
  6
CONTINUOUS
 62
7
 10
781.859
 20
600.113
 11
638.859
 21
600.113
  0
LINE
  8
Layer1
  6
CONTINUOUS
 62
7
 10
638.859
 20
581.113
 11
734.859
 21
581.113
  0
LINE
  8
Layer1
  6
DASHED1
 62
7
 10
638.806
 20
565.113
 11
735.989
 21
565.113
  0
LINE
  8
Layer1
  6
CONTINUOUS
 62
7
 10
638.859
 20
449.113
 11
734.859
 21
449.113
  0
LINE
  8
Layer1
  6
CONTINUOUS
 62
7
 10
781.859
 20
430.113
 11
638.859
 21
430.113
  0
LINE
  8
Layer1
  6
CONTINUOUS
 62
7
 10
782.859
 20
599.113
 11
782.859
 21
580.113
  0
LINE
  8
Layer1
  6
DASHED1
 62
7
 10
638.806
 20
465.113
 11
735.989
 21
465.113
  0
LINE
  8
Layer1
  6
CONTINUOUS
 62
7
 10
637.859
 20
599.113
 11
638.859
 21
600.113
  0
LINE
  8
Layer1
  6
CONTINUOUS
 62
7
 10
735.859
 20
450.113
 11
734.859
 21
449.113
  0
LINE
  8
Layer1
  6
CONTINUOUS
 62
7
 10
735.859
 20
580.113
 11
734.859
 21
581.113
  0
LINE
  8
Layer1
  6
CONTINUOUS
 62
7
 10
781.859
 20
449.113
 11
782.859
 21
450.113
  0
LINE
  8
Layer1
  6
CONTINUOUS
 62
7
 10
782.859
 20
580.113
 11
781.859
 21
581.113
  0
LINE
  8
Layer1
  6
CONTINUOUS
 62
7
 10
737.859
 20
450.113
 11
738.859
 21
449.113
  0
LINE
  8
Layer1
  6
CONTINUOUS
 62
7
 10
738.859
 20
581.113
 11
781.859
 21
581.113
  0
LINE
  8
Layer1
  6
CONTINUOUS
 62
7
 10
738.859
 20
581.113
 11
737.859
 21
580.113
  0
LINE
  8
Layer1
  6
CONTINUOUS
 62
7
 10
738.859
 20
449.113
 11
781.859
 21
449.113
  0
LINE
  8
Layer1
  6
CENTER1
 62
7
 10
640.849
 20
590.113
 11
780.354
 21
590.113
  0
LINE
  8
Layer1
  6
CONTINUOUS
 62
7
 10
797.859
 20
450.113
 11
797.859
 21
580.113
  0
LINE
  8
Layer1
  6
CONTINUOUS
 62
7
 10
782.859
 20
431.113
 11
782.859
 21
580.113
  0
LINE
  8
Layer1
  6
CENTER1
 62
7
 10
602.971
 20
472.613
 11
656.035
 21
472.613
  0
LINE
  8
Layer1
  6
CONTINUOUS
 62
7
 10
783.859
 20
581.113
 11
796.859
 21
581.113
  0
LINE
  8
Layer1
  6
CONTINUOUS
 62
7
 10
783.859
 20
449.113
 11
796.859
 21
449.113
  0
LINE
  8
Layer1
  6
CONTINUOUS
 62
7
 10
796.859
 20
581.113
 11
797.859
 21
580.113
  0
LINE
  8
Layer1
  6
CONTINUOUS
 62
7
 10
796.859
 20
449.113
 11
797.859
 21
450.113
  0
LINE
  8
Layer1
  6
CONTINUOUS
 62
7
 10
782.859
 20
450.113
 11
783.859
 21
449.113
  0
LINE
  8
Layer1
  6
CONTINUOUS
 62
7
 10
782.859
 20
580.113
 11
783.859
 21
581.113
  0
LINE
  8
Layer1
  6
CONTINUOUS
 62
7
 10
437.67
 20
329.844
 11
341.669
 21
329.844
  0
LINE
  8
Layer1
  6
CENTER1
 62
7
 10
405.67
 20
254.238
 11
405.67
 21
237.963
  0
LINE
  8
Layer1
  6
CENTER1
 62
7
 10
373.67
 20
253.64
 11
373.67
 21
238.345
  0
CIRCLE
  8
Layer1
  6
CONTINUOUS
 62
7
 10
373.67
 20
245.822
 40
5
  0
CIRCLE
  8
Layer1
  6
CONTINUOUS
 62
7
 10
373.67
 20
245.822
 40
4
  0
CIRCLE
  8
Layer1
  6
CONTINUOUS
 62
7
 10
405.67
 20
245.822
 40
5
  0
CIRCLE
  8
Layer1
  6
CONTINUOUS
 62
7
 10
405.67
 20
245.822
 40
4
  0
LINE
  8
Layer1
  6
CENTER1
 62
7
 10
416.147
 20
245.822
 11
364.119
 21
245.822
  0
LINE
  8
Layer1
  6
CONTINUOUS
 62
7
 10
354.632
 20
297.822
 11
362.029
 21
297.822
  0
LINE
  8
Layer1
  6
CENTER1
 62
7
 10
359.67
 20
300.739
 11
359.67
 21
294.987
  0
LINE
  8
Layer1
  6
CENTER1
 62
7
 10
357.399
 20
297.822
 11
362.59
 21
297.822
  0
CIRCLE
  8
Layer1
  6
CONTINUOUS
 62
7
 10
359.67
 20
297.822
 40
1.25
  0
LINE
  8
Layer1
  6
CENTER1
 62
7
 10
419.67
 20
265.739
 11
419.67
 21
259.987
  0
LINE
  8
Layer1
  6
CENTER1
 62
7
 10
417.399
 20
262.822
 11
422.59
 21
262.822
  0
CIRCLE
  8
Layer1
  6
CONTINUOUS
 62
7
 10
419.67
 20
262.822
 40
1.25
  0
TEXT
  8
Layer1
 62
7
 10
510.196
 20
271.594
 72
1
 11
510.196
 21
271.594
 40
4
 41
1
 50
90
  1
中心間距離
  0
TEXT
  8
Layer1
 62
7
 10
304.641
 20
336.881
 40
8
 41
1
  1
2-φ2.5
  0
LINE
  8
Layer1
  6
CONTINUOUS
 62
7
 10
333.143
 20
336.365
 11
304.636
 21
336.365
  0
POLYLINE
  8
Layer1
  6
CONTINUOUS
 62
7
 66
1
 10
0
 20
0
 30
0
  0
VERTEX
  8
Layer1
 10
359.346
 20
297.763
  0
VERTEX
  8
Layer1
 10
333.143
 20
336.365
  0
VERTEX
  8
Layer1
 10
333.143
 20
336.365
  0
SEQEND
  0
POLYLINE
  8
Layer1
  6
CONTINUOUS
 62
7
 66
1
 10
0
 20
0
 30
0
  0
VERTEX
  8
Layer1
 10
358.689
 20
299.652
  0
VERTEX
  8
Layer1
 10
359.346
 20
297.763
  0
VERTEX
  8
Layer1
 10
357.833
 20
299.071
  0
SEQEND
  0
TEXT
  8
Layer1
 62
7
 10
563.34
 20
566.239
 40
6
 41
1
  1
ベース取付穴
  0
POLYLINE
  8
Layer1
  6
CONTINUOUS
 62
7
 66
1
 10
0
 20
0
 30
0
  0
VERTEX
  8
Layer1
 10
647.177
 20
586.931
  0
VERTEX
  8
Layer1
 10
595.966
 20
572.823
  0
VERTEX
  8
Layer1
 10
595.966
 20
572.823
  0
SEQEND
  0
POLYLINE
  8
Layer1
  6
CONTINUOUS
 62
7
 66
1
 10
0
 20
0
 30
0
  0
VERTEX
  8
Layer1
 10
645.177
 20
586.917
  0
VERTEX
  8
Layer1
 10
647.177
 20
586.931
  0
VERTEX
  8
Layer1
 10
645.452
 20
585.918
  0
SEQEND
  0
LINE
  8
Layer1
  6
CONTINUOUS
 62
7
 10
595.966
 20
572.823
 11
567.966
 21
572.823
  0
TEXT
  8
Layer1
 62
7
 10
567.966
 20
572.823
 40
8
 41
1
  1
6-9キリ
  0
POLYLINE
  8
Layer1
  6
CONTINUOUS
 62
7
 66
1
 10
0
 20
0
 30
0
  0
VERTEX
  8
Layer1
 10
776.04
 20
575.795
  0
VERTEX
  8
Layer1
 10
817.404
 20
617.246
  0
VERTEX
  8
Layer1
 10
817.404
 20
617.246
  0
SEQEND
  0
POLYLINE
  8
Layer1
  6
CONTINUOUS
 62
7
 66
1
 10
0
 20
0
 30
0
  0
VERTEX
  8
Layer1
 10
777.772
 20
576.796
  0
VERTEX
  8
Layer1
 10
776.04
 20
575.795
  0
VERTEX
  8
Layer1
 10
777.039
 20
577.528
  0
SEQEND
  0
LINE
  8
Layer1
  6
CONTINUOUS
 62
7
 10
817.404
 20
617.246
 11
845.404
 21
617.246
  0
TEXT
  8
Layer1
 62
7
 10
845.404
 20
617.246
 72
2
 11
845.404
 21
617.246
 40
8
 41
1
  1
4-9キリ
  0
TEXT
  8
Layer1
 62
7
 10
817.78
 20
609.982
 40
6
 41
1
  1
アッパー取付穴
  0
LINE
  8
Layer1
  6
CONTINUOUS
 62
7
 10
638.859
 20
581.113
 11
637.859
 21
580.113
  0
LINE
  8
Layer1
  6
CONTINUOUS
 62
7
 10
637.859
 20
599.113
 11
637.859
 21
431.113
  0
LINE
  8
Layer1
  6
CONTINUOUS
 62
7
 10
634.359
 20
565.113
 11
637.859
 21
565.113
  0
LINE
  8
Layer1
  6
CONTINUOUS
 62
7
 10
633.359
 20
466.113
 11
633.359
 21
564.113
  0
LINE
  8
Layer1
  6
CONTINUOUS
 62
7
 10
611.359
 20
565.113
 11
632.359
 21
565.113
  0
LINE
  8
Layer1
  6
CONTINUOUS
 62
7
 10
610.359
 20
466.113
 11
610.359
 21
564.113
  0
LINE
  8
Layer1
  6
CONTINUOUS
 62
7
 10
611.359
 20
465.113
 11
632.359
 21
465.113
  0
LINE
  8
Layer1
  6
CONTINUOUS
 62
7
 10
610.359
 20
466.113
 11
611.359
 21
465.113
  0
LINE
  8
Layer1
  6
CONTINUOUS
 62
7
 10
633.359
 20
466.113
 11
632.359
 21
465.113
  0
LINE
  8
Layer1
  6
CONTINUOUS
 62
7
 10
633.359
 20
466.113
 11
634.359
 21
465.113
  0
LINE
  8
Layer1
  6
CONTINUOUS
 62
7
 10
634.359
 20
465.113
 11
637.859
 21
465.113
  0
LINE
  8
Layer1
  6
CONTINUOUS
 62
7
 10
633.359
 20
564.113
 11
634.359
 21
565.113
  0
LINE
  8
Layer1
  6
CONTINUOUS
 62
7
 10
633.359
 20
564.113
 11
632.359
 21
565.113
  0
LINE
  8
Layer1
  6
CONTINUOUS
 62
7
 10
610.359
 20
564.113
 11
611.359
 21
565.113
  0
LINE
  8
Layer1
  6
CONTINUOUS
 62
7
 10
637.859
 20
450.113
 11
638.859
 21
449.113
  0
LINE
  8
Layer1
  6
CONTINUOUS
 62
7
 10
637.859
 20
431.113
 11
638.859
 21
430.113
  0
LINE
  8
Layer1
  6
CONTINUOUS
 62
7
 10
637.808
 20
235.517
 11
780.806
 21
235.517
  0
LINE
  8
Layer1
  6
DASHED1
 62
7
 10
636.805
 20
248.517
 11
681.833
 21
248.517
  0
LINE
  8
Layer1
  6
DASHED1
 62
7
 10
636.628
 20
240.517
 11
681.833
 21
240.517
  0
LINE
  8
Layer1
  6
CONTINUOUS
 62
7
 10
633.308
 20
305.517
 11
757.266
 21
305.517
  0
LINE
  8
Layer1
  6
CONTINUOUS
 62
7
 10
689.359
 20
320.679
 11
689.359
 21
311.479
  0
LINE
  8
Layer1
  6
CONTINUOUS
 62
7
 10
684.359
 20
320.517
 11
684.359
 21
311.479
  0
LINE
  8
Layer1
  6
CONTINUOUS
 62
7
 10
683.817
 20
317.085
 11
683.817
 21
311.479
  0
LINE
  8
Layer1
  6
CONTINUOUS
 62
7
 10
689.859
 20
317.679
 11
689.859
 21
311.479
  0
LINE
  8
Layer1
  6
PHANTOM1
 62
7
 10
596.936
 20
280.517
 11
784.383
 21
280.517
  0
LINE
  8
Layer1
  6
DASHED1
 62
7
 10
652.801
 20
301.017
 11
652.801
 21
295.017
  0
POLYLINE
  8
Layer1
  6
CONTINUOUS
 62
7
 66
1
 10
0
 20
0
 30
0
  0
VERTEX
  8
Layer1
 10
678.621
 20
305.19
  0
VERTEX
  8
Layer1
 10
678.873
 20
304.356
  0
VERTEX
  8
Layer1
 10
679.128
 20
303.525
  0
VERTEX
  8
Layer1
 10
679.39
 20
302.7
  0
VERTEX
  8
Layer1
 10
679.663
 20
301.884
  0
VERTEX
  8
Layer1
 10
679.949
 20
301.079
  0
VERTEX
  8
Layer1
 10
680.253
 20
300.289
  0
VERTEX
  8
Layer1
 10
680.579
 20
299.517
  0
VERTEX
  8
Layer1
 10
680.927
 20
298.765
  0
VERTEX
  8
Layer1
 10
681.304
 20
298.036
  0
VERTEX
  8
Layer1
 10
681.712
 20
297.334
  0
VERTEX
  8
Layer1
 10
682.154
 20
296.661
  0
VERTEX
  8
Layer1
 10
682.635
 20
296.021
  0
VERTEX
  8
Layer1
 10
683.158
 20
295.415
  0
VERTEX
  8
Layer1
 10
683.726
 20
294.847
  0
VERTEX
  8
Layer1
 10
684.343
 20
294.321
  0
VERTEX
  8
Layer1
 10
685.01
 20
293.838
  0
VERTEX
  8
Layer1
 10
685.721
 20
293.391
  0
VERTEX
  8
Layer1
 10
686.456
 20
292.968
  0
VERTEX
  8
Layer1
 10
687.201
 20
292.556
  0
VERTEX
  8
Layer1
 10
687.936
 20
292.141
  0
VERTEX
  8
Layer1
 10
688.645
 20
291.71
  0
VERTEX
  8
Layer1
 10
689.311
 20
291.25
  0
VERTEX
  8
Layer1
 10
689.916
 20
290.749
  0
VERTEX
  8
Layer1
 10
690.443
 20
290.192
  0
VERTEX
  8
Layer1
 10
690.879
 20
289.57
  0
VERTEX
  8
Layer1
 10
691.231
 20
288.886
  0
VERTEX
  8
Layer1
 10
691.511
 20
288.15
  0
VERTEX
  8
Layer1
 10
691.735
 20
287.372
  0
VERTEX
  8
Layer1
 10
691.916
 20
286.561
  0
VERTEX
  8
Layer1
 10
692.069
 20
285.727
  0
VERTEX
  8
Layer1
 10
692.208
 20
284.88
  0
VERTEX
  8
Layer1
 10
692.346
 20
284.029
  0
VERTEX
  8
Layer1
 10
692.499
 20
283.184
  0
VERTEX
  8
Layer1
 10
692.679
 20
282.354
  0
VERTEX
  8
Layer1
 10
692.902
 20
281.548
  0
VERTEX
  8
Layer1
 10
693.164
 20
280.768
  0
VERTEX
  8
Layer1
 10
693.469
 20
280.012
  0
VERTEX
  8
Layer1
 10
693.812
 20
279.279
  0
VERTEX
  8
Layer1
 10
694.191
 20
278.567
  0
VERTEX
  8
Layer1
 10
694.604
 20
277.877
  0
VERTEX
  8
Layer1
 10
695.051
 20
277.205
  0
VERTEX
  8
Layer1
 10
695.525
 20
276.552
  0
VERTEX
  8
Layer1
 10
696.029
 20
275.915
  0
VERTEX
  8
Layer1
 10
696.558
 20
275.294
  0
VERTEX
  8
Layer1
 10
697.111
 20
274.687
  0
VERTEX
  8
Layer1
 10
697.686
 20
274.094
  0
VERTEX
  8
Layer1
 10
698.28
 20
273.512
  0
VERTEX
  8
Layer1
 10
698.892
 20
272.941
  0
VERTEX
  8
Layer1
 10
699.519
 20
272.379
  0
VERTEX
  8
Layer1
 10
700.159
 20
271.825
  0
VERTEX
  8
Layer1
 10
700.811
 20
271.277
  0
VERTEX
  8
Layer1
 10
701.472
 20
270.736
  0
VERTEX
  8
Layer1
 10
702.139
 20
270.199
  0
VERTEX
  8
Layer1
 10
702.812
 20
269.665
  0
VERTEX
  8
Layer1
 10
703.487
 20
269.133
  0
VERTEX
  8
Layer1
 10
704.163
 20
268.601
  0
VERTEX
  8
Layer1
 10
704.837
 20
268.069
  0
VERTEX
  8
Layer1
 10
705.508
 20
267.534
  0
VERTEX
  8
Layer1
 10
706.173
 20
266.997
  0
VERTEX
  8
Layer1
 10
706.828
 20
266.454
  0
VERTEX
  8
Layer1
 10
707.469
 20
265.902
  0
VERTEX
  8
Layer1
 10
708.092
 20
265.34
  0
VERTEX
  8
Layer1
 10
708.692
 20
264.765
  0
VERTEX
  8
Layer1
 10
709.265
 20
264.174
  0
VERTEX
  8
Layer1
 10
709.807
 20
263.565
  0
VERTEX
  8
Layer1
 10
710.313
 20
262.935
  0
VERTEX
  8
Layer1
 10
710.78
 20
262.282
  0
VERTEX
  8
Layer1
 10
711.203
 20
261.603
  0
VERTEX
  8
Layer1
 10
711.58
 20
260.896
  0
VERTEX
  8
Layer1
 10
711.903
 20
260.159
  0
VERTEX
  8
Layer1
 10
712.177
 20
259.394
  0
VERTEX
  8
Layer1
 10
712.407
 20
258.603
  0
VERTEX
  8
Layer1
 10
712.597
 20
257.789
  0
VERTEX
  8
Layer1
 10
712.751
 20
256.956
  0
VERTEX
  8
Layer1
 10
712.875
 20
256.107
  0
VERTEX
  8
Layer1
 10
712.972
 20
255.244
  0
VERTEX
  8
Layer1
 10
713.047
 20
254.371
  0
VERTEX
  8
Layer1
 10
713.106
 20
253.492
  0
VERTEX
  8
Layer1
 10
713.152
 20
252.608
  0
VERTEX
  8
Layer1
 10
713.189
 20
251.723
  0
VERTEX
  8
Layer1
 10
713.224
 20
250.841
  0
VERTEX
  8
Layer1
 10
713.258
 20
249.964
  0
VERTEX
  8
Layer1
 10
713.299
 20
249.095
  0
VERTEX
  8
Layer1
 10
713.35
 20
248.237
  0
VERTEX
  8
Layer1
 10
713.416
 20
247.394
  0
VERTEX
  8
Layer1
 10
713.503
 20
246.569
  0
VERTEX
  8
Layer1
 10
713.612
 20
245.764
  0
VERTEX
  8
Layer1
 10
713.75
 20
244.983
  0
VERTEX
  8
Layer1
 10
713.921
 20
244.229
  0
VERTEX
  8
Layer1
 10
714.13
 20
243.505
  0
VERTEX
  8
Layer1
 10
714.383
 20
242.813
  0
VERTEX
  8
Layer1
 10
714.681
 20
242.158
  0
VERTEX
  8
Layer1
 10
715.03
 20
241.541
  0
VERTEX
  8
Layer1
 10
715.436
 20
240.967
  0
VERTEX
  8
Layer1
 10
715.897
 20
240.434
  0
VERTEX
  8
Layer1
 10
716.41
 20
239.941
  0
VERTEX
  8
Layer1
 10
716.974
 20
239.485
  0
VERTEX
  8
Layer1
 10
717.583
 20
239.064
  0
VERTEX
  8
Layer1
 10
718.235
 20
238.675
  0
VERTEX
  8
Layer1
 10
718.928
 20
238.316
  0
VERTEX
  8
Layer1
 10
719.658
 20
237.985
  0
VERTEX
  8
Layer1
 10
720.422
 20
237.679
  0
VERTEX
  8
Layer1
 10
721.217
 20
237.397
  0
VERTEX
  8
Layer1
 10
722.039
 20
237.136
  0
VERTEX
  8
Layer1
 10
722.888
 20
236.893
  0
VERTEX
  8
Layer1
 10
723.756
 20
236.666
  0
VERTEX
  8
Layer1
 10
724.643
 20
236.453
  0
VERTEX
  8
Layer1
 10
725.546
 20
236.252
  0
VERTEX
  8
Layer1
 10
726.461
 20
236.06
  0
VERTEX
  8
Layer1
 10
727.386
 20
235.875
  0
VERTEX
  8
Layer1
 10
728.317
 20
235.695
  0
VERTEX
  8
Layer1
 10
729.251
 20
235.517
  0
SEQEND
  0
LINE
  8
Layer1
  6
CONTINUOUS
 62
7
 10
780.808
 20
380.517
 11
737.808
 21
380.517
  0
LINE
  8
Layer1
  6
CONTINUOUS
 62
7
 10
780.808
 20
364.517
 11
737.808
 21
364.517
  0
LINE
  8
Layer1
  6
CENTER1
 62
7
 10
771.808
 20
382.228
 11
771.808
 21
359.637
  0
LINE
  8
Layer1
  6
CENTER1
 62
7
 10
746.808
 20
382.228
 11
746.808
 21
359.377
  0
LINE
  8
Layer1
  6
CENTER1
 62
7
 10
751.808
 20
232.702
 11
751.808
 21
278.127
  0
LINE
  8
Layer1
  6
CONTINUOUS
 62
7
 10
757.808
 20
236.693
 11
757.808
 21
258.693
  0
LINE
  8
Layer1
  6
CONTINUOUS
 62
7
 10
745.808
 20
236.693
 11
745.808
 21
258.693
  0
LINE
  8
Layer1
  6
CONTINUOUS
 62
7
 10
745.808
 20
258.693
 11
757.808
 21
258.693
  0
LINE
  8
Layer1
  6
CONTINUOUS
 62
7
 10
781.806
 20
255.517
 11
757.801
 21
255.517
  0
LINE
  8
Layer1
  6
DASHED1
 62
7
 10
748.808
 20
249.304
 11
748.808
 21
270.693
  0
LINE
  8
Layer1
  6
DASHED1
 62
7
 10
754.808
 20
259.693
 11
754.808
 21
270.693
  0
LINE
  8
Layer1
  6
DASHED1
 62
7
 10
748.808
 20
270.693
 11
754.808
 21
270.693
  0
LINE
  8
Layer1
  6
DASHED1
 62
7
 10
749.308
 20
249.319
 11
749.308
 21
274.25
  0
LINE
  8
Layer1
  6
DASHED1
 62
7
 10
754.308
 20
249.68
 11
754.308
 21
274.25
  0
LINE
  8
Layer1
  6
CONTINUOUS
 62
7
 10
751.808
 20
275.693
 11
754.308
 21
274.25
  0
LINE
  8
Layer1
  6
CONTINUOUS
 62
7
 10
751.808
 20
275.693
 11
749.308
 21
274.25
  0
LINE
  8
Layer1
  6
DASHED1
 62
7
 10
749.308
 20
274.25
 11
754.308
 21
274.25
  0
LINE
  8
Layer1
  6
CONTINUOUS
 62
7
 10
754.308
 20
274.25
 11
753.987
 21
274.25
  0
LINE
  8
Layer1
  6
CONTINUOUS
 62
7
 10
754.808
 20
270.693
 11
753.683
 21
270.693
  0
LINE
  8
Layer1
  6
CONTINUOUS
 62
7
 10
748.808
 20
270.693
 11
748.808
 21
269.793
  0
LINE
  8
Layer1
  6
DASHED1
 62
7
 10
754.808
 20
270.693
 11
754.808
 21
250.074
  0
LINE
  8
Layer1
  6
CONTINUOUS
 62
7
 10
747.808
 20
258.693
 11
755.808
 21
258.693
  0
LINE
  8
Layer1
  6
CONTINUOUS
 62
7
 10
757.808
 20
236.693
 11
745.808
 21
236.693
  0
LINE
  8
Layer1
  6
CENTER1
 62
7
 10
679.35
 20
263.017
 11
623.372
 21
263.017
  0
LINE
  8
Layer1
  6
CENTER1
 62
7
 10
671.375
 20
237.787
 11
716.051
 21
237.787
  0
LINE
  8
Layer1
  6
PHANTOM1
 62
7
 10
745.808
 20
235.517
 11
745.808
 21
240.017
  0
LINE
  8
Layer1
  6
CENTER1
 62
7
 10
712.984
 20
251.281
 11
670.204
 21
251.281
  0
LINE
  8
Layer1
  6
DASHED1
 62
7
 10
681.833
 20
240.517
 11
681.833
 21
248.517
  0
LINE
  8
Layer1
  6
CENTER1
 62
7
 10
678.255
 20
244.517
 11
648.926
 21
244.517
  0
LINE
  8
Layer1
  6
DASHED1
 62
7
 10
673.958
 20
235.528
 11
676.259
 21
235.528
  0
LINE
  8
Layer1
  6
DASHED1
 62
7
 10
674.725
 20
253.528
 11
672.423
 21
253.528
  0
LINE
  8
Layer1
  6
DASHED1
 62
7
 10
672.423
 20
249.034
 11
674.725
 21
249.034
  0
LINE
  8
Layer1
  6
DASHED1
 62
7
 10
673.958
 20
240.046
 11
676.259
 21
240.046
  0
LINE
  8
Layer1
  6
DASHED1
 62
7
 10
674.725
 20
253.528
 11
674.725
 21
249.034
  0
LINE
  8
Layer1
  6
DASHED1
 62
7
 10
672.423
 20
253.528
 11
672.423
 21
249.034
  0
LINE
  8
Layer1
  6
DASHED1
 62
7
 10
673.958
 20
240.046
 11
673.958
 21
235.528
  0
LINE
  8
Layer1
  6
DASHED1
 62
7
 10
676.259
 20
240.046
 11
676.259
 21
235.528
  0
LINE
  8
Layer1
  6
DASHED1
 62
7
 10
672.423
 20
249.034
 11
673.958
 21
240.046
  0
LINE
  8
Layer1
  6
DASHED1
 62
7
 10
674.725
 20
249.034
 11
676.259
 21
240.046
  0
LINE
  8
Layer1
  6
DASHED1
 62
7
 10
673.19
 20
244.54
 11
673.958
 21
235.528
  0
LINE
  8
Layer1
  6
DASHED1
 62
7
 10
674.917
 20
253.528
 11
675.493
 21
244.54
  0
LINE
  8
Layer1
  6
DASHED1
 62
7
 10
672.231
 20
235.528
 11
673.382
 21
235.528
  0
LINE
  8
Layer1
  6
DASHED1
 62
7
 10
673.382
 20
240.022
 11
672.231
 21
240.022
  0
LINE
  8
Layer1
  6
DASHED1
 62
7
 10
673.382
 20
235.528
 11
673.382
 21
240.022
  0
LINE
  8
Layer1
  6
DASHED1
 62
7
 10
673.382
 20
240.022
 11
672.615
 21
244.517
  0
LINE
  8
Layer1
  6
DASHED1
 62
7
 10
672.231
 20
235.528
 11
672.231
 21
244.517
  0
LINE
  8
Layer1
  6
DASHED1
 62
7
 10
672.615
 20
244.517
 11
672.231
 21
244.517
  0
LINE
  8
Layer1
  6
CONTINUOUS
 62
7
 10
761.808
 20
235.517
 11
761.808
 21
255.517
  0
LINE
  8
Layer1
  6
CENTER1
 62
7
 10
800.851
 20
265.517
 11
780.381
 21
265.517
  0
LINE
  8
Layer1
  6
CONTINUOUS
 62
7
 10
755.808
 20
237.693
 11
747.808
 21
237.693
  0
LINE
  8
Layer1
  6
CONTINUOUS
 62
7
 10
746.808
 20
238.693
 11
746.808
 21
243.693
  0
LINE
  8
Layer1
  6
CONTINUOUS
 62
7
 10
756.808
 20
238.693
 11
756.808
 21
243.693
  0
LINE
  8
Layer1
  6
CONTINUOUS
 62
7
 10
746.308
 20
243.693
 11
757.308
 21
243.693
  0
LINE
  8
Layer1
  6
CONTINUOUS
 62
7
 10
747.808
 20
237.693
 11
746.808
 21
238.693
  0
LINE
  8
Layer1
  6
CONTINUOUS
 62
7
 10
755.808
 20
237.693
 11
756.808
 21
238.693
  0
LINE
  8
Layer1
  6
CONTINUOUS
 62
7
 10
746.808
 20
238.693
 11
756.808
 21
238.693
  0
LINE
  8
Layer1
  6
CONTINUOUS
 62
7
 10
754.808
 20
270.693
 11
754.308
 21
271.559
  0
LINE
  8
Layer1
  6
CONTINUOUS
 62
7
 10
748.808
 20
270.693
 11
749.308
 21
271.559
  0
LINE
  8
Layer1
  6
DASHED1
 62
7
 10
749.308
 20
271.559
 11
754.308
 21
271.559
  0
POLYLINE
  8
Layer1
  6
CONTINUOUS
 62
7
 66
1
 10
0
 20
0
 30
0
  0
VERTEX
  8
Layer1
 10
745.808
 20
247.693
  0
VERTEX
  8
Layer1
 10
745.994
 20
247.834
  0
VERTEX
  8
Layer1
 10
746.181
 20
247.974
  0
VERTEX
  8
Layer1
 10
746.368
 20
248.112
  0
VERTEX
  8
Layer1
 10
746.556
 20
248.247
  0
VERTEX
  8
Layer1
 10
746.743
 20
248.378
  0
VERTEX
  8
Layer1
 10
746.931
 20
248.505
  0
VERTEX
  8
Layer1
 10
747.119
 20
248.626
  0
VERTEX
  8
Layer1
 10
747.309
 20
248.741
  0
VERTEX
  8
Layer1
 10
747.499
 20
248.848
  0
VERTEX
  8
Layer1
 10
747.691
 20
248.947
  0
VERTEX
  8
Layer1
 10
747.883
 20
249.036
  0
VERTEX
  8
Layer1
 10
748.075
 20
249.116
  0
VERTEX
  8
Layer1
 10
748.269
 20
249.184
  0
VERTEX
  8
Layer1
 10
748.465
 20
249.239
  0
VERTEX
  8
Layer1
 10
748.662
 20
249.282
  0
VERTEX
  8
Layer1
 10
748.86
 20
249.311
  0
VERTEX
  8
Layer1
 10
749.061
 20
249.325
  0
VERTEX
  8
Layer1
 10
749.263
 20
249.323
  0
VERTEX
  8
Layer1
 10
749.465
 20
249.305
  0
VERTEX
  8
Layer1
 10
749.671
 20
249.272
  0
VERTEX
  8
Layer1
 10
749.876
 20
249.226
  0
VERTEX
  8
Layer1
 10
750.083
 20
249.172
  0
VERTEX
  8
Layer1
 10
750.291
 20
249.111
  0
VERTEX
  8
Layer1
 10
750.499
 20
249.046
  0
VERTEX
  8
Layer1
 10
750.707
 20
248.981
  0
VERTEX
  8
Layer1
 10
750.915
 20
248.917
  0
VERTEX
  8
Layer1
 10
751.123
 20
248.859
  0
VERTEX
  8
Layer1
 10
751.328
 20
248.807
  0
VERTEX
  8
Layer1
 10
751.533
 20
248.767
  0
VERTEX
  8
Layer1
 10
751.736
 20
248.739
  0
VERTEX
  8
Layer1
 10
751.938
 20
248.727
  0
VERTEX
  8
Layer1
 10
752.138
 20
248.731
  0
VERTEX
  8
Layer1
 10
752.335
 20
248.751
  0
VERTEX
  8
Layer1
 10
752.53
 20
248.785
  0
VERTEX
  8
Layer1
 10
752.724
 20
248.833
  0
VERTEX
  8
Layer1
 10
752.917
 20
248.894
  0
VERTEX
  8
Layer1
 10
753.107
 20
248.968
  0
VERTEX
  8
Layer1
 10
753.296
 20
249.052
  0
VERTEX
  8
Layer1
 10
753.484
 20
249.147
  0
VERTEX
  8
Layer1
 10
753.669
 20
249.251
  0
VERTEX
  8
Layer1
 10
753.854
 20
249.364
  0
VERTEX
  8
Layer1
 10
754.037
 20
249.485
  0
VERTEX
  8
Layer1
 10
754.217
 20
249.613
  0
VERTEX
  8
Layer1
 10
754.397
 20
249.747
  0
VERTEX
  8
Layer1
 10
754.576
 20
249.886
  0
VERTEX
  8
Layer1
 10
754.754
 20
250.029
  0
VERTEX
  8
Layer1
 10
754.931
 20
250.177
  0
VERTEX
  8
Layer1
 10
755.106
 20
250.326
  0
VERTEX
  8
Layer1
 10
755.28
 20
250.478
  0
VERTEX
  8
Layer1
 10
755.453
 20
250.631
  0
VERTEX
  8
Layer1
 10
755.626
 20
250.783
  0
VERTEX
  8
Layer1
 10
755.797
 20
250.936
  0
VERTEX
  8
Layer1
 10
755.968
 20
251.086
  0
VERTEX
  8
Layer1
 10
756.138
 20
251.234
  0
VERTEX
  8
Layer1
 10
756.307
 20
251.379
  0
VERTEX
  8
Layer1
 10
756.475
 20
251.52
  0
VERTEX
  8
Layer1
 10
756.643
 20
251.657
  0
VERTEX
  8
Layer1
 10
756.811
 20
251.791
  0
VERTEX
  8
Layer1
 10
756.977
 20
251.923
  0
VERTEX
  8
Layer1
 10
757.144
 20
252.052
  0
VERTEX
  8
Layer1
 10
757.311
 20
252.179
  0
VERTEX
  8
Layer1
 10
757.476
 20
252.305
  0
VERTEX
  8
Layer1
 10
757.642
 20
252.429
  0
VERTEX
  8
Layer1
 10
757.808
 20
252.554
  0
SEQEND
  0
LINE
  8
Layer1
  6
CONTINUOUS
 62
7
 10
754.808
 20
250.074
 11
754.808
 21
243.693
  0
LINE
  8
Layer1
  6
CONTINUOUS
 62
7
 10
754.308
 20
249.68
 11
754.308
 21
243.693
  0
LINE
  8
Layer1
  6
CONTINUOUS
 62
7
 10
749.308
 20
249.32
 11
749.308
 21
243.693
  0
LINE
  8
Layer1
  6
CONTINUOUS
 62
7
 10
748.808
 20
249.304
 11
748.808
 21
243.693
  0
LINE
  8
Layer1
  6
CONTINUOUS
 62
7
 10
746.808
 20
243.693
 11
746.808
 21
238.693
  0
LINE
  8
Layer1
  6
CONTINUOUS
 62
7
 10
756.808
 20
243.693
 11
756.808
 21
238.693
  0
LINE
  8
Layer1
  6
CONTINUOUS
 62
7
 10
746.308
 20
236.693
 11
746.308
 21
243.693
  0
LINE
  8
Layer1
  6
CONTINUOUS
 62
7
 10
757.308
 20
236.693
 11
757.308
 21
243.693
  0
LINE
  8
Layer1
  6
CONTINUOUS
 62
7
 10
747.308
 20
243.443
 11
747.308
 21
238.943
  0
LINE
  8
Layer1
  6
CONTINUOUS
 62
7
 10
748.308
 20
242.943
 11
748.308
 21
239.443
  0
LINE
  8
Layer1
  6
CONTINUOUS
 62
7
 10
749.308
 20
242.443
 11
749.308
 21
239.943
  0
LINE
  8
Layer1
  6
CONTINUOUS
 62
7
 10
751.808
 20
243.693
 11
751.808
 21
238.693
  0
LINE
  8
Layer1
  6
CENTER1
 62
7
 10
769.414
 20
297.517
 11
808.316
 21
297.517
  0
LINE
  8
Layer1
  6
CENTER1
 62
7
 10
760.445
 20
278.517
 11
808.293
 21
278.517
  0
LINE
  8
Layer1
  6
CENTER1
 62
7
 10
774.974
 20
259.517
 11
809.21
 21
259.517
  0
LINE
  8
Layer1
  6
CONTINUOUS
 62
7
 10
682.496
 20
329.849
 11
691.399
 21
329.849
  0
LINE
  8
Layer1
  6
CONTINUOUS
 62
7
 10
682.496
 20
327.535
 11
690.331
 21
327.535
  0
LINE
  8
Layer1
  6
CONTINUOUS
 62
7
 10
691.399
 20
329.849
 11
692.823
 21
328.187
  0
LINE
  8
Layer1
  6
CONTINUOUS
 62
7
 10
692.823
 20
327.535
 11
692.823
 21
328.187
  0
POLYLINE
  8
Layer1
  6
CONTINUOUS
 62
7
 66
1
 10
0
 20
0
 30
0
  0
VERTEX
  8
Layer1
 10
690.331
 20
327.535
  0
VERTEX
  8
Layer1
 10
690.333
 20
327.452
  0
VERTEX
  8
Layer1
 10
690.34
 20
327.371
  0
VERTEX
  8
Layer1
 10
690.352
 20
327.29
  0
VERTEX
  8
Layer1
 10
690.37
 20
327.209
  0
VERTEX
  8
Layer1
 10
690.394
 20
327.131
  0
VERTEX
  8
Layer1
 10
690.422
 20
327.054
  0
VERTEX
  8
Layer1
 10
690.455
 20
326.979
  0
VERTEX
  8
Layer1
 10
690.493
 20
326.906
  0
VERTEX
  8
Layer1
 10
690.537
 20
326.836
  0
VERTEX
  8
Layer1
 10
690.585
 20
326.769
  0
VERTEX
  8
Layer1
 10
690.635
 20
326.705
  0
VERTEX
  8
Layer1
 10
690.691
 20
326.645
  0
VERTEX
  8
Layer1
 10
690.751
 20
326.589
  0
VERTEX
  8
Layer1
 10
690.814
 20
326.536
  0
VERTEX
  8
Layer1
 10
690.881
 20
326.488
  0
VERTEX
  8
Layer1
 10
690.95
 20
326.444
  0
VERTEX
  8
Layer1
 10
691.022
 20
326.406
  0
VERTEX
  8
Layer1
 10
691.097
 20
326.371
  0
VERTEX
  8
Layer1
 10
691.174
 20
326.342
  0
VERTEX
  8
Layer1
 10
691.253
 20
326.318
  0
VERTEX
  8
Layer1
 10
691.332
 20
326.3
  0
VERTEX
  8
Layer1
 10
691.413
 20
326.286
  0
VERTEX
  8
Layer1
 10
691.495
 20
326.278
  0
VERTEX
  8
Layer1
 10
691.577
 20
326.275
  0
VERTEX
  8
Layer1
 10
691.659
 20
326.278
  0
VERTEX
  8
Layer1
 10
691.741
 20
326.286
  0
VERTEX
  8
Layer1
 10
691.822
 20
326.3
  0
VERTEX
  8
Layer1
 10
691.902
 20
326.318
  0
VERTEX
  8
Layer1
 10
691.98
 20
326.342
  0
VERTEX
  8
Layer1
 10
692.057
 20
326.371
  0
VERTEX
  8
Layer1
 10
692.133
 20
326.406
  0
VERTEX
  8
Layer1
 10
692.205
 20
326.444
  0
VERTEX
  8
Layer1
 10
692.274
 20
326.488
  0
VERTEX
  8
Layer1
 10
692.34
 20
326.536
  0
VERTEX
  8
Layer1
 10
692.403
 20
326.589
  0
VERTEX
  8
Layer1
 10
692.463
 20
326.645
  0
VERTEX
  8
Layer1
 10
692.519
 20
326.705
  0
VERTEX
  8
Layer1
 10
692.57
 20
326.769
  0
VERTEX
  8
Layer1
 10
692.618
 20
326.836
  0
VERTEX
  8
Layer1
 10
692.662
 20
326.906
  0
VERTEX
  8
Layer1
 10
692.7
 20
326.979
  0
VERTEX
  8
Layer1
 10
692.732
 20
327.054
  0
VERTEX
  8
Layer1
 10
692.761
 20
327.131
  0
VERTEX
  8
Layer1
 10
692.784
 20
327.209
  0
VERTEX
  8
Layer1
 10
692.802
 20
327.29
  0
VERTEX
  8
Layer1
 10
692.814
 20
327.371
  0
VERTEX
  8
Layer1
 10
692.822
 20
327.452
  0
VERTEX
  8
Layer1
 10
692.823
 20
327.535
  0
SEQEND
  0
LINE
  8
Layer1
  6
CONTINUOUS
 62
7
 10
682.496
 20
329.849
 11
680.083
 21
327.321
  0
LINE
  8
Layer1
  6
CONTINUOUS
 62
7
 10
682.496
 20
327.535
 11
681.072
 21
326.288
  0
POLYLINE
  8
Layer1
  6
CONTINUOUS
 62
7
 66
1
 10
0
 20
0
 30
0
  0
VERTEX
  8
Layer1
 10
680.083
 20
327.321
  0
VERTEX
  8
Layer1
 10
680.052
 20
327.287
  0
VERTEX
  8
Layer1
 10
680.024
 20
327.251
  0
VERTEX
  8
Layer1
 10
679.999
 20
327.214
  0
VERTEX
  8
Layer1
 10
679.975
 20
327.175
  0
VERTEX
  8
Layer1
 10
679.955
 20
327.134
  0
VERTEX
  8
Layer1
 10
679.936
 20
327.093
  0
VERTEX
  8
Layer1
 10
679.921
 20
327.05
  0
VERTEX
  8
Layer1
 10
679.908
 20
327.006
  0
VERTEX
  8
Layer1
 10
679.898
 20
326.962
  0
VERTEX
  8
Layer1
 10
679.891
 20
326.917
  0
VERTEX
  8
Layer1
 10
679.887
 20
326.872
  0
VERTEX
  8
Layer1
 10
679.885
 20
326.826
  0
VERTEX
  8
Layer1
 10
679.887
 20
326.781
  0
VERTEX
  8
Layer1
 10
679.891
 20
326.735
  0
VERTEX
  8
Layer1
 10
679.898
 20
326.69
  0
VERTEX
  8
Layer1
 10
679.908
 20
326.646
  0
VERTEX
  8
Layer1
 10
679.921
 20
326.602
  0
VERTEX
  8
Layer1
 10
679.936
 20
326.56
  0
VERTEX
  8
Layer1
 10
679.955
 20
326.518
  0
VERTEX
  8
Layer1
 10
679.976
 20
326.478
  0
VERTEX
  8
Layer1
 10
679.999
 20
326.439
  0
VERTEX
  8
Layer1
 10
680.025
 20
326.401
  0
VERTEX
  8
Layer1
 10
680.053
 20
326.366
  0
VERTEX
  8
Layer1
 10
680.084
 20
326.332
  0
VERTEX
  8
Layer1
 10
680.117
 20
326.3
  0
VERTEX
  8
Layer1
 10
680.151
 20
326.27
  0
VERTEX
  8
Layer1
 10
680.187
 20
326.243
  0
VERTEX
  8
Layer1
 10
680.225
 20
326.218
  0
VERTEX
  8
Layer1
 10
680.264
 20
326.195
  0
VERTEX
  8
Layer1
 10
680.305
 20
326.175
  0
VERTEX
  8
Layer1
 10
680.348
 20
326.157
  0
VERTEX
  8
Layer1
 10
680.39
 20
326.143
  0
VERTEX
  8
Layer1
 10
680.435
 20
326.131
  0
VERTEX
  8
Layer1
 10
680.479
 20
326.122
  0
VERTEX
  8
Layer1
 10
680.524
 20
326.115
  0
VERTEX
  8
Layer1
 10
680.57
 20
326.112
  0
VERTEX
  8
Layer1
 10
680.614
 20
326.111
  0
VERTEX
  8
Layer1
 10
680.66
 20
326.114
  0
VERTEX
  8
Layer1
 10
680.705
 20
326.119
  0
VERTEX
  8
Layer1
 10
680.75
 20
326.127
  0
VERTEX
  8
Layer1
 10
680.794
 20
326.138
  0
VERTEX
  8
Layer1
 10
680.837
 20
326.151
  0
VERTEX
  8
Layer1
 10
680.88
 20
326.168
  0
VERTEX
  8
Layer1
 10
680.921
 20
326.187
  0
VERTEX
  8
Layer1
 10
680.961
 20
326.209
  0
VERTEX
  8
Layer1
 10
681
 20
326.233
  0
VERTEX
  8
Layer1
 10
681.037
 20
326.259
  0
VERTEX
  8
Layer1
 10
681.072
 20
326.288
  0
SEQEND
  0
LINE
  8
Layer1
  6
CONTINUOUS
 62
7
 10
683.817
 20
327.535
 11
683.817
 21
324.412
  0
LINE
  8
Layer1
  6
CONTINUOUS
 62
7
 10
689.727
 20
327.535
 11
689.727
 21
324.412
  0
LINE
  8
Layer1
  6
CONTINUOUS
 62
7
 10
684.623
 20
312.259
 11
689.011
 21
312.259
  0
LINE
  8
Layer1
  6
CONTINUOUS
 62
7
 10
683.817
 20
312.808
 11
689.817
 21
312.808
  0
LINE
  8
Layer1
  6
CONTINUOUS
 62
7
 10
684.623
 20
312.259
 11
683.817
 21
312.808
  0
LINE
  8
Layer1
  6
CONTINUOUS
 62
7
 10
689.011
 20
312.259
 11
689.817
 21
312.808
  0
LINE
  8
Layer1
  6
CONTINUOUS
 62
7
 10
691.928
 20
320.679
 11
691.928
 21
323.766
  0
LINE
  8
Layer1
  6
CONTINUOUS
 62
7
 10
691.928
 20
323.766
 11
690.811
 21
324.412
  0
LINE
  8
Layer1
  6
CONTINUOUS
 62
7
 10
690.811
 20
324.412
 11
682.907
 21
324.412
  0
LINE
  8
Layer1
  6
CONTINUOUS
 62
7
 10
682.907
 20
324.412
 11
681.79
 21
323.766
  0
LINE
  8
Layer1
  6
CONTINUOUS
 62
7
 10
681.79
 20
323.766
 11
681.79
 21
320.679
  0
LINE
  8
Layer1
  6
CONTINUOUS
 62
7
 10
689.393
 20
320.679
 11
689.393
 21
323.766
  0
LINE
  8
Layer1
  6
CONTINUOUS
 62
7
 10
684.325
 20
320.679
 11
684.325
 21
323.766
  0
POLYLINE
  8
Layer1
  6
CONTINUOUS
 62
7
 66
1
 10
0
 20
0
 30
0
  0
VERTEX
  8
Layer1
 10
689.393
 20
323.766
  0
VERTEX
  8
Layer1
 10
689.291
 20
323.798
  0
VERTEX
  8
Layer1
 10
689.188
 20
323.828
  0
VERTEX
  8
Layer1
 10
689.085
 20
323.857
  0
VERTEX
  8
Layer1
 10
688.981
 20
323.885
  0
VERTEX
  8
Layer1
 10
688.878
 20
323.912
  0
VERTEX
  8
Layer1
 10
688.773
 20
323.937
  0
VERTEX
  8
Layer1
 10
688.668
 20
323.961
  0
VERTEX
  8
Layer1
 10
688.563
 20
323.983
  0
VERTEX
  8
Layer1
 10
688.458
 20
324.004
  0
VERTEX
  8
Layer1
 10
688.354
 20
324.024
  0
VERTEX
  8
Layer1
 10
688.248
 20
324.042
  0
VERTEX
  8
Layer1
 10
688.141
 20
324.059
  0
VERTEX
  8
Layer1
 10
688.035
 20
324.075
  0
VERTEX
  8
Layer1
 10
687.929
 20
324.09
  0
VERTEX
  8
Layer1
 10
687.822
 20
324.103
  0
VERTEX
  8
Layer1
 10
687.715
 20
324.114
  0
VERTEX
  8
Layer1
 10
687.609
 20
324.124
  0
VERTEX
  8
Layer1
 10
687.503
 20
324.133
  0
VERTEX
  8
Layer1
 10
687.395
 20
324.141
  0
VERTEX
  8
Layer1
 10
687.288
 20
324.147
  0
VERTEX
  8
Layer1
 10
687.181
 20
324.152
  0
VERTEX
  8
Layer1
 10
687.073
 20
324.155
  0
VERTEX
  8
Layer1
 10
686.966
 20
324.157
  0
VERTEX
  8
Layer1
 10
686.859
 20
324.158
  0
VERTEX
  8
Layer1
 10
686.751
 20
324.157
  0
VERTEX
  8
Layer1
 10
686.644
 20
324.155
  0
VERTEX
  8
Layer1
 10
686.537
 20
324.152
  0
VERTEX
  8
Layer1
 10
686.431
 20
324.147
  0
VERTEX
  8
Layer1
 10
686.322
 20
324.141
  0
VERTEX
  8
Layer1
 10
686.215
 20
324.133
  0
VERTEX
  8
Layer1
 10
686.109
 20
324.124
  0
VERTEX
  8
Layer1
 10
686.003
 20
324.114
  0
VERTEX
  8
Layer1
 10
685.895
 20
324.103
  0
VERTEX
  8
Layer1
 10
685.789
 20
324.09
  0
VERTEX
  8
Layer1
 10
685.682
 20
324.075
  0
VERTEX
  8
Layer1
 10
685.576
 20
324.059
  0
VERTEX
  8
Layer1
 10
685.47
 20
324.042
  0
VERTEX
  8
Layer1
 10
685.365
 20
324.024
  0
VERTEX
  8
Layer1
 10
685.259
 20
324.004
  0
VERTEX
  8
Layer1
 10
685.154
 20
323.983
  0
VERTEX
  8
Layer1
 10
685.049
 20
323.961
  0
VERTEX
  8
Layer1
 10
684.944
 20
323.937
  0
VERTEX
  8
Layer1
 10
684.84
 20
323.912
  0
VERTEX
  8
Layer1
 10
684.736
 20
323.885
  0
VERTEX
  8
Layer1
 10
684.633
 20
323.857
  0
VERTEX
  8
Layer1
 10
684.529
 20
323.828
  0
VERTEX
  8
Layer1
 10
684.426
 20
323.798
  0
VERTEX
  8
Layer1
 10
684.325
 20
323.766
  0
SEQEND
  0
POLYLINE
  8
Layer1
  6
CONTINUOUS
 62
7
 66
1
 10
0
 20
0
 30
0
  0
VERTEX
  8
Layer1
 10
691.928
 20
323.766
  0
VERTEX
  8
Layer1
 10
691.881
 20
323.797
  0
VERTEX
  8
Layer1
 10
691.835
 20
323.827
  0
VERTEX
  8
Layer1
 10
691.787
 20
323.856
  0
VERTEX
  8
Layer1
 10
691.737
 20
323.883
  0
VERTEX
  8
Layer1
 10
691.687
 20
323.909
  0
VERTEX
  8
Layer1
 10
691.638
 20
323.935
  0
VERTEX
  8
Layer1
 10
691.586
 20
323.958
  0
VERTEX
  8
Layer1
 10
691.535
 20
323.981
  0
VERTEX
  8
Layer1
 10
691.484
 20
324.002
  0
VERTEX
  8
Layer1
 10
691.431
 20
324.022
  0
VERTEX
  8
Layer1
 10
691.378
 20
324.04
  0
VERTEX
  8
Layer1
 10
691.325
 20
324.058
  0
VERTEX
  8
Layer1
 10
691.27
 20
324.074
  0
VERTEX
  8
Layer1
 10
691.216
 20
324.088
  0
VERTEX
  8
Layer1
 10
691.162
 20
324.101
  0
VERTEX
  8
Layer1
 10
691.107
 20
324.113
  0
VERTEX
  8
Layer1
 10
691.051
 20
324.124
  0
VERTEX
  8
Layer1
 10
690.996
 20
324.133
  0
VERTEX
  8
Layer1
 10
690.941
 20
324.141
  0
VERTEX
  8
Layer1
 10
690.885
 20
324.147
  0
VERTEX
  8
Layer1
 10
690.83
 20
324.152
  0
VERTEX
  8
Layer1
 10
690.773
 20
324.155
  0
VERTEX
  8
Layer1
 10
690.717
 20
324.157
  0
VERTEX
  8
Layer1
 10
690.662
 20
324.158
  0
VERTEX
  8
Layer1
 10
690.604
 20
324.157
  0
VERTEX
  8
Layer1
 10
690.548
 20
324.155
  0
VERTEX
  8
Layer1
 10
690.492
 20
324.152
  0
VERTEX
  8
Layer1
 10
690.436
 20
324.147
  0
VERTEX
  8
Layer1
 10
690.381
 20
324.141
  0
VERTEX
  8
Layer1
 10
690.325
 20
324.133
  0
VERTEX
  8
Layer1
 10
690.27
 20
324.124
  0
VERTEX
  8
Layer1
 10
690.215
 20
324.113
  0
VERTEX
  8
Layer1
 10
690.16
 20
324.101
  0
VERTEX
  8
Layer1
 10
690.105
 20
324.088
  0
VERTEX
  8
Layer1
 10
690.051
 20
324.074
  0
VERTEX
  8
Layer1
 10
689.998
 20
324.058
  0
VERTEX
  8
Layer1
 10
689.944
 20
324.04
  0
VERTEX
  8
Layer1
 10
689.891
 20
324.022
  0
VERTEX
  8
Layer1
 10
689.838
 20
324.002
  0
VERTEX
  8
Layer1
 10
689.787
 20
323.981
  0
VERTEX
  8
Layer1
 10
689.735
 20
323.958
  0
VERTEX
  8
Layer1
 10
689.684
 20
323.935
  0
VERTEX
  8
Layer1
 10
689.634
 20
323.909
  0
VERTEX
  8
Layer1
 10
689.585
 20
323.883
  0
VERTEX
  8
Layer1
 10
689.535
 20
323.856
  0
VERTEX
  8
Layer1
 10
689.487
 20
323.827
  0
VERTEX
  8
Layer1
 10
689.441
 20
323.797
  0
VERTEX
  8
Layer1
 10
689.393
 20
323.766
  0
SEQEND
  0
POLYLINE
  8
Layer1
  6
CONTINUOUS
 62
7
 66
1
 10
0
 20
0
 30
0
  0
VERTEX
  8
Layer1
 10
684.325
 20
323.766
  0
VERTEX
  8
Layer1
 10
684.278
 20
323.797
  0
VERTEX
  8
Layer1
 10
684.23
 20
323.827
  0
VERTEX
  8
Layer1
 10
684.182
 20
323.856
  0
VERTEX
  8
Layer1
 10
684.133
 20
323.883
  0
VERTEX
  8
Layer1
 10
684.083
 20
323.909
  0
VERTEX
  8
Layer1
 10
684.033
 20
323.935
  0
VERTEX
  8
Layer1
 10
683.982
 20
323.958
  0
VERTEX
  8
Layer1
 10
683.931
 20
323.981
  0
VERTEX
  8
Layer1
 10
683.879
 20
324.002
  0
VERTEX
  8
Layer1
 10
683.826
 20
324.022
  0
VERTEX
  8
Layer1
 10
683.773
 20
324.04
  0
VERTEX
  8
Layer1
 10
683.72
 20
324.058
  0
VERTEX
  8
Layer1
 10
683.666
 20
324.074
  0
VERTEX
  8
Layer1
 10
683.612
 20
324.088
  0
VERTEX
  8
Layer1
 10
683.558
 20
324.101
  0
VERTEX
  8
Layer1
 10
683.503
 20
324.113
  0
VERTEX
  8
Layer1
 10
683.448
 20
324.124
  0
VERTEX
  8
Layer1
 10
683.392
 20
324.133
  0
VERTEX
  8
Layer1
 10
683.337
 20
324.141
  0
VERTEX
  8
Layer1
 10
683.282
 20
324.147
  0
VERTEX
  8
Layer1
 10
683.225
 20
324.152
  0
VERTEX
  8
Layer1
 10
683.169
 20
324.155
  0
VERTEX
  8
Layer1
 10
683.113
 20
324.157
  0
VERTEX
  8
Layer1
 10
683.057
 20
324.158
  0
VERTEX
  8
Layer1
 10
683.002
 20
324.157
  0
VERTEX
  8
Layer1
 10
682.945
 20
324.155
  0
VERTEX
  8
Layer1
 10
682.888
 20
324.152
  0
VERTEX
  8
Layer1
 10
682.833
 20
324.147
  0
VERTEX
  8
Layer1
 10
682.777
 20
324.141
  0
VERTEX
  8
Layer1
 10
682.721
 20
324.133
  0
VERTEX
  8
Layer1
 10
682.666
 20
324.124
  0
VERTEX
  8
Layer1
 10
682.611
 20
324.113
  0
VERTEX
  8
Layer1
 10
682.556
 20
324.101
  0
VERTEX
  8
Layer1
 10
682.502
 20
324.088
  0
VERTEX
  8
Layer1
 10
682.447
 20
324.074
  0
VERTEX
  8
Layer1
 10
682.393
 20
324.058
  0
VERTEX
  8
Layer1
 10
682.34
 20
324.04
  0
VERTEX
  8
Layer1
 10
682.287
 20
324.022
  0
VERTEX
  8
Layer1
 10
682.234
 20
324.002
  0
VERTEX
  8
Layer1
 10
682.182
 20
323.981
  0
VERTEX
  8
Layer1
 10
682.131
 20
323.958
  0
VERTEX
  8
Layer1
 10
682.08
 20
323.935
  0
VERTEX
  8
Layer1
 10
682.031
 20
323.909
  0
VERTEX
  8
Layer1
 10
681.98
 20
323.883
  0
VERTEX
  8
Layer1
 10
681.932
 20
323.856
  0
VERTEX
  8
Layer1
 10
681.883
 20
323.827
  0
VERTEX
  8
Layer1
 10
681.836
 20
323.797
  0
VERTEX
  8
Layer1
 10
681.79
 20
323.766
  0
SEQEND
  0
POLYLINE
  8
Layer1
  6
CONTINUOUS
 62
7
 66
1
 10
0
 20
0
 30
0
 70
1
  0
VERTEX
  8
Layer1
 10
692.123
 20
327.522
  0
VERTEX
  8
Layer1
 10
692.118
 20
327.593
  0
VERTEX
  8
Layer1
 10
692.104
 20
327.663
  0
VERTEX
  8
Layer1
 10
692.082
 20
327.731
  0
VERTEX
  8
Layer1
 10
692.051
 20
327.795
  0
VERTEX
  8
Layer1
 10
692.01
 20
327.854
  0
VERTEX
  8
Layer1
 10
691.963
 20
327.908
  0
VERTEX
  8
Layer1
 10
691.909
 20
327.955
  0
VERTEX
  8
Layer1
 10
691.85
 20
327.995
  0
VERTEX
  8
Layer1
 10
691.787
 20
328.026
  0
VERTEX
  8
Layer1
 10
691.718
 20
328.049
  0
VERTEX
  8
Layer1
 10
691.648
 20
328.063
  0
VERTEX
  8
Layer1
 10
691.577
 20
328.068
  0
VERTEX
  8
Layer1
 10
691.506
 20
328.063
  0
VERTEX
  8
Layer1
 10
691.436
 20
328.049
  0
VERTEX
  8
Layer1
 10
691.368
 20
328.026
  0
VERTEX
  8
Layer1
 10
691.304
 20
327.995
  0
VERTEX
  8
Layer1
 10
691.245
 20
327.955
  0
VERTEX
  8
Layer1
 10
691.191
 20
327.908
  0
VERTEX
  8
Layer1
 10
691.144
 20
327.854
  0
VERTEX
  8
Layer1
 10
691.104
 20
327.795
  0
VERTEX
  8
Layer1
 10
691.073
 20
327.731
  0
VERTEX
  8
Layer1
 10
691.051
 20
327.663
  0
VERTEX
  8
Layer1
 10
691.037
 20
327.593
  0
VERTEX
  8
Layer1
 10
691.032
 20
327.522
  0
VERTEX
  8
Layer1
 10
691.037
 20
327.451
  0
VERTEX
  8
Layer1
 10
691.051
 20
327.38
  0
VERTEX
  8
Layer1
 10
691.073
 20
327.313
  0
VERTEX
  8
Layer1
 10
691.104
 20
327.249
  0
VERTEX
  8
Layer1
 10
691.144
 20
327.189
  0
VERTEX
  8
Layer1
 10
691.191
 20
327.136
  0
VERTEX
  8
Layer1
 10
691.245
 20
327.089
  0
VERTEX
  8
Layer1
 10
691.304
 20
327.049
  0
VERTEX
  8
Layer1
 10
691.368
 20
327.017
  0
VERTEX
  8
Layer1
 10
691.436
 20
326.994
  0
VERTEX
  8
Layer1
 10
691.506
 20
326.98
  0
VERTEX
  8
Layer1
 10
691.577
 20
326.976
  0
VERTEX
  8
Layer1
 10
691.648
 20
326.98
  0
VERTEX
  8
Layer1
 10
691.718
 20
326.994
  0
VERTEX
  8
Layer1
 10
691.787
 20
327.017
  0
VERTEX
  8
Layer1
 10
691.85
 20
327.049
  0
VERTEX
  8
Layer1
 10
691.909
 20
327.089
  0
VERTEX
  8
Layer1
 10
691.963
 20
327.136
  0
VERTEX
  8
Layer1
 10
692.01
 20
327.189
  0
VERTEX
  8
Layer1
 10
692.051
 20
327.249
  0
VERTEX
  8
Layer1
 10
692.082
 20
327.313
  0
VERTEX
  8
Layer1
 10
692.104
 20
327.38
  0
VERTEX
  8
Layer1
 10
692.118
 20
327.451
  0
SEQEND
  0
LINE
  8
Layer1
  6
CONTINUOUS
 62
7
 10
683.817
 20
312.808
 11
683.817
 21
319.679
  0
LINE
  8
Layer1
  6
CONTINUOUS
 62
7
 10
689.817
 20
312.808
 11
689.817
 21
319.679
  0
LINE
  8
Layer1
  6
CONTINUOUS
 62
7
 10
636.806
 20
253.517
 11
713.282
 21
253.517
  0
LINE
  8
Layer1
  6
CONTINUOUS
 62
7
 10
672.231
 20
253.517
 11
672.231
 21
235.517
  0
LINE
  8
Layer1
  6
CONTINUOUS
 62
7
 10
745.808
 20
253.517
 11
745.808
 21
235.517
  0
LINE
  8
Layer1
  6
DASHED1
 62
7
 10
724.529
 20
235.517
 11
726.847
 21
235.517
  0
LINE
  8
Layer1
  6
CONTINUOUS
 62
7
 10
745.808
 20
253.517
 11
743.876
 21
253.517
  0
LINE
  8
Layer1
  6
CONTINUOUS
 62
7
 10
735.955
 20
235.517
 11
738.273
 21
235.517
  0
LINE
  8
Layer1
  6
CONTINUOUS
 62
7
 10
736.729
 20
253.517
 11
734.41
 21
253.517
  0
LINE
  8
Layer1
  6
CONTINUOUS
 62
7
 10
734.41
 20
249.022
 11
736.729
 21
249.022
  0
LINE
  8
Layer1
  6
CONTINUOUS
 62
7
 10
735.955
 20
240.034
 11
738.273
 21
240.034
  0
LINE
  8
Layer1
  6
CONTINUOUS
 62
7
 10
736.729
 20
253.517
 11
736.729
 21
249.022
  0
LINE
  8
Layer1
  6
CONTINUOUS
 62
7
 10
734.41
 20
253.517
 11
734.41
 21
249.022
  0
LINE
  8
Layer1
  6
CONTINUOUS
 62
7
 10
735.955
 20
240.034
 11
735.955
 21
235.517
  0
LINE
  8
Layer1
  6
CONTINUOUS
 62
7
 10
738.273
 20
240.034
 11
738.273
 21
235.517
  0
LINE
  8
Layer1
  6
CONTINUOUS
 62
7
 10
734.41
 20
249.022
 11
735.955
 21
240.034
  0
LINE
  8
Layer1
  6
CONTINUOUS
 62
7
 10
736.729
 20
249.022
 11
738.273
 21
240.034
  0
LINE
  8
Layer1
  6
CONTINUOUS
 62
7
 10
735.183
 20
244.528
 11
735.955
 21
235.517
  0
LINE
  8
Layer1
  6
CONTINUOUS
 62
7
 10
736.921
 20
253.517
 11
737.501
 21
244.528
  0
LINE
  8
Layer1
  6
CONTINUOUS
 62
7
 10
745.421
 20
235.517
 11
745.808
 21
235.517
  0
LINE
  8
Layer1
  6
CONTINUOUS
 62
7
 10
743.876
 20
249.022
 11
745.808
 21
249.017
  0
LINE
  8
Layer1
  6
CONTINUOUS
 62
7
 10
745.421
 20
240.034
 11
745.808
 21
240.017
  0
LINE
  8
Layer1
  6
CONTINUOUS
 62
7
 10
743.876
 20
253.517
 11
743.876
 21
249.022
  0
LINE
  8
Layer1
  6
CONTINUOUS
 62
7
 10
745.421
 20
240.034
 11
745.421
 21
235.517
  0
LINE
  8
Layer1
  6
CONTINUOUS
 62
7
 10
743.876
 20
249.022
 11
745.421
 21
240.034
  0
LINE
  8
Layer1
  6
CONTINUOUS
 62
7
 10
744.648
 20
244.528
 11
745.421
 21
235.517
  0
LINE
  8
Layer1
  6
CONTINUOUS
 62
7
 10
713.27
 20
255.517
 11
745.814
 21
255.517
  0
LINE
  8
Layer1
  6
DASHED1
 62
7
 10
719.892
 20
235.517
 11
722.211
 21
235.517
  0
LINE
  8
Layer1
  6
CONTINUOUS
 62
7
 10
781.782
 20
276.246
 11
736.808
 21
329.844
  0
LINE
  8
Layer1
  6
CONTINUOUS
 62
7
 10
769.808
 20
290.517
 11
778.808
 21
290.517
  0
LINE
  8
Layer1
  6
CONTINUOUS
 62
7
 10
736.808
 20
379.517
 11
736.808
 21
329.844
  0
ARC
  8
Layer1
  6
CONTINUOUS
 62
7
 10
778.808
 20
293.517
 40
3
 50
270
 51
0
  0
LINE
  8
Layer1
  6
CONTINUOUS
 62
7
 10
781.85
 20
256.517
 11
780.85
 21
255.517
  0
LINE
  8
Layer1
  6
CONTINUOUS
 62
7
 10
782.808
 20
250.517
 11
795.808
 21
250.517
  0
LINE
  8
Layer1
  6
CONTINUOUS
 62
7
 10
796.808
 20
251.517
 11
796.808
 21
312.517
  0
LINE
  8
Layer1
  6
CONTINUOUS
 62
7
 10
782.808
 20
313.517
 11
795.808
 21
313.517
  0
LINE
  8
Layer1
  6
CONTINUOUS
 62
7
 10
796.808
 20
251.517
 11
795.808
 21
250.517
  0
LINE
  8
Layer1
  6
CONTINUOUS
 62
7
 10
782.808
 20
250.517
 11
781.808
 21
251.517
  0
LINE
  8
Layer1
  6
CONTINUOUS
 62
7
 10
781.808
 20
312.517
 11
782.808
 21
313.517
  0
LINE
  8
Layer1
  6
CONTINUOUS
 62
7
 10
736.808
 20
365.517
 11
737.808
 21
364.517
  0
LINE
  8
Layer1
  6
CONTINUOUS
 62
7
 10
736.808
 20
379.517
 11
737.808
 21
380.517
  0
LINE
  8
Layer1
  6
CONTINUOUS
 62
7
 10
741.308
 20
380.517
 11
752.308
 21
380.517
  0
LINE
  8
Layer1
  6
CONTINUOUS
 62
7
 10
734.758
 20
319.216
 11
734.758
 21
306.517
  0
LINE
  8
Layer1
  6
CONTINUOUS
 62
7
 10
703.159
 20
320.517
 11
694.123
 21
311.479
  0
LINE
  8
Layer1
  6
DASHED1
 62
7
 10
732.849
 20
318.717
 11
732.833
 21
318.7
  0
LINE
  8
Layer1
  6
CONTINUOUS
 62
7
 10
707.159
 20
320.517
 11
698.123
 21
311.479
  0
LINE
  8
Layer1
  6
CONTINUOUS
 62
7
 10
699.159
 20
320.517
 11
690.123
 21
311.479
  0
LINE
  8
Layer1
  6
CONTINUOUS
 62
7
 10
699.306
 20
311.479
 11
672.306
 21
311.479
  0
LINE
  8
Layer1
  6
CONTINUOUS
 62
7
 10
681.322
 20
318.679
 11
674.122
 21
311.479
  0
LINE
  8
Layer1
  6
CONTINUOUS
 62
7
 10
670.806
 20
308.163
 11
668.122
 21
305.479
  0
LINE
  8
Layer1
  6
CONTINUOUS
 62
7
 10
733.508
 20
320.517
 11
637.808
 21
320.517
  0
LINE
  8
Layer1
  6
CONTINUOUS
 62
7
 10
677.322
 20
318.679
 11
675.556
 21
316.913
  0
LINE
  8
Layer1
  6
CONTINUOUS
 62
7
 10
675.159
 20
320.517
 11
667.061
 21
312.417
  0
LINE
  8
Layer1
  6
CONTINUOUS
 62
7
 10
671.275
 20
320.632
 11
666.028
 21
315.386
  0
LINE
  8
Layer1
  6
CONTINUOUS
 62
7
 10
700.806
 20
306.479
 11
700.806
 21
309.979
  0
LINE
  8
Layer1
  6
CONTINUOUS
 62
7
 10
670.806
 20
306.479
 11
670.806
 21
309.979
  0
LINE
  8
Layer1
  6
CENTER1
 62
7
 10
686.859
 20
332.606
 11
686.859
 21
300.418
  0
LINE
  8
Layer1
  6
CONTINUOUS
 62
7
 10
695.159
 20
320.517
 11
689.859
 21
315.216
  0
ARC
  8
Layer1
  6
CONTINUOUS
 62
7
 10
699.306
 20
309.979
 40
1.5
 50
2.03555e-013
 51
90
  0
ARC
  8
Layer1
  6
CONTINUOUS
 62
7
 10
672.306
 20
309.979
 40
1.5
 50
90
 51
180
  0
LINE
  8
Layer1
  6
CONTINUOUS
 62
7
 10
669.806
 20
305.479
 11
668.122
 21
305.479
  0
ARC
  8
Layer1
  6
CONTINUOUS
 62
7
 10
701.806
 20
306.479
 40
1
 50
180
 51
270
  0
ARC
  8
Layer1
  6
CONTINUOUS
 62
7
 10
669.806
 20
306.479
 40
1
 50
270
 51
2.03555e-013
  0
LINE
  8
Layer1
  6
CONTINUOUS
 62
7
 10
679.159
 20
320.517
 11
666.897
 21
308.254
  0
LINE
  8
Layer1
  6
CONTINUOUS
 62
7
 10
683.859
 20
317.679
 11
683.859
 21
311.479
  0
LINE
  8
Layer1
  6
CONTINUOUS
 62
7
 10
683.645
 20
313.002
 11
682.122
 21
311.479
  0
LINE
  8
Layer1
  6
CONTINUOUS
 62
7
 10
689.859
 20
317.679
 11
683.859
 21
317.679
  0
LINE
  8
Layer1
  6
CONTINUOUS
 62
7
 10
683.859
 20
319.679
 11
682.859
 21
320.679
  0
LINE
  8
Layer1
  6
CONTINUOUS
 62
7
 10
689.859
 20
319.679
 11
690.859
 21
320.679
  0
LINE
  8
Layer1
  6
CONTINUOUS
 62
7
 10
719.159
 20
320.517
 11
704.123
 21
305.479
  0
LINE
  8
Layer1
  6
CONTINUOUS
 62
7
 10
715.159
 20
320.517
 11
700.806
 21
306.163
  0
LINE
  8
Layer1
  6
CONTINUOUS
 62
7
 10
711.159
 20
320.517
 11
700.806
 21
310.163
  0
POLYLINE
  8
Layer1
  6
CONTINUOUS
 62
7
 66
1
 10
0
 20
0
 30
0
  0
VERTEX
  8
Layer1
 10
665.035
 20
320.517
  0
VERTEX
  8
Layer1
 10
665.064
 20
320.327
  0
VERTEX
  8
Layer1
 10
665.094
 20
320.137
  0
VERTEX
  8
Layer1
 10
665.124
 20
319.948
  0
VERTEX
  8
Layer1
 10
665.154
 20
319.758
  0
VERTEX
  8
Layer1
 10
665.186
 20
319.569
  0
VERTEX
  8
Layer1
 10
665.217
 20
319.38
  0
VERTEX
  8
Layer1
 10
665.25
 20
319.191
  0
VERTEX
  8
Layer1
 10
665.285
 20
319.002
  0
VERTEX
  8
Layer1
 10
665.321
 20
318.813
  0
VERTEX
  8
Layer1
 10
665.359
 20
318.625
  0
VERTEX
  8
Layer1
 10
665.399
 20
318.438
  0
VERTEX
  8
Layer1
 10
665.441
 20
318.25
  0
VERTEX
  8
Layer1
 10
665.485
 20
318.063
  0
VERTEX
  8
Layer1
 10
665.532
 20
317.877
  0
VERTEX
  8
Layer1
 10
665.582
 20
317.691
  0
VERTEX
  8
Layer1
 10
665.634
 20
317.506
  0
VERTEX
  8
Layer1
 10
665.69
 20
317.321
  0
VERTEX
  8
Layer1
 10
665.749
 20
317.137
  0
VERTEX
  8
Layer1
 10
665.812
 20
316.953
  0
VERTEX
  8
Layer1
 10
665.878
 20
316.77
  0
VERTEX
  8
Layer1
 10
665.948
 20
316.588
  0
VERTEX
  8
Layer1
 10
666.022
 20
316.407
  0
VERTEX
  8
Layer1
 10
666.098
 20
316.226
  0
VERTEX
  8
Layer1
 10
666.175
 20
316.045
  0
VERTEX
  8
Layer1
 10
666.253
 20
315.865
  0
VERTEX
  8
Layer1
 10
666.332
 20
315.685
  0
VERTEX
  8
Layer1
 10
666.411
 20
315.506
  0
VERTEX
  8
Layer1
 10
666.488
 20
315.326
  0
VERTEX
  8
Layer1
 10
666.563
 20
315.146
  0
VERTEX
  8
Layer1
 10
666.638
 20
314.966
  0
VERTEX
  8
Layer1
 10
666.706
 20
314.786
  0
VERTEX
  8
Layer1
 10
666.772
 20
314.605
  0
VERTEX
  8
Layer1
 10
666.833
 20
314.424
  0
VERTEX
  8
Layer1
 10
666.889
 20
314.243
  0
VERTEX
  8
Layer1
 10
666.938
 20
314.061
  0
VERTEX
  8
Layer1
 10
666.98
 20
313.878
  0
VERTEX
  8
Layer1
 10
667.015
 20
313.694
  0
VERTEX
  8
Layer1
 10
667.042
 20
313.509
  0
VERTEX
  8
Layer1
 10
667.06
 20
313.323
  0
VERTEX
  8
Layer1
 10
667.069
 20
313.136
  0
VERTEX
  8
Layer1
 10
667.069
 20
312.948
  0
VERTEX
  8
Layer1
 10
667.061
 20
312.76
  0
VERTEX
  8
Layer1
 10
667.047
 20
312.57
  0
VERTEX
  8
Layer1
 10
667.029
 20
312.38
  0
VERTEX
  8
Layer1
 10
667.006
 20
312.189
  0
VERTEX
  8
Layer1
 10
666.98
 20
311.997
  0
VERTEX
  8
Layer1
 10
666.952
 20
311.805
  0
VERTEX
  8
Layer1
 10
666.922
 20
311.613
  0
VERTEX
  8
Layer1
 10
666.892
 20
311.42
  0
VERTEX
  8
Layer1
 10
666.863
 20
311.227
  0
VERTEX
  8
Layer1
 10
666.835
 20
311.034
  0
VERTEX
  8
Layer1
 10
666.811
 20
310.841
  0
VERTEX
  8
Layer1
 10
666.79
 20
310.648
  0
VERTEX
  8
Layer1
 10
666.773
 20
310.456
  0
VERTEX
  8
Layer1
 10
666.763
 20
310.263
  0
VERTEX
  8
Layer1
 10
666.758
 20
310.071
  0
VERTEX
  8
Layer1
 10
666.759
 20
309.879
  0
VERTEX
  8
Layer1
 10
666.766
 20
309.687
  0
VERTEX
  8
Layer1
 10
666.778
 20
309.496
  0
VERTEX
  8
Layer1
 10
666.794
 20
309.305
  0
VERTEX
  8
Layer1
 10
666.814
 20
309.114
  0
VERTEX
  8
Layer1
 10
666.836
 20
308.923
  0
VERTEX
  8
Layer1
 10
666.861
 20
308.732
  0
VERTEX
  8
Layer1
 10
666.888
 20
308.541
  0
VERTEX
  8
Layer1
 10
666.915
 20
308.351
  0
VERTEX
  8
Layer1
 10
666.942
 20
308.16
  0
VERTEX
  8
Layer1
 10
666.969
 20
307.969
  0
VERTEX
  8
Layer1
 10
666.996
 20
307.779
  0
VERTEX
  8
Layer1
 10
667.022
 20
307.588
  0
VERTEX
  8
Layer1
 10
667.044
 20
307.397
  0
VERTEX
  8
Layer1
 10
667.064
 20
307.206
  0
VERTEX
  8
Layer1
 10
667.081
 20
307.015
  0
VERTEX
  8
Layer1
 10
667.093
 20
306.823
  0
VERTEX
  8
Layer1
 10
667.101
 20
306.632
  0
VERTEX
  8
Layer1
 10
667.106
 20
306.44
  0
VERTEX
  8
Layer1
 10
667.108
 20
306.248
  0
VERTEX
  8
Layer1
 10
667.105
 20
306.056
  0
VERTEX
  8
Layer1
 10
667.102
 20
305.864
  0
VERTEX
  8
Layer1
 10
667.098
 20
305.672
  0
VERTEX
  8
Layer1
 10
667.092
 20
305.479
  0
SEQEND
  0
LINE
  8
Layer1
  6
CENTER1
 62
7
 10
647.808
 20
304.133
 11
647.808
 21
323.601
  0
LINE
  8
Layer1
  6
CONTINUOUS
 62
7
 10
636.808
 20
236.517
 11
636.808
 21
304.517
  0
LINE
  8
Layer1
  6
CONTINUOUS
 62
7
 10
637.808
 20
305.517
 11
636.808
 21
304.517
  0
LINE
  8
Layer1
  6
CONTINUOUS
 62
7
 10
781.808
 20
236.519
 11
780.806
 21
235.517
  0
LINE
  8
Layer1
  6
CONTINUOUS
 62
7
 10
632.308
 20
304.517
 11
633.308
 21
305.517
  0
LINE
  8
Layer1
  6
CONTINUOUS
 62
7
 10
637.808
 20
320.517
 11
636.808
 21
319.517
  0
LINE
  8
Layer1
  6
CONTINUOUS
 62
7
 10
636.808
 20
306.517
 11
637.808
 21
305.517
  0
LINE
  8
Layer1
  6
DASHED1
 62
7
 10
718.306
 20
318.717
 11
718.306
 21
312.217
  0
LINE
  8
Layer1
  6
CONTINUOUS
 62
7
 10
720.859
 20
312.54
 11
720.859
 21
305.517
  0
LINE
  8
Layer1
  6
CONTINUOUS
 62
7
 10
728.859
 20
312.53
 11
728.859
 21
305.517
  0
LINE
  8
Layer1
  6
CENTER1
 62
7
 10
724.859
 20
322.294
 11
724.859
 21
304.292
  0
LINE
  8
Layer1
  6
CONTINUOUS
 62
7
 10
633.308
 20
255.517
 11
636.808
 21
255.517
  0
LINE
  8
Layer1
  6
CONTINUOUS
 62
7
 10
636.808
 20
236.517
 11
637.808
 21
235.517
  0
LINE
  8
Layer1
  6
DASHED1
 62
7
 10
781.782
 20
276.246
 11
736.808
 21
329.844
  0
LINE
  8
Layer1
  6
CONTINUOUS
 62
7
 10
781.808
 20
236.519
 11
781.808
 21
379.517
  0
LINE
  8
Layer1
  6
CONTINUOUS
 62
7
 10
781.808
 20
379.517
 11
780.808
 21
380.517
  0
LINE
  8
Layer1
  6
CONTINUOUS
 62
7
 10
780.808
 20
364.517
 11
781.808
 21
365.517
  0
LINE
  8
Layer1
  6
CONTINUOUS
 62
7
 10
731.359
 20
312.517
 11
731.359
 21
320.017
  0
LINE
  8
Layer1
  6
CONTINUOUS
 62
7
 10
718.359
 20
312.517
 11
718.359
 21
320.017
  0
LINE
  8
Layer1
  6
CONTINUOUS
 62
7
 10
731.359
 20
320.017
 11
718.359
 21
320.017
  0
LINE
  8
Layer1
  6
CONTINUOUS
 62
7
 10
730.859
 20
320.517
 11
718.859
 21
320.517
  0
LINE
  8
Layer1
  6
CONTINUOUS
 62
7
 10
731.359
 20
320.017
 11
730.859
 21
320.517
  0
LINE
  8
Layer1
  6
CONTINUOUS
 62
7
 10
718.359
 20
320.017
 11
718.859
 21
320.517
  0
LINE
  8
Layer1
  6
CONTINUOUS
 62
7
 10
718.359
 20
312.517
 11
731.359
 21
312.517
  0
LINE
  8
Layer1
  6
CONTINUOUS
 62
7
 10
719.359
 20
313.094
 11
719.359
 21
319.44
  0
LINE
  8
Layer1
  6
CONTINUOUS
 62
7
 10
720.359
 20
313.67
 11
720.359
 21
318.863
  0
LINE
  8
Layer1
  6
CONTINUOUS
 62
7
 10
721.359
 20
314.247
 11
721.359
 21
318.286
  0
LINE
  8
Layer1
  6
CONTINUOUS
 62
7
 10
722.359
 20
314.824
 11
722.359
 21
317.709
  0
LINE
  8
Layer1
  6
CONTINUOUS
 62
7
 10
718.772
 20
312.129
 11
712.205
 21
305.562
  0
LINE
  8
Layer1
  6
CONTINUOUS
 62
7
 10
718.208
 20
315.565
 11
708.159
 21
305.517
  0
LINE
  8
Layer1
  6
CONTINUOUS
 62
7
 10
720.691
 20
310.048
 11
716.159
 21
305.517
  0
LINE
  8
Layer1
  6
CONTINUOUS
 62
7
 10
734.345
 20
319.703
 11
731.641
 21
316.998
  0
LINE
  8
Layer1
  6
CONTINUOUS
 62
7
 10
734.758
 20
312.114
 11
728.859
 21
306.216
  0
LINE
  8
Layer1
  6
CONTINUOUS
 62
7
 10
734.758
 20
316.114
 11
731.385
 21
312.743
  0
LINE
  8
Layer1
  6
CONTINUOUS
 62
7
 10
734.758
 20
308.114
 11
732.08
 21
305.437
  0
LINE
  8
Layer1
  6
PHANTOM1
 62
7
 10
756.83
 20
276.189
 11
732.244
 21
305.49
  0
LINE
  8
Layer1
  6
PHANTOM1
 62
7
 10
756.83
 20
276.189
 11
756.83
 21
255.49
  0
LINE
  8
Layer1
  6
PHANTOM1
 62
7
 10
780.808
 20
350.717
 11
737.808
 21
350.717
  0
LINE
  8
Layer1
  6
PHANTOM1
 62
7
 10
780.808
 20
334.717
 11
737.808
 21
334.717
  0
LINE
  8
Layer1
  6
CENTER1
 62
7
 10
650.306
 20
254.055
 11
650.306
 21
228.608
  0
LINE
  8
Layer1
  6
CENTER1
 62
7
 10
770.306
 20
259.695
 11
770.306
 21
225.412
  0
LINE
  8
Layer1
  6
CONTINUOUS
 62
7
 10
796.808
 20
291.017
 11
804.308
 21
291.017
  0
LINE
  8
Layer1
  6
CONTINUOUS
 62
7
 10
796.808
 20
304.017
 11
804.308
 21
304.017
  0
LINE
  8
Layer1
  6
CONTINUOUS
 62
7
 10
804.308
 20
291.017
 11
804.308
 21
304.017
  0
LINE
  8
Layer1
  6
CONTINUOUS
 62
7
 10
804.808
 20
291.517
 11
804.808
 21
303.517
  0
LINE
  8
Layer1
  6
CONTINUOUS
 62
7
 10
804.308
 20
291.017
 11
804.808
 21
291.517
  0
LINE
  8
Layer1
  6
CONTINUOUS
 62
7
 10
804.308
 20
304.017
 11
804.808
 21
303.517
  0
LINE
  8
Layer1
  6
CONTINUOUS
 62
7
 10
796.808
 20
304.017
 11
796.808
 21
291.017
  0
LINE
  8
Layer1
  6
CONTINUOUS
 62
7
 10
797.384
 20
303.017
 11
803.731
 21
303.017
  0
LINE
  8
Layer1
  6
CONTINUOUS
 62
7
 10
797.961
 20
302.017
 11
803.154
 21
302.017
  0
LINE
  8
Layer1
  6
CONTINUOUS
 62
7
 10
798.538
 20
301.017
 11
802.577
 21
301.017
  0
LINE
  8
Layer1
  6
CONTINUOUS
 62
7
 10
799.115
 20
300.017
 11
802
 21
300.017
  0
LINE
  8
Layer1
  6
CONTINUOUS
 62
7
 10
796.808
 20
272.017
 11
804.308
 21
272.017
  0
LINE
  8
Layer1
  6
CONTINUOUS
 62
7
 10
796.808
 20
285.017
 11
804.308
 21
285.017
  0
LINE
  8
Layer1
  6
CONTINUOUS
 62
7
 10
804.308
 20
272.017
 11
804.308
 21
285.017
  0
LINE
  8
Layer1
  6
CONTINUOUS
 62
7
 10
804.808
 20
272.517
 11
804.808
 21
284.517
  0
LINE
  8
Layer1
  6
CONTINUOUS
 62
7
 10
804.308
 20
272.017
 11
804.808
 21
272.517
  0
LINE
  8
Layer1
  6
CONTINUOUS
 62
7
 10
804.308
 20
285.017
 11
804.808
 21
284.517
  0
LINE
  8
Layer1
  6
CONTINUOUS
 62
7
 10
796.808
 20
285.017
 11
796.808
 21
272.017
  0
LINE
  8
Layer1
  6
CONTINUOUS
 62
7
 10
797.384
 20
284.017
 11
803.731
 21
284.017
  0
LINE
  8
Layer1
  6
CONTINUOUS
 62
7
 10
797.961
 20
283.017
 11
803.154
 21
283.017
  0
LINE
  8
Layer1
  6
CONTINUOUS
 62
7
 10
798.538
 20
282.017
 11
802.577
 21
282.017
  0
LINE
  8
Layer1
  6
CONTINUOUS
 62
7
 10
799.115
 20
281.017
 11
802
 21
281.017
  0
LINE
  8
Layer1
  6
CONTINUOUS
 62
7
 10
796.808
 20
252.627
 11
804.308
 21
252.627
  0
LINE
  8
Layer1
  6
CONTINUOUS
 62
7
 10
796.808
 20
265.627
 11
804.308
 21
265.627
  0
LINE
  8
Layer1
  6
CONTINUOUS
 62
7
 10
804.308
 20
252.627
 11
804.308
 21
265.627
  0
LINE
  8
Layer1
  6
CONTINUOUS
 62
7
 10
804.808
 20
253.127
 11
804.808
 21
265.127
  0
LINE
  8
Layer1
  6
CONTINUOUS
 62
7
 10
804.308
 20
252.627
 11
804.808
 21
253.127
  0
LINE
  8
Layer1
  6
CONTINUOUS
 62
7
 10
804.308
 20
265.627
 11
804.808
 21
265.127
  0
LINE
  8
Layer1
  6
CONTINUOUS
 62
7
 10
796.808
 20
265.627
 11
796.808
 21
252.627
  0
LINE
  8
Layer1
  6
CONTINUOUS
 62
7
 10
797.384
 20
264.627
 11
803.731
 21
264.627
  0
LINE
  8
Layer1
  6
CONTINUOUS
 62
7
 10
797.961
 20
263.627
 11
803.154
 21
263.627
  0
LINE
  8
Layer1
  6
CONTINUOUS
 62
7
 10
798.538
 20
262.627
 11
802.577
 21
262.627
  0
LINE
  8
Layer1
  6
CONTINUOUS
 62
7
 10
799.115
 20
261.627
 11
802
 21
261.627
  0
LINE
  8
Layer1
  6
DASHED1
 62
7
 10
784.85
 20
261.517
 11
797.104
 21
261.517
  0
LINE
  8
Layer1
  6
DASHED1
 62
7
 10
784.85
 20
269.517
 11
796.808
 21
269.517
  0
LINE
  8
Layer1
  6
DASHED1
 62
7
 10
784.85
 20
270.517
 11
796.808
 21
270.517
  0
LINE
  8
Layer1
  6
DASHED1
 62
7
 10
784.85
 20
260.517
 11
796.76
 21
260.517
  0
TEXT
  8
Layer1
 62
7
 10
645.247
 20
326.707
 72
1
 11
645.247
 21
326.707
 40
4
 41
1
  1
 4.5 
  0
LINE
  8
Layer1
  6
CONTINUOUS
 62
7
 10
632.308
 20
304.517
 11
632.308
 21
327.707
  0
LINE
  8
Layer1
  6
CONTINUOUS
 62
7
 10
636.808
 20
312.117
 11
636.808
 21
327.707
  0
POLYLINE
  8
Layer1
  6
CONTINUOUS
 62
7
 66
1
 10
0
 20
0
 30
0
  0
VERTEX
  8
Layer1
 10
627.308
 20
326.707
  0
VERTEX
  8
Layer1
 10
632.308
 20
326.707
  0
SEQEND
  0
POLYLINE
  8
Layer1
  6
CONTINUOUS
 62
7
 66
1
 10
0
 20
0
 30
0
  0
VERTEX
  8
Layer1
 10
630.377
 20
327.224
  0
VERTEX
  8
Layer1
 10
632.308
 20
326.707
  0
VERTEX
  8
Layer1
 10
630.377
 20
326.189
  0
SEQEND
  0
POLYLINE
  8
Layer1
  6
CONTINUOUS
 62
7
 66
1
 10
0
 20
0
 30
0
  0
VERTEX
  8
Layer1
 10
650.247
 20
326.707
  0
VERTEX
  8
Layer1
 10
636.808
 20
326.707
  0
SEQEND
  0
POLYLINE
  8
Layer1
  6
CONTINUOUS
 62
7
 66
1
 10
0
 20
0
 30
0
  0
VERTEX
  8
Layer1
 10
638.739
 20
326.189
  0
VERTEX
  8
Layer1
 10
636.808
 20
326.707
  0
VERTEX
  8
Layer1
 10
638.739
 20
327.224
  0
SEQEND
  0
LINE
  8
Layer1
  6
CONTINUOUS
 62
7
 10
632.308
 20
326.707
 11
636.808
 21
326.707
  0
TEXT
  8
Layer1
 62
7
 10
620.808
 20
326.707
 72
1
 11
620.808
 21
326.707
 40
4
 41
1
  1
 23 
  0
LINE
  8
Layer1
  6
CONTINUOUS
 62
7
 10
632.308
 20
302.767
 11
632.308
 21
327.707
  0
LINE
  8
Layer1
  6
CONTINUOUS
 62
7
 10
609.308
 20
304.517
 11
609.308
 21
327.707
  0
POLYLINE
  8
Layer1
  6
CONTINUOUS
 62
7
 66
1
 10
0
 20
0
 30
0
  0
VERTEX
  8
Layer1
 10
632.308
 20
326.707
  0
VERTEX
  8
Layer1
 10
609.308
 20
326.707
  0
SEQEND
  0
POLYLINE
  8
Layer1
  6
CONTINUOUS
 62
7
 66
1
 10
0
 20
0
 30
0
  0
VERTEX
  8
Layer1
 10
630.377
 20
327.224
  0
VERTEX
  8
Layer1
 10
632.308
 20
326.707
  0
VERTEX
  8
Layer1
 10
630.377
 20
326.189
  0
SEQEND
  0
POLYLINE
  8
Layer1
  6
CONTINUOUS
 62
7
 66
1
 10
0
 20
0
 30
0
  0
VERTEX
  8
Layer1
 10
611.239
 20
326.189
  0
VERTEX
  8
Layer1
 10
609.308
 20
326.707
  0
VERTEX
  8
Layer1
 10
611.239
 20
327.224
  0
SEQEND
  0
LINE
  8
Layer1
  6
PHANTOM1
 62
7
 10
584.308
 20
256.517
 11
584.308
 21
304.517
  0
LINE
  8
Layer1
  6
PHANTOM1
 62
7
 10
606.308
 20
255.517
 11
585.308
 21
255.517
  0
LINE
  8
Layer1
  6
PHANTOM1
 62
7
 10
606.308
 20
305.517
 11
585.308
 21
305.517
  0
LINE
  8
Layer1
  6
PHANTOM1
 62
7
 10
584.308
 20
304.517
 11
585.308
 21
305.517
  0
LINE
  8
Layer1
  6
PHANTOM1
 62
7
 10
584.308
 20
256.517
 11
585.308
 21
255.517
  0
LINE
  8
Layer1
  6
PHANTOM1
 62
7
 10
606.308
 20
255.517
 11
607.308
 21
256.517
  0
LINE
  8
Layer1
  6
PHANTOM1
 62
7
 10
606.308
 20
305.517
 11
607.308
 21
304.517
  0
LINE
  8
Layer1
  6
DASHED1
 62
7
 10
627.803
 20
301.017
 11
624.26
 21
301.017
  0
LINE
  8
Layer1
  6
PHANTOM1
 62
7
 10
607.308
 20
304.517
 11
607.308
 21
256.517
  0
LINE
  8
Layer1
  6
DASHED1
 62
7
 10
611.8
 20
300.517
 11
624.76
 21
300.517
  0
LINE
  8
Layer1
  6
DASHED1
 62
7
 10
609.57
 20
295.517
 11
624.76
 21
295.517
  0
LINE
  8
Layer1
  6
CONTINUOUS
 62
7
 10
609.308
 20
256.517
 11
609.308
 21
233.517
  0
LINE
  8
Layer1
  6
CONTINUOUS
 62
7
 10
584.308
 20
256.517
 11
584.308
 21
233.517
  0
POLYLINE
  8
Layer1
  6
CONTINUOUS
 62
7
 66
1
 10
0
 20
0
 30
0
  0
VERTEX
  8
Layer1
 10
609.308
 20
235.517
  0
VERTEX
  8
Layer1
 10
584.308
 20
235.517
  0
SEQEND
  0
POLYLINE
  8
Layer1
  6
CONTINUOUS
 62
7
 66
1
 10
0
 20
0
 30
0
  0
VERTEX
  8
Layer1
 10
607.377
 20
236.034
  0
VERTEX
  8
Layer1
 10
609.308
 20
235.517
  0
VERTEX
  8
Layer1
 10
607.377
 20
234.999
  0
SEQEND
  0
POLYLINE
  8
Layer1
  6
CONTINUOUS
 62
7
 66
1
 10
0
 20
0
 30
0
  0
VERTEX
  8
Layer1
 10
586.239
 20
234.999
  0
VERTEX
  8
Layer1
 10
584.308
 20
235.517
  0
VERTEX
  8
Layer1
 10
586.239
 20
236.034
  0
SEQEND
  0
TEXT
  8
Layer1
 62
7
 10
597.058
 20
230.077
 72
1
 11
597.058
 21
230.077
 40
4
 41
1
  1
(ストローク)
  0
TEXT
  8
Layer1
 62
7
 10
849.667
 20
313.126
 72
1
 11
849.667
 21
313.126
 40
4
 41
1
 50
90
  1
(シャットハイト） 
  0
TEXT
  8
Layer1
 62
7
 10
860.798
 20
328.498
 72
1
 11
860.798
 21
328.498
 40
4
 41
1
 50
90
  1
(オープンハイト）
  0
LINE
  8
Layer1
  6
CONTINUOUS
 62
7
 10
796.808
 20
312.517
 11
795.808
 21
313.517
  0
LINE
  8
Layer1
  6
CONTINUOUS
 62
7
 10
733.758
 20
305.517
 11
734.758
 21
306.517
  0
LINE
  8
Layer1
  6
CONTINUOUS
 62
7
 10
733.508
 20
320.517
 11
734.808
 21
319.216
  0
LINE
  8
Layer1
  6
CONTINUOUS
 62
7
 10
636.808
 20
319.517
 11
636.808
 21
306.517
  0
POLYLINE
  8
Layer1
  6
CONTINUOUS
 62
7
 66
1
 10
0
 20
0
 30
0
  0
VERTEX
  8
Layer1
 10
635.025
 20
305.517
  0
VERTEX
  8
Layer1
 10
635.027
 20
305.166
  0
VERTEX
  8
Layer1
 10
635.028
 20
304.815
  0
VERTEX
  8
Layer1
 10
635.031
 20
304.463
  0
VERTEX
  8
Layer1
 10
635.033
 20
304.11
  0
VERTEX
  8
Layer1
 10
635.036
 20
303.756
  0
VERTEX
  8
Layer1
 10
635.041
 20
303.399
  0
VERTEX
  8
Layer1
 10
635.045
 20
303.041
  0
VERTEX
  8
Layer1
 10
635.051
 20
302.679
  0
VERTEX
  8
Layer1
 10
635.06
 20
302.315
  0
VERTEX
  8
Layer1
 10
635.069
 20
301.947
  0
VERTEX
  8
Layer1
 10
635.08
 20
301.576
  0
VERTEX
  8
Layer1
 10
635.091
 20
301.2
  0
VERTEX
  8
Layer1
 10
635.106
 20
300.82
  0
VERTEX
  8
Layer1
 10
635.123
 20
300.434
  0
VERTEX
  8
Layer1
 10
635.142
 20
300.044
  0
VERTEX
  8
Layer1
 10
635.165
 20
299.647
  0
VERTEX
  8
Layer1
 10
635.189
 20
299.245
  0
VERTEX
  8
Layer1
 10
635.215
 20
298.838
  0
VERTEX
  8
Layer1
 10
635.24
 20
298.427
  0
VERTEX
  8
Layer1
 10
635.265
 20
298.014
  0
VERTEX
  8
Layer1
 10
635.287
 20
297.6
  0
VERTEX
  8
Layer1
 10
635.305
 20
297.186
  0
VERTEX
  8
Layer1
 10
635.319
 20
296.773
  0
VERTEX
  8
Layer1
 10
635.324
 20
296.364
  0
VERTEX
  8
Layer1
 10
635.322
 20
295.958
  0
VERTEX
  8
Layer1
 10
635.311
 20
295.558
  0
VERTEX
  8
Layer1
 10
635.29
 20
295.164
  0
VERTEX
  8
Layer1
 10
635.255
 20
294.779
  0
VERTEX
  8
Layer1
 10
635.207
 20
294.402
  0
VERTEX
  8
Layer1
 10
635.144
 20
294.036
  0
VERTEX
  8
Layer1
 10
635.066
 20
293.682
  0
VERTEX
  8
Layer1
 10
634.969
 20
293.341
  0
VERTEX
  8
Layer1
 10
634.854
 20
293.014
  0
VERTEX
  8
Layer1
 10
634.719
 20
292.703
  0
VERTEX
  8
Layer1
 10
634.562
 20
292.409
  0
VERTEX
  8
Layer1
 10
634.382
 20
292.133
  0
VERTEX
  8
Layer1
 10
634.178
 20
291.876
  0
VERTEX
  8
Layer1
 10
633.948
 20
291.641
  0
VERTEX
  8
Layer1
 10
633.691
 20
291.426
  0
VERTEX
  8
Layer1
 10
633.41
 20
291.231
  0
VERTEX
  8
Layer1
 10
633.109
 20
291.051
  0
VERTEX
  8
Layer1
 10
632.792
 20
290.88
  0
VERTEX
  8
Layer1
 10
632.462
 20
290.716
  0
VERTEX
  8
Layer1
 10
632.124
 20
290.554
  0
VERTEX
  8
Layer1
 10
631.782
 20
290.39
  0
VERTEX
  8
Layer1
 10
631.438
 20
290.219
  0
VERTEX
  8
Layer1
 10
631.099
 20
290.036
  0
VERTEX
  8
Layer1
 10
630.766
 20
289.839
  0
VERTEX
  8
Layer1
 10
630.445
 20
289.623
  0
VERTEX
  8
Layer1
 10
630.134
 20
289.388
  0
VERTEX
  8
Layer1
 10
629.833
 20
289.139
  0
VERTEX
  8
Layer1
 10
629.541
 20
288.877
  0
VERTEX
  8
Layer1
 10
629.257
 20
288.606
  0
VERTEX
  8
Layer1
 10
628.978
 20
288.33
  0
VERTEX
  8
Layer1
 10
628.704
 20
288.051
  0
VERTEX
  8
Layer1
 10
628.432
 20
287.774
  0
VERTEX
  8
Layer1
 10
628.162
 20
287.5
  0
VERTEX
  8
Layer1
 10
627.892
 20
287.234
  0
VERTEX
  8
Layer1
 10
627.621
 20
286.978
  0
VERTEX
  8
Layer1
 10
627.349
 20
286.737
  0
VERTEX
  8
Layer1
 10
627.07
 20
286.512
  0
VERTEX
  8
Layer1
 10
626.787
 20
286.307
  0
VERTEX
  8
Layer1
 10
626.497
 20
286.126
  0
VERTEX
  8
Layer1
 10
626.198
 20
285.972
  0
VERTEX
  8
Layer1
 10
625.89
 20
285.848
  0
VERTEX
  8
Layer1
 10
625.571
 20
285.757
  0
VERTEX
  8
Layer1
 10
625.24
 20
285.701
  0
VERTEX
  8
Layer1
 10
624.898
 20
285.675
  0
VERTEX
  8
Layer1
 10
624.546
 20
285.677
  0
VERTEX
  8
Layer1
 10
624.186
 20
285.7
  0
VERTEX
  8
Layer1
 10
623.82
 20
285.741
  0
VERTEX
  8
Layer1
 10
623.448
 20
285.794
  0
VERTEX
  8
Layer1
 10
623.072
 20
285.856
  0
VERTEX
  8
Layer1
 10
622.694
 20
285.921
  0
VERTEX
  8
Layer1
 10
622.313
 20
285.985
  0
VERTEX
  8
Layer1
 10
621.933
 20
286.044
  0
VERTEX
  8
Layer1
 10
621.554
 20
286.092
  0
VERTEX
  8
Layer1
 10
621.178
 20
286.126
  0
VERTEX
  8
Layer1
 10
620.806
 20
286.141
  0
VERTEX
  8
Layer1
 10
620.44
 20
286.131
  0
VERTEX
  8
Layer1
 10
620.08
 20
286.094
  0
VERTEX
  8
Layer1
 10
619.727
 20
286.031
  0
VERTEX
  8
Layer1
 10
619.379
 20
285.942
  0
VERTEX
  8
Layer1
 10
619.037
 20
285.832
  0
VERTEX
  8
Layer1
 10
618.699
 20
285.703
  0
VERTEX
  8
Layer1
 10
618.367
 20
285.556
  0
VERTEX
  8
Layer1
 10
618.035
 20
285.395
  0
VERTEX
  8
Layer1
 10
617.707
 20
285.222
  0
VERTEX
  8
Layer1
 10
617.382
 20
285.039
  0
VERTEX
  8
Layer1
 10
617.058
 20
284.849
  0
VERTEX
  8
Layer1
 10
616.734
 20
284.655
  0
VERTEX
  8
Layer1
 10
616.411
 20
284.458
  0
VERTEX
  8
Layer1
 10
616.089
 20
284.261
  0
VERTEX
  8
Layer1
 10
615.763
 20
284.068
  0
VERTEX
  8
Layer1
 10
615.437
 20
283.879
  0
VERTEX
  8
Layer1
 10
615.109
 20
283.698
  0
VERTEX
  8
Layer1
 10
614.777
 20
283.527
  0
VERTEX
  8
Layer1
 10
614.442
 20
283.369
  0
VERTEX
  8
Layer1
 10
614.103
 20
283.226
  0
VERTEX
  8
Layer1
 10
613.759
 20
283.1
  0
VERTEX
  8
Layer1
 10
613.411
 20
282.99
  0
VERTEX
  8
Layer1
 10
613.06
 20
282.896
  0
VERTEX
  8
Layer1
 10
612.702
 20
282.815
  0
VERTEX
  8
Layer1
 10
612.343
 20
282.747
  0
VERTEX
  8
Layer1
 10
611.98
 20
282.69
  0
VERTEX
  8
Layer1
 10
611.615
 20
282.642
  0
VERTEX
  8
Layer1
 10
611.248
 20
282.603
  0
VERTEX
  8
Layer1
 10
610.879
 20
282.571
  0
VERTEX
  8
Layer1
 10
610.508
 20
282.544
  0
VERTEX
  8
Layer1
 10
610.137
 20
282.521
  0
VERTEX
  8
Layer1
 10
609.763
 20
282.501
  0
VERTEX
  8
Layer1
 10
609.39
 20
282.483
  0
SEQEND
  0
LINE
  8
Layer1
  6
DASHED1
 62
7
 10
649.258
 20
300.517
 11
656.359
 21
300.517
  0
LINE
  8
Layer1
  6
DASHED1
 62
7
 10
649.258
 20
295.517
 11
656.359
 21
295.517
  0
LINE
  8
Layer1
  6
DASHED1
 62
7
 10
656.359
 20
300.517
 11
656.359
 21
295.517
  0
LINE
  8
Layer1
  6
DASHED1
 62
7
 10
656.359
 20
295.517
 11
656.359
 21
295.837
  0
LINE
  8
Layer1
  6
DASHED1
 62
7
 10
652.801
 20
295.017
 11
652.801
 21
296.141
  0
LINE
  8
Layer1
  6
CONTINUOUS
 62
7
 10
609.308
 20
256.517
 11
609.308
 21
304.517
  0
LINE
  8
Layer1
  6
CONTINUOUS
 62
7
 10
631.308
 20
255.517
 11
610.308
 21
255.517
  0
LINE
  8
Layer1
  6
CONTINUOUS
 62
7
 10
631.308
 20
305.517
 11
610.308
 21
305.517
  0
LINE
  8
Layer1
  6
CONTINUOUS
 62
7
 10
632.308
 20
304.517
 11
632.308
 21
301.017
  0
LINE
  8
Layer1
  6
CONTINUOUS
 62
7
 10
609.308
 20
304.517
 11
610.308
 21
305.517
  0
LINE
  8
Layer1
  6
CONTINUOUS
 62
7
 10
609.308
 20
256.517
 11
610.308
 21
255.517
  0
LINE
  8
Layer1
  6
CONTINUOUS
 62
7
 10
631.308
 20
255.517
 11
632.308
 21
256.517
  0
LINE
  8
Layer1
  6
CONTINUOUS
 62
7
 10
632.308
 20
256.517
 11
633.308
 21
255.517
  0
LINE
  8
Layer1
  6
CONTINUOUS
 62
7
 10
631.308
 20
305.517
 11
632.308
 21
304.517
  0
LINE
  8
Layer1
  6
CONTINUOUS
 62
7
 10
632.308
 20
304.517
 11
633.308
 21
305.517
  0
LINE
  8
Layer1
  6
CENTER1
 62
7
 10
662.87
 20
298.017
 11
602.373
 21
298.017
  0
LINE
  8
Layer1
  6
DASHED1
 62
7
 10
656.359
 20
300.517
 11
657.801
 21
298.017
  0
LINE
  8
Layer1
  6
DASHED1
 62
7
 10
657.801
 20
298.017
 11
656.359
 21
295.517
  0
LINE
  8
Layer1
  6
CONTINUOUS
 62
7
 10
610.308
 20
294.017
 11
610.308
 21
302.017
  0
LINE
  8
Layer1
  6
CONTINUOUS
 62
7
 10
611.308
 20
303.017
 11
616.308
 21
303.017
  0
LINE
  8
Layer1
  6
CONTINUOUS
 62
7
 10
611.308
 20
293.017
 11
616.308
 21
293.017
  0
LINE
  8
Layer1
  6
CONTINUOUS
 62
7
 10
616.308
 20
303.517
 11
616.308
 21
292.517
  0
LINE
  8
Layer1
  6
DASHED1
 62
7
 10
649.258
 20
301.017
 11
635.008
 21
301.017
  0
LINE
  8
Layer1
  6
DASHED1
 62
7
 10
649.258
 20
295.017
 11
635.274
 21
295.017
  0
LINE
  8
Layer1
  6
DASHED1
 62
7
 10
650.258
 20
296.017
 11
650.258
 21
300.017
  0
LINE
  8
Layer1
  6
CONTINUOUS
 62
7
 10
616.26
 20
300.517
 11
636.8
 21
300.517
  0
LINE
  8
Layer1
  6
CONTINUOUS
 62
7
 10
616.26
 20
295.517
 11
634.57
 21
295.517
  0
LINE
  8
Layer1
  6
DASHED1
 62
7
 10
649.258
 20
301.017
 11
649.258
 21
295.017
  0
LINE
  8
Layer1
  6
DASHED1
 62
7
 10
649.258
 20
301.017
 11
650.258
 21
300.017
  0
LINE
  8
Layer1
  6
DASHED1
 62
7
 10
650.258
 20
296.017
 11
649.258
 21
295.017
  0
LINE
  8
Layer1
  6
CONTINUOUS
 62
7
 10
610.308
 20
294.017
 11
611.308
 21
293.017
  0
LINE
  8
Layer1
  6
CONTINUOUS
 62
7
 10
616.308
 20
303.517
 11
609.308
 21
303.517
  0
LINE
  8
Layer1
  6
CONTINUOUS
 62
7
 10
616.308
 20
292.517
 11
609.308
 21
292.517
  0
LINE
  8
Layer1
  6
DASHED1
 62
7
 10
652.801
 20
301.017
 11
649.258
 21
301.017
  0
LINE
  8
Layer1
  6
DASHED1
 62
7
 10
652.801
 20
295.017
 11
649.258
 21
295.017
  0
LINE
  8
Layer1
  6
DASHED1
 62
7
 10
652.801
 20
301.017
 11
653.667
 21
300.517
  0
LINE
  8
Layer1
  6
DASHED1
 62
7
 10
652.801
 20
295.017
 11
653.667
 21
295.517
  0
LINE
  8
Layer1
  6
DASHED1
 62
7
 10
653.667
 20
300.517
 11
653.667
 21
295.517
  0
LINE
  8
Layer1
  6
CONTINUOUS
 62
7
 10
611.308
 20
303.017
 11
611.308
 21
293.017
  0
LINE
  8
Layer1
  6
CONTINUOUS
 62
7
 10
632.308
 20
295.017
 11
632.308
 21
256.517
  0
LINE
  8
Layer1
  6
CONTINUOUS
 62
7
 10
635.01
 20
301.017
 11
616.26
 21
301.017
  0
LINE
  8
Layer1
  6
DASHED1
 62
7
 10
636.797
 20
300.517
 11
649.758
 21
300.517
  0
LINE
  8
Layer1
  6
DASHED1
 62
7
 10
634.567
 20
295.517
 11
649.758
 21
295.517
  0
LINE
  8
Layer1
  6
CONTINUOUS
 62
7
 10
635.276
 20
295.017
 11
616.26
 21
295.017
  0
LINE
  8
Layer1
  6
CONTINUOUS
 62
7
 10
611.308
 20
303.017
 11
616.308
 21
303.017
  0
LINE
  8
Layer1
  6
CONTINUOUS
 62
7
 10
610.308
 20
302.017
 11
611.308
 21
303.017
  0
LINE
  8
Layer1
  6
CONTINUOUS
 62
7
 10
616.308
 20
303.017
 11
611.308
 21
303.017
  0
LINE
  8
Layer1
  6
CONTINUOUS
 62
7
 10
616.058
 20
302.517
 11
611.558
 21
302.517
  0
LINE
  8
Layer1
  6
CONTINUOUS
 62
7
 10
615.558
 20
301.517
 11
612.058
 21
301.517
  0
LINE
  8
Layer1
  6
CONTINUOUS
 62
7
 10
615.058
 20
300.517
 11
612.558
 21
300.517
  0
LINE
  8
Layer1
  6
CONTINUOUS
 62
7
 10
454.67
 20
320.322
 11
324.67
 21
320.322
  0
LINE
  8
Layer1
  6
CONTINUOUS
 62
7
 10
324.67
 20
320.322
 11
323.67
 21
319.322
  0
LINE
  8
Layer1
  6
CONTINUOUS
 62
7
 10
454.67
 20
320.322
 11
455.67
 21
319.322
  0
LINE
  8
Layer1
  6
CONTINUOUS
 62
7
 10
735.955
 20
235.517
 11
738.273
 21
235.517
  0
LINE
  8
Layer1
  6
CONTINUOUS
 62
7
 10
736.729
 20
253.517
 11
734.41
 21
253.517
  0
LINE
  8
Layer1
  6
CONTINUOUS
 62
7
 10
734.41
 20
249.022
 11
736.729
 21
249.022
  0
LINE
  8
Layer1
  6
CONTINUOUS
 62
7
 10
735.955
 20
240.034
 11
738.273
 21
240.034
  0
LINE
  8
Layer1
  6
CONTINUOUS
 62
7
 10
736.729
 20
253.517
 11
736.729
 21
249.022
  0
LINE
  8
Layer1
  6
CONTINUOUS
 62
7
 10
734.41
 20
253.517
 11
734.41
 21
249.022
  0
LINE
  8
Layer1
  6
CONTINUOUS
 62
7
 10
735.955
 20
240.034
 11
735.955
 21
235.517
  0
LINE
  8
Layer1
  6
CONTINUOUS
 62
7
 10
738.273
 20
240.034
 11
738.273
 21
235.517
  0
LINE
  8
Layer1
  6
CONTINUOUS
 62
7
 10
734.41
 20
249.022
 11
735.955
 21
240.034
  0
LINE
  8
Layer1
  6
CONTINUOUS
 62
7
 10
736.729
 20
249.022
 11
738.273
 21
240.034
  0
LINE
  8
Layer1
  6
CONTINUOUS
 62
7
 10
735.183
 20
244.528
 11
735.955
 21
235.517
  0
LINE
  8
Layer1
  6
CONTINUOUS
 62
7
 10
736.921
 20
253.517
 11
737.501
 21
244.528
  0
LINE
  8
Layer1
  6
CONTINUOUS
 62
7
 10
727.069
 20
235.517
 11
729.388
 21
235.517
  0
LINE
  8
Layer1
  6
CONTINUOUS
 62
7
 10
727.842
 20
253.517
 11
725.523
 21
253.517
  0
LINE
  8
Layer1
  6
CONTINUOUS
 62
7
 10
725.523
 20
249.022
 11
727.842
 21
249.022
  0
LINE
  8
Layer1
  6
CONTINUOUS
 62
7
 10
727.069
 20
240.034
 11
729.388
 21
240.034
  0
LINE
  8
Layer1
  6
CONTINUOUS
 62
7
 10
727.842
 20
253.517
 11
727.842
 21
249.022
  0
LINE
  8
Layer1
  6
CONTINUOUS
 62
7
 10
725.523
 20
253.517
 11
725.523
 21
249.022
  0
LINE
  8
Layer1
  6
CONTINUOUS
 62
7
 10
727.069
 20
240.034
 11
727.069
 21
235.517
  0
LINE
  8
Layer1
  6
CONTINUOUS
 62
7
 10
729.388
 20
240.034
 11
729.388
 21
235.517
  0
LINE
  8
Layer1
  6
CONTINUOUS
 62
7
 10
725.523
 20
249.022
 11
727.069
 21
240.034
  0
LINE
  8
Layer1
  6
CONTINUOUS
 62
7
 10
727.842
 20
249.022
 11
729.388
 21
240.034
  0
LINE
  8
Layer1
  6
CONTINUOUS
 62
7
 10
726.296
 20
244.528
 11
727.069
 21
235.517
  0
LINE
  8
Layer1
  6
CONTINUOUS
 62
7
 10
728.035
 20
253.517
 11
728.614
 21
244.528
  0
LINE
  8
Layer1
  6
CONTINUOUS
 62
7
 10
731.319
 20
235.517
 11
733.638
 21
235.517
  0
LINE
  8
Layer1
  6
CONTINUOUS
 62
7
 10
732.092
 20
253.517
 11
729.773
 21
253.517
  0
LINE
  8
Layer1
  6
CONTINUOUS
 62
7
 10
729.773
 20
249.022
 11
732.092
 21
249.022
  0
LINE
  8
Layer1
  6
CONTINUOUS
 62
7
 10
731.319
 20
240.034
 11
733.638
 21
240.034
  0
LINE
  8
Layer1
  6
CONTINUOUS
 62
7
 10
732.092
 20
253.517
 11
732.092
 21
249.022
  0
LINE
  8
Layer1
  6
CONTINUOUS
 62
7
 10
729.773
 20
253.517
 11
729.773
 21
249.022
  0
LINE
  8
Layer1
  6
CONTINUOUS
 62
7
 10
731.319
 20
240.034
 11
731.319
 21
235.517
  0
LINE
  8
Layer1
  6
CONTINUOUS
 62
7
 10
733.638
 20
240.034
 11
733.638
 21
235.517
  0
LINE
  8
Layer1
  6
CONTINUOUS
 62
7
 10
729.773
 20
249.022
 11
731.319
 21
240.034
  0
LINE
  8
Layer1
  6
CONTINUOUS
 62
7
 10
732.092
 20
249.022
 11
733.638
 21
240.034
  0
LINE
  8
Layer1
  6
CONTINUOUS
 62
7
 10
730.546
 20
244.528
 11
731.319
 21
235.517
  0
LINE
  8
Layer1
  6
CONTINUOUS
 62
7
 10
732.285
 20
253.517
 11
732.864
 21
244.528
  0
LINE
  8
Layer1
  6
CONTINUOUS
 62
7
 10
727.069
 20
235.517
 11
729.388
 21
235.517
  0
LINE
  8
Layer1
  6
CONTINUOUS
 62
7
 10
727.842
 20
253.517
 11
725.523
 21
253.517
  0
LINE
  8
Layer1
  6
CONTINUOUS
 62
7
 10
725.523
 20
249.022
 11
727.842
 21
249.022
  0
LINE
  8
Layer1
  6
CONTINUOUS
 62
7
 10
727.069
 20
240.034
 11
729.388
 21
240.034
  0
LINE
  8
Layer1
  6
CONTINUOUS
 62
7
 10
727.842
 20
253.517
 11
727.842
 21
249.022
  0
LINE
  8
Layer1
  6
CONTINUOUS
 62
7
 10
725.523
 20
253.517
 11
725.523
 21
249.022
  0
LINE
  8
Layer1
  6
CONTINUOUS
 62
7
 10
727.069
 20
240.034
 11
727.069
 21
235.517
  0
LINE
  8
Layer1
  6
CONTINUOUS
 62
7
 10
729.388
 20
240.034
 11
729.388
 21
235.517
  0
LINE
  8
Layer1
  6
CONTINUOUS
 62
7
 10
725.523
 20
249.022
 11
727.069
 21
240.034
  0
LINE
  8
Layer1
  6
CONTINUOUS
 62
7
 10
727.842
 20
249.022
 11
729.388
 21
240.034
  0
LINE
  8
Layer1
  6
CONTINUOUS
 62
7
 10
726.296
 20
244.528
 11
727.069
 21
235.517
  0
LINE
  8
Layer1
  6
CONTINUOUS
 62
7
 10
728.035
 20
253.517
 11
728.614
 21
244.528
  0
LINE
  8
Layer1
  6
CONTINUOUS
 62
7
 10
735.955
 20
235.517
 11
738.273
 21
235.517
  0
LINE
  8
Layer1
  6
CONTINUOUS
 62
7
 10
736.729
 20
253.517
 11
734.41
 21
253.517
  0
LINE
  8
Layer1
  6
CONTINUOUS
 62
7
 10
734.41
 20
249.022
 11
736.729
 21
249.022
  0
LINE
  8
Layer1
  6
CONTINUOUS
 62
7
 10
735.955
 20
240.034
 11
738.273
 21
240.034
  0
LINE
  8
Layer1
  6
CONTINUOUS
 62
7
 10
736.729
 20
253.517
 11
736.729
 21
249.022
  0
LINE
  8
Layer1
  6
CONTINUOUS
 62
7
 10
734.41
 20
253.517
 11
734.41
 21
249.022
  0
LINE
  8
Layer1
  6
CONTINUOUS
 62
7
 10
735.955
 20
240.034
 11
735.955
 21
235.517
  0
LINE
  8
Layer1
  6
CONTINUOUS
 62
7
 10
738.273
 20
240.034
 11
738.273
 21
235.517
  0
LINE
  8
Layer1
  6
CONTINUOUS
 62
7
 10
734.41
 20
249.022
 11
735.955
 21
240.034
  0
LINE
  8
Layer1
  6
CONTINUOUS
 62
7
 10
736.729
 20
249.022
 11
738.273
 21
240.034
  0
LINE
  8
Layer1
  6
CONTINUOUS
 62
7
 10
735.183
 20
244.528
 11
735.955
 21
235.517
  0
LINE
  8
Layer1
  6
CONTINUOUS
 62
7
 10
736.921
 20
253.517
 11
737.501
 21
244.528
  0
LINE
  8
Layer1
  6
CONTINUOUS
 62
7
 10
740.398
 20
235.517
 11
742.717
 21
235.517
  0
LINE
  8
Layer1
  6
CONTINUOUS
 62
7
 10
741.171
 20
253.517
 11
738.854
 21
253.517
  0
LINE
  8
Layer1
  6
CONTINUOUS
 62
7
 10
738.854
 20
249.022
 11
741.171
 21
249.022
  0
LINE
  8
Layer1
  6
CONTINUOUS
 62
7
 10
740.398
 20
240.034
 11
742.717
 21
240.034
  0
LINE
  8
Layer1
  6
CONTINUOUS
 62
7
 10
741.171
 20
253.517
 11
741.171
 21
249.022
  0
LINE
  8
Layer1
  6
CONTINUOUS
 62
7
 10
738.854
 20
253.517
 11
738.854
 21
249.022
  0
LINE
  8
Layer1
  6
CONTINUOUS
 62
7
 10
740.398
 20
240.034
 11
740.398
 21
235.517
  0
LINE
  8
Layer1
  6
CONTINUOUS
 62
7
 10
742.717
 20
240.034
 11
742.717
 21
235.517
  0
LINE
  8
Layer1
  6
CONTINUOUS
 62
7
 10
738.854
 20
249.022
 11
740.398
 21
240.034
  0
LINE
  8
Layer1
  6
CONTINUOUS
 62
7
 10
741.171
 20
249.022
 11
742.717
 21
240.034
  0
LINE
  8
Layer1
  6
CONTINUOUS
 62
7
 10
739.626
 20
244.528
 11
740.398
 21
235.517
  0
LINE
  8
Layer1
  6
CONTINUOUS
 62
7
 10
741.364
 20
253.517
 11
741.944
 21
244.528
  0
LINE
  8
Layer1
  6
CONTINUOUS
 62
7
 10
740.592
 20
235.517
 11
742.91
 21
235.517
  0
LINE
  8
Layer1
  6
CONTINUOUS
 62
7
 10
741.364
 20
253.517
 11
739.046
 21
253.517
  0
LINE
  8
Layer1
  6
CONTINUOUS
 62
7
 10
739.046
 20
249.022
 11
741.364
 21
249.022
  0
LINE
  8
Layer1
  6
CONTINUOUS
 62
7
 10
740.592
 20
240.034
 11
742.91
 21
240.034
  0
LINE
  8
Layer1
  6
CONTINUOUS
 62
7
 10
741.364
 20
253.517
 11
741.364
 21
249.022
  0
LINE
  8
Layer1
  6
CONTINUOUS
 62
7
 10
739.046
 20
253.517
 11
739.046
 21
249.022
  0
LINE
  8
Layer1
  6
CONTINUOUS
 62
7
 10
740.592
 20
240.034
 11
740.592
 21
235.517
  0
LINE
  8
Layer1
  6
CONTINUOUS
 62
7
 10
742.91
 20
240.034
 11
742.91
 21
235.517
  0
LINE
  8
Layer1
  6
CONTINUOUS
 62
7
 10
739.046
 20
249.022
 11
740.592
 21
240.034
  0
LINE
  8
Layer1
  6
CONTINUOUS
 62
7
 10
741.364
 20
249.022
 11
742.91
 21
240.034
  0
LINE
  8
Layer1
  6
CONTINUOUS
 62
7
 10
739.819
 20
244.528
 11
740.592
 21
235.517
  0
LINE
  8
Layer1
  6
CONTINUOUS
 62
7
 10
741.558
 20
253.517
 11
742.138
 21
244.528
  0
LINE
  8
Layer1
  6
CONTINUOUS
 62
7
 10
722.433
 20
235.517
 11
724.751
 21
235.517
  0
LINE
  8
Layer1
  6
CONTINUOUS
 62
7
 10
718.569
 20
253.517
 11
716.251
 21
253.517
  0
LINE
  8
Layer1
  6
CONTINUOUS
 62
7
 10
716.251
 20
249.022
 11
718.569
 21
249.022
  0
LINE
  8
Layer1
  6
CONTINUOUS
 62
7
 10
717.796
 20
240.034
 11
720.114
 21
240.034
  0
LINE
  8
Layer1
  6
CONTINUOUS
 62
7
 10
718.569
 20
253.517
 11
718.569
 21
249.022
  0
LINE
  8
Layer1
  6
CONTINUOUS
 62
7
 10
716.251
 20
253.517
 11
716.251
 21
249.022
  0
LINE
  8
Layer1
  6
CONTINUOUS
 62
7
 10
717.796
 20
240.034
 11
717.796
 21
238.936
  0
LINE
  8
Layer1
  6
CONTINUOUS
 62
7
 10
720.114
 20
240.034
 11
720.114
 21
237.775
  0
LINE
  8
Layer1
  6
CONTINUOUS
 62
7
 10
716.251
 20
249.022
 11
717.796
 21
240.034
  0
LINE
  8
Layer1
  6
CONTINUOUS
 62
7
 10
718.569
 20
249.022
 11
720.114
 21
240.034
  0
LINE
  8
Layer1
  6
CONTINUOUS
 62
7
 10
717.023
 20
244.528
 11
717.486
 21
239.13
  0
LINE
  8
Layer1
  6
CONTINUOUS
 62
7
 10
718.763
 20
253.517
 11
719.342
 21
244.528
  0
LINE
  8
Layer1
  6
CONTINUOUS
 62
7
 10
723.205
 20
253.517
 11
720.888
 21
253.517
  0
LINE
  8
Layer1
  6
CONTINUOUS
 62
7
 10
720.888
 20
249.022
 11
723.205
 21
249.022
  0
LINE
  8
Layer1
  6
CONTINUOUS
 62
7
 10
722.433
 20
240.034
 11
724.751
 21
240.034
  0
LINE
  8
Layer1
  6
CONTINUOUS
 62
7
 10
723.205
 20
253.517
 11
723.205
 21
249.022
  0
LINE
  8
Layer1
  6
CONTINUOUS
 62
7
 10
720.888
 20
253.517
 11
720.888
 21
249.022
  0
LINE
  8
Layer1
  6
CONTINUOUS
 62
7
 10
722.433
 20
240.034
 11
722.433
 21
237.023
  0
LINE
  8
Layer1
  6
CONTINUOUS
 62
7
 10
724.751
 20
240.034
 11
724.751
 21
236.429
  0
LINE
  8
Layer1
  6
CONTINUOUS
 62
7
 10
720.888
 20
249.022
 11
722.433
 21
240.034
  0
LINE
  8
Layer1
  6
CONTINUOUS
 62
7
 10
723.205
 20
249.022
 11
724.751
 21
240.034
  0
LINE
  8
Layer1
  6
CONTINUOUS
 62
7
 10
721.66
 20
244.528
 11
722.301
 21
237.061
  0
LINE
  8
Layer1
  6
CONTINUOUS
 62
7
 10
723.398
 20
253.517
 11
723.979
 21
244.528
  0
LINE
  8
Layer1
  6
CONTINUOUS
 62
7
 10
782.859
 20
431.113
 11
781.859
 21
430.113
  0
LINE
  8
Layer1
  6
CONTINUOUS
 62
7
 10
782.859
 20
599.113
 11
781.859
 21
600.113
  0
LINE
  8
Layer1
  6
CENTER1
 62
7
 10
760.359
 20
578.273
 11
760.359
 21
565.555
  0
CIRCLE
  8
Layer1
  6
CONTINUOUS
 62
7
 10
760.359
 20
572.613
 40
4
  0
LINE
  8
Layer1
  6
CENTER1
 62
7
 10
760.359
 20
451.952
 11
760.359
 21
464.67
  0
CIRCLE
  8
Layer1
  6
CONTINUOUS
 62
7
 10
760.359
 20
457.613
 40
4
  0
TEXT
  8
Layer1
 62
7
 10
597.09
 20
235.898
 72
1
 11
597.09
 21
235.898
 40
4
 41
1
  1
25
  0
TEXT
  8
Layer1
 62
7
 10
771.609
 20
414.918
 72
1
 11
771.609
 21
414.918
 40
4
 41
1
  1
 22.5 
  0
LINE
  8
Layer1
  6
CONTINUOUS
 62
7
 10
760.359
 20
451.952
 11
760.359
 21
413.918
  0
LINE
  8
Layer1
  6
CONTINUOUS
 62
7
 10
782.859
 20
431.113
 11
782.859
 21
413.918
  0
POLYLINE
  8
Layer1
  6
CONTINUOUS
 62
7
 66
1
 10
0
 20
0
 30
0
  0
VERTEX
  8
Layer1
 10
760.359
 20
414.918
  0
VERTEX
  8
Layer1
 10
782.859
 20
414.918
  0
SEQEND
  0
POLYLINE
  8
Layer1
  6
CONTINUOUS
 62
7
 66
1
 10
0
 20
0
 30
0
  0
VERTEX
  8
Layer1
 10
762.29
 20
414.401
  0
VERTEX
  8
Layer1
 10
760.359
 20
414.918
  0
VERTEX
  8
Layer1
 10
762.29
 20
415.436
  0
SEQEND
  0
POLYLINE
  8
Layer1
  6
CONTINUOUS
 62
7
 66
1
 10
0
 20
0
 30
0
  0
VERTEX
  8
Layer1
 10
780.927
 20
415.436
  0
VERTEX
  8
Layer1
 10
782.859
 20
414.918
  0
VERTEX
  8
Layer1
 10
780.927
 20
414.401
  0
SEQEND
  0
TEXT
  8
Layer1
 62
7
 10
760.359
 20
403.877
 72
1
 11
760.359
 21
403.877
 40
4
 41
1
  1
 25 
  0
LINE
  8
Layer1
  6
CONTINUOUS
 62
7
 10
772.859
 20
446.64
 11
772.859
 21
402.877
  0
LINE
  8
Layer1
  6
CONTINUOUS
 62
7
 10
747.859
 20
445.917
 11
747.859
 21
402.877
  0
POLYLINE
  8
Layer1
  6
CONTINUOUS
 62
7
 66
1
 10
0
 20
0
 30
0
  0
VERTEX
  8
Layer1
 10
772.859
 20
403.877
  0
VERTEX
  8
Layer1
 10
747.859
 20
403.877
  0
SEQEND
  0
POLYLINE
  8
Layer1
  6
CONTINUOUS
 62
7
 66
1
 10
0
 20
0
 30
0
  0
VERTEX
  8
Layer1
 10
770.927
 20
404.395
  0
VERTEX
  8
Layer1
 10
772.859
 20
403.877
  0
VERTEX
  8
Layer1
 10
770.927
 20
403.36
  0
SEQEND
  0
POLYLINE
  8
Layer1
  6
CONTINUOUS
 62
7
 66
1
 10
0
 20
0
 30
0
  0
VERTEX
  8
Layer1
 10
749.79
 20
403.36
  0
VERTEX
  8
Layer1
 10
747.859
 20
403.877
  0
VERTEX
  8
Layer1
 10
749.79
 20
404.395
  0
SEQEND
  0
TEXT
  8
Layer1
 62
7
 10
790.657
 20
403.877
 72
1
 11
790.657
 21
403.877
 40
4
 41
1
  1
 10 
  0
LINE
  8
Layer1
  6
CONTINUOUS
 62
7
 10
782.859
 20
414.918
 11
782.859
 21
402.877
  0
POLYLINE
  8
Layer1
  6
CONTINUOUS
 62
7
 66
1
 10
0
 20
0
 30
0
  0
VERTEX
  8
Layer1
 10
794.657
 20
403.877
  0
VERTEX
  8
Layer1
 10
782.859
 20
403.877
  0
SEQEND
  0
POLYLINE
  8
Layer1
  6
CONTINUOUS
 62
7
 66
1
 10
0
 20
0
 30
0
  0
VERTEX
  8
Layer1
 10
784.79
 20
403.36
  0
VERTEX
  8
Layer1
 10
782.859
 20
403.877
  0
VERTEX
  8
Layer1
 10
784.79
 20
404.395
  0
SEQEND
  0
POLYLINE
  8
Layer1
  6
CONTINUOUS
 62
7
 66
1
 10
0
 20
0
 30
0
  0
VERTEX
  8
Layer1
 10
767.859
 20
403.877
  0
VERTEX
  8
Layer1
 10
772.859
 20
403.877
  0
SEQEND
  0
POLYLINE
  8
Layer1
  6
CONTINUOUS
 62
7
 66
1
 10
0
 20
0
 30
0
  0
VERTEX
  8
Layer1
 10
770.927
 20
404.395
  0
VERTEX
  8
Layer1
 10
772.859
 20
403.877
  0
VERTEX
  8
Layer1
 10
770.927
 20
403.36
  0
SEQEND
  0
LINE
  8
Layer1
  6
CONTINUOUS
 62
7
 10
782.859
 20
403.877
 11
772.859
 21
403.877
  0
TEXT
  8
Layer1
 62
7
 10
760.359
 20
392.836
 72
1
 11
760.359
 21
392.836
 40
4
 41
1
  1
 45 
  0
LINE
  8
Layer1
  6
CONTINUOUS
 62
7
 10
782.859
 20
403.877
 11
782.859
 21
391.836
  0
LINE
  8
Layer1
  6
CONTINUOUS
 62
7
 10
737.859
 20
450.113
 11
737.859
 21
391.836
  0
POLYLINE
  8
Layer1
  6
CONTINUOUS
 62
7
 66
1
 10
0
 20
0
 30
0
  0
VERTEX
  8
Layer1
 10
782.859
 20
392.836
  0
VERTEX
  8
Layer1
 10
737.859
 20
392.836
  0
SEQEND
  0
POLYLINE
  8
Layer1
  6
CONTINUOUS
 62
7
 66
1
 10
0
 20
0
 30
0
  0
VERTEX
  8
Layer1
 10
780.927
 20
393.354
  0
VERTEX
  8
Layer1
 10
782.859
 20
392.836
  0
VERTEX
  8
Layer1
 10
780.927
 20
392.318
  0
SEQEND
  0
POLYLINE
  8
Layer1
  6
CONTINUOUS
 62
7
 66
1
 10
0
 20
0
 30
0
  0
VERTEX
  8
Layer1
 10
739.79
 20
392.318
  0
VERTEX
  8
Layer1
 10
737.859
 20
392.836
  0
VERTEX
  8
Layer1
 10
739.79
 20
393.354
  0
SEQEND
  0
TEXT
  8
Layer1
 62
7
 10
680.359
 20
621.373
 72
1
 11
680.359
 21
621.373
 40
4
 41
1
  1
 60 
  0
LINE
  8
Layer1
  6
CONTINUOUS
 62
7
 10
650.359
 20
602.14
 11
650.359
 21
622.373
  0
LINE
  8
Layer1
  6
CONTINUOUS
 62
7
 10
710.359
 20
598.898
 11
710.359
 21
622.373
  0
POLYLINE
  8
Layer1
  6
CONTINUOUS
 62
7
 66
1
 10
0
 20
0
 30
0
  0
VERTEX
  8
Layer1
 10
650.359
 20
621.373
  0
VERTEX
  8
Layer1
 10
710.359
 20
621.373
  0
SEQEND
  0
POLYLINE
  8
Layer1
  6
CONTINUOUS
 62
7
 66
1
 10
0
 20
0
 30
0
  0
VERTEX
  8
Layer1
 10
652.291
 20
620.855
  0
VERTEX
  8
Layer1
 10
650.359
 20
621.373
  0
VERTEX
  8
Layer1
 10
652.291
 20
621.891
  0
SEQEND
  0
POLYLINE
  8
Layer1
  6
CONTINUOUS
 62
7
 66
1
 10
0
 20
0
 30
0
  0
VERTEX
  8
Layer1
 10
708.427
 20
621.891
  0
VERTEX
  8
Layer1
 10
710.359
 20
621.373
  0
VERTEX
  8
Layer1
 10
708.427
 20
620.855
  0
SEQEND
  0
TEXT
  8
Layer1
 62
7
 10
740.359
 20
621.373
 72
1
 11
740.359
 21
621.373
 40
4
 41
1
  1
 60 
  0
LINE
  8
Layer1
  6
CONTINUOUS
 62
7
 10
770.359
 20
597.648
 11
770.359
 21
622.373
  0
POLYLINE
  8
Layer1
  6
CONTINUOUS
 62
7
 66
1
 10
0
 20
0
 30
0
  0
VERTEX
  8
Layer1
 10
710.359
 20
621.373
  0
VERTEX
  8
Layer1
 10
770.359
 20
621.373
  0
SEQEND
  0
POLYLINE
  8
Layer1
  6
CONTINUOUS
 62
7
 66
1
 10
0
 20
0
 30
0
  0
VERTEX
  8
Layer1
 10
712.29
 20
620.855
  0
VERTEX
  8
Layer1
 10
710.359
 20
621.373
  0
VERTEX
  8
Layer1
 10
712.29
 20
621.891
  0
SEQEND
  0
POLYLINE
  8
Layer1
  6
CONTINUOUS
 62
7
 66
1
 10
0
 20
0
 30
0
  0
VERTEX
  8
Layer1
 10
768.427
 20
621.891
  0
VERTEX
  8
Layer1
 10
770.359
 20
621.373
  0
VERTEX
  8
Layer1
 10
768.427
 20
620.855
  0
SEQEND
  0
TEXT
  8
Layer1
 62
7
 10
710.359
 20
632.976
 72
1
 11
710.359
 21
632.976
 40
4
 41
1
  1
 145 
  0
LINE
  8
Layer1
  6
CONTINUOUS
 62
7
 10
782.859
 20
599.113
 11
782.859
 21
633.976
  0
LINE
  8
Layer1
  6
CONTINUOUS
 62
7
 10
637.859
 20
599.113
 11
637.859
 21
633.976
  0
POLYLINE
  8
Layer1
  6
CONTINUOUS
 62
7
 66
1
 10
0
 20
0
 30
0
  0
VERTEX
  8
Layer1
 10
782.859
 20
632.976
  0
VERTEX
  8
Layer1
 10
637.859
 20
632.976
  0
SEQEND
  0
POLYLINE
  8
Layer1
  6
CONTINUOUS
 62
7
 66
1
 10
0
 20
0
 30
0
  0
VERTEX
  8
Layer1
 10
780.927
 20
633.494
  0
VERTEX
  8
Layer1
 10
782.859
 20
632.976
  0
VERTEX
  8
Layer1
 10
780.927
 20
632.458
  0
SEQEND
  0
POLYLINE
  8
Layer1
  6
CONTINUOUS
 62
7
 66
1
 10
0
 20
0
 30
0
  0
VERTEX
  8
Layer1
 10
639.791
 20
632.458
  0
VERTEX
  8
Layer1
 10
637.859
 20
632.976
  0
VERTEX
  8
Layer1
 10
639.791
 20
633.494
  0
SEQEND
  0
TEXT
  8
Layer1
 62
7
 10
825.556
 20
515.113
 72
1
 11
825.556
 21
515.113
 40
4
 41
1
 50
90
  1
 115 
  0
LINE
  8
Layer1
  6
CONTINUOUS
 62
7
 10
806.772
 20
572.613
 11
826.556
 21
572.613
  0
LINE
  8
Layer1
  6
CONTINUOUS
 62
7
 10
806.897
 20
457.613
 11
826.556
 21
457.613
  0
POLYLINE
  8
Layer1
  6
CONTINUOUS
 62
7
 66
1
 10
0
 20
0
 30
0
  0
VERTEX
  8
Layer1
 10
825.556
 20
572.613
  0
VERTEX
  8
Layer1
 10
825.556
 20
457.613
  0
SEQEND
  0
POLYLINE
  8
Layer1
  6
CONTINUOUS
 62
7
 66
1
 10
0
 20
0
 30
0
  0
VERTEX
  8
Layer1
 10
825.038
 20
570.681
  0
VERTEX
  8
Layer1
 10
825.556
 20
572.613
  0
VERTEX
  8
Layer1
 10
826.075
 20
570.681
  0
SEQEND
  0
POLYLINE
  8
Layer1
  6
CONTINUOUS
 62
7
 66
1
 10
0
 20
0
 30
0
  0
VERTEX
  8
Layer1
 10
826.075
 20
459.544
  0
VERTEX
  8
Layer1
 10
825.556
 20
457.613
  0
VERTEX
  8
Layer1
 10
825.038
 20
459.544
  0
SEQEND
  0
TEXT
  8
Layer1
 62
7
 10
851.399
 20
515.113
 72
1
 11
851.399
 21
515.113
 40
4
 41
1
 50
90
  1
 150 
  0
LINE
  8
Layer1
  6
CONTINUOUS
 62
7
 10
780.354
 20
590.113
 11
852.398
 21
590.113
  0
LINE
  8
Layer1
  6
CONTINUOUS
 62
7
 10
779.904
 20
440.113
 11
852.398
 21
440.113
  0
POLYLINE
  8
Layer1
  6
CONTINUOUS
 62
7
 66
1
 10
0
 20
0
 30
0
  0
VERTEX
  8
Layer1
 10
851.399
 20
590.113
  0
VERTEX
  8
Layer1
 10
851.399
 20
440.113
  0
SEQEND
  0
POLYLINE
  8
Layer1
  6
CONTINUOUS
 62
7
 66
1
 10
0
 20
0
 30
0
  0
VERTEX
  8
Layer1
 10
850.883
 20
588.181
  0
VERTEX
  8
Layer1
 10
851.399
 20
590.113
  0
VERTEX
  8
Layer1
 10
851.917
 20
588.181
  0
SEQEND
  0
POLYLINE
  8
Layer1
  6
CONTINUOUS
 62
7
 66
1
 10
0
 20
0
 30
0
  0
VERTEX
  8
Layer1
 10
851.917
 20
442.044
  0
VERTEX
  8
Layer1
 10
851.399
 20
440.113
  0
VERTEX
  8
Layer1
 10
850.883
 20
442.044
  0
SEQEND
  0
TEXT
  8
Layer1
 62
7
 10
864.318
 20
515.113
 72
1
 11
864.318
 21
515.113
 40
4
 41
1
 50
90
  1
 170 
  0
LINE
  8
Layer1
  6
CONTINUOUS
 62
7
 10
781.859
 20
600.113
 11
865.318
 21
600.113
  0
LINE
  8
Layer1
  6
CONTINUOUS
 62
7
 10
781.859
 20
430.113
 11
865.318
 21
430.113
  0
POLYLINE
  8
Layer1
  6
CONTINUOUS
 62
7
 66
1
 10
0
 20
0
 30
0
  0
VERTEX
  8
Layer1
 10
864.318
 20
600.113
  0
VERTEX
  8
Layer1
 10
864.318
 20
430.113
  0
SEQEND
  0
POLYLINE
  8
Layer1
  6
CONTINUOUS
 62
7
 66
1
 10
0
 20
0
 30
0
  0
VERTEX
  8
Layer1
 10
863.808
 20
598.181
  0
VERTEX
  8
Layer1
 10
864.318
 20
600.113
  0
VERTEX
  8
Layer1
 10
864.838
 20
598.181
  0
SEQEND
  0
POLYLINE
  8
Layer1
  6
CONTINUOUS
 62
7
 66
1
 10
0
 20
0
 30
0
  0
VERTEX
  8
Layer1
 10
864.838
 20
432.044
  0
VERTEX
  8
Layer1
 10
864.318
 20
430.113
  0
VERTEX
  8
Layer1
 10
863.808
 20
432.044
  0
SEQEND
  0
TEXT
  8
Layer1
 62
7
 10
762.653
 20
328.842
 72
1
 11
762.653
 21
328.842
 40
4
 41
1
 50
20
  1
 40°
  0
ARC
  8
Layer1
  6
CONTINUOUS
 62
7
 10
781.808
 20
276.216
 40
56.004
 50
90
 51
130
  0
TEXT
  8
Layer1
 62
7
 10
861.288
 20
308.017
 72
1
 11
861.288
 21
308.017
 40
4
 41
1
 50
90
  1
 145 
  0
LINE
  8
Layer1
  6
CONTINUOUS
 62
7
 10
800.934
 20
380.517
 11
862.288
 21
380.517
  0
LINE
  8
Layer1
  6
CONTINUOUS
 62
7
 10
780.806
 20
235.517
 11
862.288
 21
235.517
  0
POLYLINE
  8
Layer1
  6
CONTINUOUS
 62
7
 66
1
 10
0
 20
0
 30
0
  0
VERTEX
  8
Layer1
 10
861.288
 20
380.517
  0
VERTEX
  8
Layer1
 10
861.288
 20
235.517
  0
SEQEND
  0
POLYLINE
  8
Layer1
  6
CONTINUOUS
 62
7
 66
1
 10
0
 20
0
 30
0
  0
VERTEX
  8
Layer1
 10
860.768
 20
378.585
  0
VERTEX
  8
Layer1
 10
861.288
 20
380.517
  0
VERTEX
  8
Layer1
 10
861.808
 20
378.585
  0
SEQEND
  0
POLYLINE
  8
Layer1
  6
CONTINUOUS
 62
7
 66
1
 10
0
 20
0
 30
0
  0
VERTEX
  8
Layer1
 10
861.808
 20
237.448
  0
VERTEX
  8
Layer1
 10
861.288
 20
235.517
  0
VERTEX
  8
Layer1
 10
860.768
 20
237.448
  0
SEQEND
  0
TEXT
  8
Layer1
 62
7
 10
850.717
 20
285.399
 72
1
 11
850.717
 21
285.399
 40
4
 41
1
 50
90
  1
 115.2 
  0
LINE
  8
Layer1
  6
CONTINUOUS
 62
7
 10
780.808
 20
350.717
 11
851.717
 21
350.717
  0
LINE
  8
Layer1
  6
CONTINUOUS
 62
7
 10
841.539
 20
235.517
 11
851.717
 21
235.517
  0
POLYLINE
  8
Layer1
  6
CONTINUOUS
 62
7
 66
1
 10
0
 20
0
 30
0
  0
VERTEX
  8
Layer1
 10
850.717
 20
350.717
  0
VERTEX
  8
Layer1
 10
850.717
 20
235.517
  0
SEQEND
  0
POLYLINE
  8
Layer1
  6
CONTINUOUS
 62
7
 66
1
 10
0
 20
0
 30
0
  0
VERTEX
  8
Layer1
 10
850.2
 20
348.785
  0
VERTEX
  8
Layer1
 10
850.717
 20
350.717
  0
VERTEX
  8
Layer1
 10
851.234
 20
348.785
  0
SEQEND
  0
POLYLINE
  8
Layer1
  6
CONTINUOUS
 62
7
 66
1
 10
0
 20
0
 30
0
  0
VERTEX
  8
Layer1
 10
851.234
 20
237.448
  0
VERTEX
  8
Layer1
 10
850.717
 20
235.517
  0
VERTEX
  8
Layer1
 10
850.2
 20
237.448
  0
SEQEND
  0
TEXT
  8
Layer1
 62
7
 10
389.67
 20
218.095
 72
1
 11
389.67
 21
218.095
 40
4
 41
1
  1
 85 
  0
LINE
  8
Layer1
  6
CONTINUOUS
 62
7
 10
347.17
 20
250.587
 11
347.17
 21
217.095
  0
LINE
  8
Layer1
  6
CONTINUOUS
 62
7
 10
432.17
 20
251.124
 11
432.17
 21
217.095
  0
POLYLINE
  8
Layer1
  6
CONTINUOUS
 62
7
 66
1
 10
0
 20
0
 30
0
  0
VERTEX
  8
Layer1
 10
347.17
 20
218.095
  0
VERTEX
  8
Layer1
 10
432.17
 20
218.095
  0
SEQEND
  0
POLYLINE
  8
Layer1
  6
CONTINUOUS
 62
7
 66
1
 10
0
 20
0
 30
0
  0
VERTEX
  8
Layer1
 10
349.102
 20
217.577
  0
VERTEX
  8
Layer1
 10
347.17
 20
218.095
  0
VERTEX
  8
Layer1
 10
349.102
 20
218.613
  0
SEQEND
  0
POLYLINE
  8
Layer1
  6
CONTINUOUS
 62
7
 66
1
 10
0
 20
0
 30
0
  0
VERTEX
  8
Layer1
 10
430.239
 20
218.613
  0
VERTEX
  8
Layer1
 10
432.17
 20
218.095
  0
VERTEX
  8
Layer1
 10
430.239
 20
217.577
  0
SEQEND
  0
TEXT
  8
Layer1
 62
7
 10
389.67
 20
205.024
 72
1
 11
389.67
 21
205.024
 40
4
 41
1
  1
 100 
  0
LINE
  8
Layer1
  6
CONTINUOUS
 62
7
 10
339.67
 20
256.322
 11
339.67
 21
204.024
  0
LINE
  8
Layer1
  6
CONTINUOUS
 62
7
 10
439.67
 20
256.322
 11
439.67
 21
204.024
  0
POLYLINE
  8
Layer1
  6
CONTINUOUS
 62
7
 66
1
 10
0
 20
0
 30
0
  0
VERTEX
  8
Layer1
 10
339.67
 20
205.024
  0
VERTEX
  8
Layer1
 10
439.67
 20
205.024
  0
SEQEND
  0
POLYLINE
  8
Layer1
  6
CONTINUOUS
 62
7
 66
1
 10
0
 20
0
 30
0
  0
VERTEX
  8
Layer1
 10
341.602
 20
204.506
  0
VERTEX
  8
Layer1
 10
339.67
 20
205.024
  0
VERTEX
  8
Layer1
 10
341.602
 20
205.541
  0
SEQEND
  0
POLYLINE
  8
Layer1
  6
CONTINUOUS
 62
7
 66
1
 10
0
 20
0
 30
0
  0
VERTEX
  8
Layer1
 10
437.739
 20
205.541
  0
VERTEX
  8
Layer1
 10
439.67
 20
205.024
  0
VERTEX
  8
Layer1
 10
437.739
 20
204.506
  0
SEQEND
  0
TEXT
  8
Layer1
 62
7
 10
510.859
 20
257.822
 72
1
 11
510.859
 21
257.822
 40
4
 41
1
 50
90
  1
 45 
  0
LINE
  8
Layer1
  6
CONTINUOUS
 62
7
 10
442.731
 20
280.322
 11
511.859
 21
280.322
  0
LINE
  8
Layer1
  6
CONTINUOUS
 62
7
 10
473.67
 20
235.322
 11
511.859
 21
235.322
  0
POLYLINE
  8
Layer1
  6
CONTINUOUS
 62
7
 66
1
 10
0
 20
0
 30
0
  0
VERTEX
  8
Layer1
 10
510.859
 20
280.322
  0
VERTEX
  8
Layer1
 10
510.859
 20
235.322
  0
SEQEND
  0
POLYLINE
  8
Layer1
  6
CONTINUOUS
 62
7
 66
1
 10
0
 20
0
 30
0
  0
VERTEX
  8
Layer1
 10
510.341
 20
278.39
  0
VERTEX
  8
Layer1
 10
510.859
 20
280.322
  0
VERTEX
  8
Layer1
 10
511.377
 20
278.39
  0
SEQEND
  0
POLYLINE
  8
Layer1
  6
CONTINUOUS
 62
7
 66
1
 10
0
 20
0
 30
0
  0
VERTEX
  8
Layer1
 10
511.377
 20
237.254
  0
VERTEX
  8
Layer1
 10
510.859
 20
235.322
  0
VERTEX
  8
Layer1
 10
510.341
 20
237.254
  0
SEQEND
  0
TEXT
  8
Layer1
 62
7
 10
524.208
 20
280.322
 72
1
 11
524.208
 21
280.322
 40
4
 41
1
 50
90
  1
 35 
  0
LINE
  8
Layer1
  6
CONTINUOUS
 62
7
 10
437.67
 20
297.822
 11
525.208
 21
297.822
  0
LINE
  8
Layer1
  6
CONTINUOUS
 62
7
 10
439.67
 20
262.822
 11
525.208
 21
262.822
  0
POLYLINE
  8
Layer1
  6
CONTINUOUS
 62
7
 66
1
 10
0
 20
0
 30
0
  0
VERTEX
  8
Layer1
 10
524.208
 20
297.822
  0
VERTEX
  8
Layer1
 10
524.208
 20
262.822
  0
SEQEND
  0
POLYLINE
  8
Layer1
  6
CONTINUOUS
 62
7
 66
1
 10
0
 20
0
 30
0
  0
VERTEX
  8
Layer1
 10
523.691
 20
295.89
  0
VERTEX
  8
Layer1
 10
524.208
 20
297.822
  0
VERTEX
  8
Layer1
 10
524.726
 20
295.89
  0
SEQEND
  0
POLYLINE
  8
Layer1
  6
CONTINUOUS
 62
7
 66
1
 10
0
 20
0
 30
0
  0
VERTEX
  8
Layer1
 10
524.726
 20
264.754
  0
VERTEX
  8
Layer1
 10
524.208
 20
262.822
  0
VERTEX
  8
Layer1
 10
523.691
 20
264.754
  0
SEQEND
  0
TEXT
  8
Layer1
 62
7
 10
537.003
 20
280.322
 72
1
 11
537.003
 21
280.322
 40
4
 41
1
 50
90
  1
 50 
  0
LINE
  8
Layer1
  6
CONTINUOUS
 62
7
 10
454.47
 20
305.322
 11
538.003
 21
305.322
  0
LINE
  8
Layer1
  6
CONTINUOUS
 62
7
 10
438.67
 20
255.322
 11
538.003
 21
255.322
  0
POLYLINE
  8
Layer1
  6
CONTINUOUS
 62
7
 66
1
 10
0
 20
0
 30
0
  0
VERTEX
  8
Layer1
 10
537.003
 20
305.322
  0
VERTEX
  8
Layer1
 10
537.003
 20
255.322
  0
SEQEND
  0
POLYLINE
  8
Layer1
  6
CONTINUOUS
 62
7
 66
1
 10
0
 20
0
 30
0
  0
VERTEX
  8
Layer1
 10
536.484
 20
303.39
  0
VERTEX
  8
Layer1
 10
537.003
 20
305.322
  0
VERTEX
  8
Layer1
 10
537.519
 20
303.39
  0
SEQEND
  0
POLYLINE
  8
Layer1
  6
CONTINUOUS
 62
7
 66
1
 10
0
 20
0
 30
0
  0
VERTEX
  8
Layer1
 10
537.519
 20
257.254
  0
VERTEX
  8
Layer1
 10
537.003
 20
255.322
  0
VERTEX
  8
Layer1
 10
536.484
 20
257.254
  0
SEQEND
  0
TEXT
  8
Layer1
 62
7
 10
550.907
 20
277.822
 72
1
 11
550.907
 21
277.822
 40
4
 41
1
 50
90
  1
 85 
  0
LINE
  8
Layer1
  6
CONTINUOUS
 62
7
 10
454.67
 20
320.322
 11
551.907
 21
320.322
  0
LINE
  8
Layer1
  6
CONTINUOUS
 62
7
 10
510.859
 20
235.322
 11
551.907
 21
235.322
  0
POLYLINE
  8
Layer1
  6
CONTINUOUS
 62
7
 66
1
 10
0
 20
0
 30
0
  0
VERTEX
  8
Layer1
 10
550.907
 20
320.322
  0
VERTEX
  8
Layer1
 10
550.907
 20
235.322
  0
SEQEND
  0
POLYLINE
  8
Layer1
  6
CONTINUOUS
 62
7
 66
1
 10
0
 20
0
 30
0
  0
VERTEX
  8
Layer1
 10
550.39
 20
318.39
  0
VERTEX
  8
Layer1
 10
550.907
 20
320.322
  0
VERTEX
  8
Layer1
 10
551.426
 20
318.39
  0
SEQEND
  0
POLYLINE
  8
Layer1
  6
CONTINUOUS
 62
7
 66
1
 10
0
 20
0
 30
0
  0
VERTEX
  8
Layer1
 10
551.426
 20
237.254
  0
VERTEX
  8
Layer1
 10
550.907
 20
235.322
  0
VERTEX
  8
Layer1
 10
550.39
 20
237.254
  0
SEQEND
  0
TEXT
  8
Layer1
 62
7
 10
371.244
 20
273.718
 72
1
 11
371.244
 21
273.718
 40
4
 41
1
  1
 12.5 
  0
LINE
  8
Layer1
  6
CONTINUOUS
 62
7
 10
359.67
 20
294.987
 11
359.67
 21
272.718
  0
LINE
  8
Layer1
  6
CONTINUOUS
 62
7
 10
347.17
 20
291.377
 11
347.17
 21
272.718
  0
POLYLINE
  8
Layer1
  6
CONTINUOUS
 62
7
 66
1
 10
0
 20
0
 30
0
  0
VERTEX
  8
Layer1
 10
377.244
 20
273.718
  0
VERTEX
  8
Layer1
 10
359.67
 20
273.718
  0
SEQEND
  0
POLYLINE
  8
Layer1
  6
CONTINUOUS
 62
7
 66
1
 10
0
 20
0
 30
0
  0
VERTEX
  8
Layer1
 10
361.602
 20
273.201
  0
VERTEX
  8
Layer1
 10
359.67
 20
273.718
  0
VERTEX
  8
Layer1
 10
361.602
 20
274.236
  0
SEQEND
  0
POLYLINE
  8
Layer1
  6
CONTINUOUS
 62
7
 66
1
 10
0
 20
0
 30
0
  0
VERTEX
  8
Layer1
 10
342.17
 20
273.718
  0
VERTEX
  8
Layer1
 10
347.17
 20
273.718
  0
SEQEND
  0
POLYLINE
  8
Layer1
  6
CONTINUOUS
 62
7
 66
1
 10
0
 20
0
 30
0
  0
VERTEX
  8
Layer1
 10
345.239
 20
274.236
  0
VERTEX
  8
Layer1
 10
347.17
 20
273.718
  0
VERTEX
  8
Layer1
 10
345.239
 20
273.201
  0
SEQEND
  0
LINE
  8
Layer1
  6
CONTINUOUS
 62
7
 10
359.67
 20
273.718
 11
347.17
 21
273.718
  0
TEXT
  8
Layer1
 62
7
 10
297.132
 20
329.928
 40
6
 41
1
  1
(センター穴)
  0
LINE
  8
Layer1
  6
CENTER1
 62
7
 10
759.308
 20
387.029
 11
759.308
 21
298.476
  0
LINE
  8
Layer1
  6
CENTER1
 62
7
 10
680.359
 20
583.525
 11
680.359
 21
597.648
  0
CIRCLE
  8
Layer1
  6
CONTINUOUS
 62
7
 10
680.359
 20
590.113
 40
4
  0
LINE
  8
Layer1
  6
CENTER1
 62
7
 10
680.359
 20
446.7
 11
680.359
 21
432.577
  0
CIRCLE
  8
Layer1
  6
CONTINUOUS
 62
7
 10
680.359
 20
440.113
 40
4
  0
TEXT
  8
Layer1
 62
7
 10
731.609
 20
612.934
 72
1
 11
731.609
 21
612.934
 40
4
 41
1
  1
 102.5 
  0
LINE
  8
Layer1
  6
CONTINUOUS
 62
7
 10
680.359
 20
597.648
 11
680.359
 21
613.934
  0
LINE
  8
Layer1
  6
CONTINUOUS
 62
7
 10
782.859
 20
613.82
 11
782.859
 21
611.934
  0
POLYLINE
  8
Layer1
  6
CONTINUOUS
 62
7
 66
1
 10
0
 20
0
 30
0
  0
VERTEX
  8
Layer1
 10
680.359
 20
612.934
  0
VERTEX
  8
Layer1
 10
782.859
 20
612.934
  0
SEQEND
  0
POLYLINE
  8
Layer1
  6
CONTINUOUS
 62
7
 66
1
 10
0
 20
0
 30
0
  0
VERTEX
  8
Layer1
 10
682.291
 20
612.417
  0
VERTEX
  8
Layer1
 10
680.359
 20
612.934
  0
VERTEX
  8
Layer1
 10
682.291
 20
613.452
  0
SEQEND
  0
POLYLINE
  8
Layer1
  6
CONTINUOUS
 62
7
 66
1
 10
0
 20
0
 30
0
  0
VERTEX
  8
Layer1
 10
780.927
 20
613.452
  0
VERTEX
  8
Layer1
 10
782.859
 20
612.934
  0
VERTEX
  8
Layer1
 10
780.927
 20
612.417
  0
SEQEND
  0
TEXT
  8
Layer1
 62
7
 10
776.609
 20
621.373
 72
1
 11
776.609
 21
621.373
 40
4
 41
1
  1
 12.5 
  0
LINE
  8
Layer1
  6
CONTINUOUS
 62
7
 10
782.859
 20
622.436
 11
782.859
 21
620.373
  0
POLYLINE
  8
Layer1
  6
CONTINUOUS
 62
7
 66
1
 10
0
 20
0
 30
0
  0
VERTEX
  8
Layer1
 10
770.359
 20
621.373
  0
VERTEX
  8
Layer1
 10
782.859
 20
621.373
  0
SEQEND
  0
POLYLINE
  8
Layer1
  6
CONTINUOUS
 62
7
 66
1
 10
0
 20
0
 30
0
  0
VERTEX
  8
Layer1
 10
772.29
 20
620.855
  0
VERTEX
  8
Layer1
 10
770.359
 20
621.373
  0
VERTEX
  8
Layer1
 10
772.29
 20
621.891
  0
SEQEND
  0
POLYLINE
  8
Layer1
  6
CONTINUOUS
 62
7
 66
1
 10
0
 20
0
 30
0
  0
VERTEX
  8
Layer1
 10
780.927
 20
621.891
  0
VERTEX
  8
Layer1
 10
782.859
 20
621.373
  0
VERTEX
  8
Layer1
 10
780.927
 20
620.855
  0
SEQEND
  0
POLYLINE
  8
Layer1
  6
CONTINUOUS
 62
7
 66
1
 10
0
 20
0
 30
0
 70
1
  0
VERTEX
  8
Layer1
 10
648.806
 20
461.043
  0
VERTEX
  8
Layer1
 10
645.835
 20
459.328
  0
VERTEX
  8
Layer1
 10
645.835
 20
455.898
  0
VERTEX
  8
Layer1
 10
648.806
 20
454.183
  0
VERTEX
  8
Layer1
 10
651.776
 20
455.898
  0
VERTEX
  8
Layer1
 10
651.776
 20
459.328
  0
SEQEND
  0
POLYLINE
  8
Layer1
  6
CONTINUOUS
 62
7
 66
1
 10
0
 20
0
 30
0
 70
1
  0
VERTEX
  8
Layer1
 10
686.806
 20
461.043
  0
VERTEX
  8
Layer1
 10
683.835
 20
459.328
  0
VERTEX
  8
Layer1
 10
683.835
 20
455.898
  0
VERTEX
  8
Layer1
 10
686.806
 20
454.183
  0
VERTEX
  8
Layer1
 10
689.777
 20
455.898
  0
VERTEX
  8
Layer1
 10
689.777
 20
459.328
  0
SEQEND
  0
POLYLINE
  8
Layer1
  6
CONTINUOUS
 62
7
 66
1
 10
0
 20
0
 30
0
 70
1
  0
VERTEX
  8
Layer1
 10
724.806
 20
461.043
  0
VERTEX
  8
Layer1
 10
721.835
 20
459.328
  0
VERTEX
  8
Layer1
 10
721.835
 20
455.898
  0
VERTEX
  8
Layer1
 10
724.806
 20
454.183
  0
VERTEX
  8
Layer1
 10
727.777
 20
455.898
  0
VERTEX
  8
Layer1
 10
727.777
 20
459.328
  0
SEQEND
  0
POLYLINE
  8
Layer1
  6
CONTINUOUS
 62
7
 66
1
 10
0
 20
0
 30
0
 70
1
  0
VERTEX
  8
Layer1
 10
724.859
 20
576.043
  0
VERTEX
  8
Layer1
 10
721.888
 20
574.328
  0
VERTEX
  8
Layer1
 10
721.888
 20
570.898
  0
VERTEX
  8
Layer1
 10
724.859
 20
569.183
  0
VERTEX
  8
Layer1
 10
727.83
 20
570.898
  0
VERTEX
  8
Layer1
 10
727.83
 20
574.328
  0
SEQEND
  0
POLYLINE
  8
Layer1
  6
CONTINUOUS
 62
7
 66
1
 10
0
 20
0
 30
0
 70
1
  0
VERTEX
  8
Layer1
 10
686.859
 20
576.043
  0
VERTEX
  8
Layer1
 10
683.888
 20
574.328
  0
VERTEX
  8
Layer1
 10
683.888
 20
570.898
  0
VERTEX
  8
Layer1
 10
686.859
 20
569.183
  0
VERTEX
  8
Layer1
 10
689.83
 20
570.898
  0
VERTEX
  8
Layer1
 10
689.83
 20
574.328
  0
SEQEND
  0
POLYLINE
  8
Layer1
  6
CONTINUOUS
 62
7
 66
1
 10
0
 20
0
 30
0
 70
1
  0
VERTEX
  8
Layer1
 10
648.859
 20
576.043
  0
VERTEX
  8
Layer1
 10
645.888
 20
574.328
  0
VERTEX
  8
Layer1
 10
645.888
 20
570.898
  0
VERTEX
  8
Layer1
 10
648.859
 20
569.183
  0
VERTEX
  8
Layer1
 10
651.83
 20
570.898
  0
VERTEX
  8
Layer1
 10
651.83
 20
574.328
  0
SEQEND
  0
POLYLINE
  8
Layer1
  6
CONTINUOUS
 62
7
 66
1
 10
0
 20
0
 30
0
  0
VERTEX
  8
Layer1
 10
677.673
 20
437.149
  0
VERTEX
  8
Layer1
 10
651.286
 20
410.44
  0
SEQEND
  0
POLYLINE
  8
Layer1
  6
CONTINUOUS
 62
7
 66
1
 10
0
 20
0
 30
0
  0
VERTEX
  8
Layer1
 10
675.947
 20
436.139
  0
VERTEX
  8
Layer1
 10
677.673
 20
437.149
  0
VERTEX
  8
Layer1
 10
676.683
 20
435.411
  0
SEQEND
  0
LINE
  8
Layer1
  6
CONTINUOUS
 62
7
 10
651.286
 20
410.44
 11
599.286
 21
410.44
  0
TEXT
  8
Layer1
 62
7
 10
599.286
 20
410.44
 40
8
 41
1
  1
2-φ8ノック穴
  0
POLYLINE
  8
Layer1
  6
CONTINUOUS
 62
7
 66
1
 10
0
 20
0
 30
0
  0
VERTEX
  8
Layer1
 10
763.366
 20
454.975
  0
VERTEX
  8
Layer1
 10
839.864
 20
418.635
  0
SEQEND
  0
POLYLINE
  8
Layer1
  6
CONTINUOUS
 62
7
 66
1
 10
0
 20
0
 30
0
  0
VERTEX
  8
Layer1
 10
764.889
 20
453.679
  0
VERTEX
  8
Layer1
 10
763.366
 20
454.975
  0
VERTEX
  8
Layer1
 10
765.333
 20
454.614
  0
SEQEND
  0
LINE
  8
Layer1
  6
CONTINUOUS
 62
7
 10
839.864
 20
418.635
 11
891.868
 21
418.635
  0
TEXT
  8
Layer1
 62
7
 10
891.868
 20
418.635
 72
2
 11
891.868
 21
418.635
 40
8
 41
1
  1
2-φ8ノック穴
  0
TEXT
  8
Layer1
 62
7
 10
820.461
 20
519.227
 73
3
 11
820.461
 21
519.227
 40
4
 41
1
 50
90
  1
±0.02(ノック穴)
  0
TEXT
  8
Layer1
 62
7
 10
846.652
 20
520.12
 73
3
 11
846.652
 21
520.12
 40
4
 41
1
 50
90
  1
±0.02(ノック穴)
  0
TEXT
  8
Layer1
 62
7
 10
737.929
 20
617.791
 73
3
 11
737.929
 21
617.791
 40
4
 41
1
 50
2.03555e-013
  1
±0.02(ノック穴)
  0
TEXT
  8
Layer1
 62
7
 10
776.378
 20
420.539
 73
3
 11
776.378
 21
420.539
 40
4
 41
1
 50
2.03555e-013
  1
±0.02(ノック穴)
  0
TEXT
  8
Layer1
 62
7
 10
338.407
 20
523.746
 73
3
 11
338.407
 21
523.746
 40
10
 41
1
  1
N-EMC-50-100-25
  0
LINE
  8
Layer1
  6
CONTINUOUS
 62
7
 10
333.783
 20
527.638
 11
333.783
 21
510.198
  0
LINE
  8
Layer1
  6
CONTINUOUS
 62
7
 10
333.783
 20
510.198
 11
416.581
 21
510.198
  0
LINE
  8
Layer1
  6
CONTINUOUS
 62
7
 10
416.581
 20
527.638
 11
416.581
 21
510.198
  0
LINE
  8
Layer1
  6
CONTINUOUS
 62
7
 10
333.783
 20
527.638
 11
416.581
 21
527.638
  0
ENDSEC
  0
EOF
