  0
SECTION
  2
HEADER
  9
$EXTMIN
 10
0
 20
0
  9
$EXTMAX
 10
841
 20
594
  9
$LTSCALE
 40
1
  9
$LIMMIN
 10
0
 20
0
  9
$LIMMAX
 10
841
 20
594
  9
$DIMSCALE
 40
1
  0
ENDSEC
  0
SECTION
  2
TABLES
  0
TABLE
  2
LTYPE
 70
9
  0
LTYPE
  2
CONTINUOUS
 70
64
  3
----------
 72
65
 73
0
 40
0
  0
LTYPE
  2
DASHED1
 70
64
  3
--  --  --  --  --  --  --  --  
 72
65
 73
2
 40
2.5
 49
1.25
 49
-1.25
  0
LTYPE
  2
DASHED2
 70
64
  3
----    ----    ----    ----    
 72
65
 73
2
 40
5
 49
2.5
 49
-2.5
  0
LTYPE
  2
DASHED3
 70
64
  3
------  ------  ------  ------  
 72
65
 73
2
 40
5
 49
3.75
 49
-1.25
  0
LTYPE
  2
CENTER1
 70
64
  3
----- - ----- - ----- - ----- - 
 72
65
 73
4
 40
7.5
 49
3.75
 49
-1.25
 49
1.25
 49
-1.25
  0
LTYPE
  2
CENTER2
 70
64
  3
----------  --  ----------  --  
 72
65
 73
4
 40
13.75
 49
6.25
 49
-2.5
 49
2.5
 49
-2.5
  0
LTYPE
  2
PHANTOM1
 70
64
  3
--- - - --- - - --- - - --- - - 
 72
65
 73
6
 40
9.5
 49
3.25
 49
-1.25
 49
1.25
 49
-1.25
 49
1.25
 49
-1.25
  0
LTYPE
  2
PHANTOM2
 70
64
  3
--------  -  -  --------  -  -  
 72
65
 73
6
 40
18
 49
8
 49
-2.5
 49
1.25
 49
-2.5
 49
1.25
 49
-2.5
  0
LTYPE
  2
DOT
 70
64
  3
-   -   -   -   -   -   -   -   
 72
65
 73
2
 40
2.5
 49
0.625
 49
-1.875
  0
LTYPE
  2
HOJO
 70
64
  3
-   -   -   -   -   -   -   -   
 72
65
 73
2
 40
2.5
 49
0.625
 49
-1.875
  0
ENDTAB
  0
TABLE
  2
STYLE
 70
2
  0
STYLE
  2
STANDARD
 70
64
 40
0
 41
1
 42
0
 50
0
 71
0
  3
TXT
  4
BIGFONT
  0
STYLE
  2
TATEGAKI
 70
68
 40
0
 41
1
 42
0
 50
0
 71
0
  3
TXT
  4
EXTFONT
  0
ENDTAB
  0
TABLE
  2
LAYER
 70
1
  0
LAYER
  2
Layer2
 70
64
 62
7
  6
CONTINUOUS
  0
ENDTAB
  0
ENDSEC
  0
SECTION
  2
ENTITIES
  0
LINE
  8
Layer2
  6
CONTINUOUS
 62
7
 10
278.312
 20
86.6292
 11
142.312
 21
86.6292
  0
LINE
  8
Layer2
  6
CONTINUOUS
 62
7
 10
142.312
 20
109.629
 11
159.812
 21
109.629
  0
LINE
  8
Layer2
  6
CENTER1
 62
7
 10
177.002
 20
146.629
 11
241.012
 21
146.629
  0
LINE
  8
Layer2
  6
CONTINUOUS
 62
7
 10
163.812
 20
184.129
 11
256.812
 21
184.129
  0
LINE
  8
Layer2
  6
CONTINUOUS
 62
7
 10
256.812
 20
200.129
 11
163.812
 21
200.129
  0
LINE
  8
Layer2
  6
CONTINUOUS
 62
7
 10
279.312
 20
108.629
 11
279.312
 21
87.6292
  0
LINE
  8
Layer2
  6
CONTINUOUS
 62
7
 10
141.312
 20
87.6292
 11
141.312
 21
108.629
  0
LINE
  8
Layer2
  6
CENTER1
 62
7
 10
210.312
 20
82.0589
 11
210.312
 21
282.06
  0
LINE
  8
Layer2
  6
CONTINUOUS
 62
7
 10
162.812
 20
185.129
 11
162.812
 21
199.129
  0
LINE
  8
Layer2
  6
CONTINUOUS
 62
7
 10
257.812
 20
185.129
 11
257.812
 21
199.129
  0
LINE
  8
Layer2
  6
CONTINUOUS
 62
7
 10
235.312
 20
109.129
 11
235.312
 21
183.129
  0
LINE
  8
Layer2
  6
CONTINUOUS
 62
7
 10
185.312
 20
109.129
 11
185.312
 21
183.129
  0
LINE
  8
Layer2
  6
CONTINUOUS
 62
7
 10
162.812
 20
183.129
 11
162.812
 21
112.629
  0
LINE
  8
Layer2
  6
CONTINUOUS
 62
7
 10
257.812
 20
183.129
 11
257.812
 21
112.629
  0
LINE
  8
Layer2
  6
CONTINUOUS
 62
7
 10
185.312
 20
109.129
 11
235.312
 21
109.129
  0
LINE
  8
Layer2
  6
CONTINUOUS
 62
7
 10
278.312
 20
109.629
 11
260.812
 21
109.629
  0
ARC
  8
Layer2
  6
CONTINUOUS
 62
7
 10
159.812
 20
112.629
 40
3
 50
270
 51
2.03555e-013
  0
ARC
  8
Layer2
  6
CONTINUOUS
 62
7
 10
260.812
 20
112.629
 40
3
 50
180
 51
270
  0
LINE
  8
Layer2
  6
CONTINUOUS
 62
7
 10
256.812
 20
200.129
 11
257.812
 21
199.129
  0
LINE
  8
Layer2
  6
CONTINUOUS
 62
7
 10
257.812
 20
185.129
 11
256.812
 21
184.129
  0
LINE
  8
Layer2
  6
CONTINUOUS
 62
7
 10
256.812
 20
184.129
 11
257.812
 21
183.129
  0
LINE
  8
Layer2
  6
CONTINUOUS
 62
7
 10
236.312
 20
184.129
 11
235.312
 21
183.129
  0
LINE
  8
Layer2
  6
CONTINUOUS
 62
7
 10
163.812
 20
184.129
 11
162.812
 21
183.129
  0
LINE
  8
Layer2
  6
CONTINUOUS
 62
7
 10
184.312
 20
184.129
 11
185.312
 21
183.129
  0
LINE
  8
Layer2
  6
CONTINUOUS
 62
7
 10
234.312
 20
184.129
 11
235.312
 21
183.129
  0
LINE
  8
Layer2
  6
CONTINUOUS
 62
7
 10
185.312
 20
183.129
 11
186.312
 21
184.129
  0
LINE
  8
Layer2
  6
CONTINUOUS
 62
7
 10
142.312
 20
109.629
 11
141.312
 21
108.629
  0
LINE
  8
Layer2
  6
CONTINUOUS
 62
7
 10
141.312
 20
87.6292
 11
142.312
 21
86.6292
  0
LINE
  8
Layer2
  6
CONTINUOUS
 62
7
 10
278.312
 20
86.6292
 11
279.312
 21
87.6292
  0
LINE
  8
Layer2
  6
CONTINUOUS
 62
7
 10
279.312
 20
108.629
 11
278.312
 21
109.629
  0
LINE
  8
Layer2
  6
CONTINUOUS
 62
7
 10
234.312
 20
109.129
 11
235.312
 21
110.129
  0
LINE
  8
Layer2
  6
CONTINUOUS
 62
7
 10
186.312
 20
109.129
 11
185.312
 21
110.129
  0
LINE
  8
Layer2
  6
CENTER1
 62
7
 10
246.312
 20
282.12
 11
246.312
 21
255.086
  0
LINE
  8
Layer2
  6
CENTER1
 62
7
 10
174.312
 20
280.927
 11
174.312
 21
253.227
  0
LINE
  8
Layer2
  6
CONTINUOUS
 62
7
 10
256.812
 20
277.229
 11
163.812
 21
277.229
  0
LINE
  8
Layer2
  6
CONTINUOUS
 62
7
 10
163.812
 20
261.229
 11
182.312
 21
261.229
  0
LINE
  8
Layer2
  6
DASHED1
 62
7
 10
187.312
 20
162.229
 11
201.312
 21
162.229
  0
LINE
  8
Layer2
  6
CONTINUOUS
 62
7
 10
257.812
 20
262.229
 11
257.812
 21
276.229
  0
LINE
  8
Layer2
  6
CONTINUOUS
 62
7
 10
162.812
 20
262.229
 11
162.812
 21
276.229
  0
LINE
  8
Layer2
  6
CONTINUOUS
 62
7
 10
162.812
 20
276.229
 11
163.812
 21
277.229
  0
LINE
  8
Layer2
  6
CONTINUOUS
 62
7
 10
256.812
 20
277.229
 11
257.812
 21
276.229
  0
LINE
  8
Layer2
  6
CONTINUOUS
 62
7
 10
257.812
 20
262.229
 11
256.812
 21
261.229
  0
LINE
  8
Layer2
  6
CONTINUOUS
 62
7
 10
162.812
 20
262.229
 11
163.812
 21
261.229
  0
LINE
  8
Layer2
  6
DASHED1
 62
7
 10
235.312
 20
164.229
 11
235.312
 21
200.129
  0
LINE
  8
Layer2
  6
DASHED1
 62
7
 10
185.312
 20
164.229
 11
185.312
 21
200.129
  0
LINE
  8
Layer2
  6
CONTINUOUS
 62
7
 10
238.312
 20
261.229
 11
256.812
 21
261.229
  0
ARC
  8
Layer2
  6
CONTINUOUS
 62
7
 10
182.312
 20
258.229
 40
3
 50
0
 51
90
  0
ARC
  8
Layer2
  6
CONTINUOUS
 62
7
 10
238.312
 20
258.229
 40
3
 50
90
 51
180
  0
LINE
  8
Layer2
  6
CONTINUOUS
 62
7
 10
185.312
 20
200.129
 11
185.312
 21
258.229
  0
LINE
  8
Layer2
  6
CONTINUOUS
 62
7
 10
235.312
 20
200.129
 11
235.312
 21
258.229
  0
LINE
  8
Layer2
  6
DASHED1
 62
7
 10
235.312
 20
164.229
 11
233.312
 21
162.229
  0
LINE
  8
Layer2
  6
DASHED1
 62
7
 10
187.312
 20
162.229
 11
185.312
 21
164.229
  0
LINE
  8
Layer2
  6
CONTINUOUS
 62
7
 10
497.264
 20
197.612
 11
489.781
 21
190.129
  0
LINE
  8
Layer2
  6
CONTINUOUS
 62
7
 10
502.764
 20
200.129
 11
502.764
 21
192.929
  0
LINE
  8
Layer2
  6
CONTINUOUS
 62
7
 10
497.764
 20
200.129
 11
497.764
 21
192.929
  0
LINE
  8
Layer2
  6
CONTINUOUS
 62
7
 10
497.223
 20
200.129
 11
497.223
 21
190.129
  0
LINE
  8
Layer2
  6
CONTINUOUS
 62
7
 10
503.264
 20
200.129
 11
503.264
 21
190.129
  0
LINE
  8
Layer2
  6
CONTINUOUS
 62
7
 10
206.369
 20
206.896
 11
214.214
 21
206.896
  0
LINE
  8
Layer2
  6
CONTINUOUS
 62
7
 10
206.041
 20
206.293
 11
214.515
 21
206.293
  0
LINE
  8
Layer2
  6
CONTINUOUS
 62
7
 10
205.946
 20
202.913
 11
214.394
 21
202.913
  0
LINE
  8
Layer2
  6
CONTINUOUS
 62
7
 10
215.119
 20
202.189
 11
205.221
 21
202.189
  0
LINE
  8
Layer2
  6
CONTINUOUS
 62
7
 10
215.119
 20
202.189
 11
215.119
 21
200.318
  0
LINE
  8
Layer2
  6
CONTINUOUS
 62
7
 10
205.221
 20
202.189
 11
205.221
 21
200.318
  0
POLYLINE
  8
Layer2
  6
CONTINUOUS
 62
7
 66
1
 10
0
 20
0
 30
0
  0
VERTEX
  8
Layer2
 10
210.164
 20
204.11
  0
VERTEX
  8
Layer2
 10
210.098
 20
204.167
  0
VERTEX
  8
Layer2
 10
210.031
 20
204.222
  0
VERTEX
  8
Layer2
 10
209.963
 20
204.275
  0
VERTEX
  8
Layer2
 10
209.893
 20
204.327
  0
VERTEX
  8
Layer2
 10
209.822
 20
204.377
  0
VERTEX
  8
Layer2
 10
209.75
 20
204.425
  0
VERTEX
  8
Layer2
 10
209.678
 20
204.472
  0
VERTEX
  8
Layer2
 10
209.602
 20
204.516
  0
VERTEX
  8
Layer2
 10
209.527
 20
204.558
  0
VERTEX
  8
Layer2
 10
209.451
 20
204.599
  0
VERTEX
  8
Layer2
 10
209.373
 20
204.637
  0
VERTEX
  8
Layer2
 10
209.293
 20
204.674
  0
VERTEX
  8
Layer2
 10
209.214
 20
204.708
  0
VERTEX
  8
Layer2
 10
209.134
 20
204.74
  0
VERTEX
  8
Layer2
 10
209.053
 20
204.77
  0
VERTEX
  8
Layer2
 10
208.97
 20
204.798
  0
VERTEX
  8
Layer2
 10
208.887
 20
204.824
  0
VERTEX
  8
Layer2
 10
208.804
 20
204.848
  0
VERTEX
  8
Layer2
 10
208.72
 20
204.87
  0
VERTEX
  8
Layer2
 10
208.636
 20
204.889
  0
VERTEX
  8
Layer2
 10
208.551
 20
204.907
  0
VERTEX
  8
Layer2
 10
208.465
 20
204.922
  0
VERTEX
  8
Layer2
 10
208.38
 20
204.934
  0
VERTEX
  8
Layer2
 10
208.293
 20
204.945
  0
VERTEX
  8
Layer2
 10
208.208
 20
204.953
  0
VERTEX
  8
Layer2
 10
208.12
 20
204.96
  0
VERTEX
  8
Layer2
 10
208.035
 20
204.963
  0
VERTEX
  8
Layer2
 10
207.947
 20
204.965
  0
VERTEX
  8
Layer2
 10
207.861
 20
204.965
  0
VERTEX
  8
Layer2
 10
207.774
 20
204.962
  0
VERTEX
  8
Layer2
 10
207.688
 20
204.957
  0
VERTEX
  8
Layer2
 10
207.601
 20
204.949
  0
VERTEX
  8
Layer2
 10
207.515
 20
204.94
  0
VERTEX
  8
Layer2
 10
207.429
 20
204.928
  0
VERTEX
  8
Layer2
 10
207.344
 20
204.914
  0
VERTEX
  8
Layer2
 10
207.259
 20
204.898
  0
VERTEX
  8
Layer2
 10
207.173
 20
204.88
  0
VERTEX
  8
Layer2
 10
207.089
 20
204.859
  0
VERTEX
  8
Layer2
 10
207.006
 20
204.836
  0
VERTEX
  8
Layer2
 10
206.923
 20
204.811
  0
VERTEX
  8
Layer2
 10
206.84
 20
204.784
  0
VERTEX
  8
Layer2
 10
206.759
 20
204.755
  0
VERTEX
  8
Layer2
 10
206.678
 20
204.724
  0
VERTEX
  8
Layer2
 10
206.598
 20
204.691
  0
VERTEX
  8
Layer2
 10
206.518
 20
204.655
  0
VERTEX
  8
Layer2
 10
206.44
 20
204.618
  0
VERTEX
  8
Layer2
 10
206.363
 20
204.578
  0
VERTEX
  8
Layer2
 10
206.286
 20
204.537
  0
SEQEND
  0
POLYLINE
  8
Layer2
  6
CONTINUOUS
 62
7
 66
1
 10
0
 20
0
 30
0
  0
VERTEX
  8
Layer2
 10
214.516
 20
204.482
  0
VERTEX
  8
Layer2
 10
214.429
 20
204.518
  0
VERTEX
  8
Layer2
 10
214.339
 20
204.551
  0
VERTEX
  8
Layer2
 10
214.251
 20
204.584
  0
VERTEX
  8
Layer2
 10
214.161
 20
204.614
  0
VERTEX
  8
Layer2
 10
214.071
 20
204.642
  0
VERTEX
  8
Layer2
 10
213.982
 20
204.669
  0
VERTEX
  8
Layer2
 10
213.89
 20
204.694
  0
VERTEX
  8
Layer2
 10
213.798
 20
204.717
  0
VERTEX
  8
Layer2
 10
213.707
 20
204.738
  0
VERTEX
  8
Layer2
 10
213.613
 20
204.757
  0
VERTEX
  8
Layer2
 10
213.522
 20
204.775
  0
VERTEX
  8
Layer2
 10
213.428
 20
204.79
  0
VERTEX
  8
Layer2
 10
213.334
 20
204.804
  0
VERTEX
  8
Layer2
 10
213.241
 20
204.816
  0
VERTEX
  8
Layer2
 10
213.147
 20
204.826
  0
VERTEX
  8
Layer2
 10
213.053
 20
204.834
  0
VERTEX
  8
Layer2
 10
212.958
 20
204.84
  0
VERTEX
  8
Layer2
 10
212.864
 20
204.845
  0
VERTEX
  8
Layer2
 10
212.769
 20
204.847
  0
VERTEX
  8
Layer2
 10
212.676
 20
204.848
  0
VERTEX
  8
Layer2
 10
212.582
 20
204.846
  0
VERTEX
  8
Layer2
 10
212.487
 20
204.843
  0
VERTEX
  8
Layer2
 10
212.393
 20
204.838
  0
VERTEX
  8
Layer2
 10
212.298
 20
204.831
  0
VERTEX
  8
Layer2
 10
212.205
 20
204.822
  0
VERTEX
  8
Layer2
 10
212.111
 20
204.812
  0
VERTEX
  8
Layer2
 10
212.017
 20
204.799
  0
VERTEX
  8
Layer2
 10
211.923
 20
204.785
  0
VERTEX
  8
Layer2
 10
211.831
 20
204.768
  0
VERTEX
  8
Layer2
 10
211.738
 20
204.75
  0
VERTEX
  8
Layer2
 10
211.646
 20
204.73
  0
VERTEX
  8
Layer2
 10
211.554
 20
204.708
  0
VERTEX
  8
Layer2
 10
211.463
 20
204.684
  0
VERTEX
  8
Layer2
 10
211.372
 20
204.659
  0
VERTEX
  8
Layer2
 10
211.28
 20
204.632
  0
VERTEX
  8
Layer2
 10
211.191
 20
204.602
  0
VERTEX
  8
Layer2
 10
211.101
 20
204.572
  0
VERTEX
  8
Layer2
 10
211.013
 20
204.539
  0
VERTEX
  8
Layer2
 10
210.926
 20
204.504
  0
VERTEX
  8
Layer2
 10
210.839
 20
204.468
  0
VERTEX
  8
Layer2
 10
210.751
 20
204.43
  0
VERTEX
  8
Layer2
 10
210.666
 20
204.39
  0
VERTEX
  8
Layer2
 10
210.582
 20
204.349
  0
VERTEX
  8
Layer2
 10
210.498
 20
204.306
  0
VERTEX
  8
Layer2
 10
210.414
 20
204.261
  0
VERTEX
  8
Layer2
 10
210.332
 20
204.215
  0
VERTEX
  8
Layer2
 10
210.25
 20
204.167
  0
VERTEX
  8
Layer2
 10
210.171
 20
204.117
  0
SEQEND
  0
LINE
  8
Layer2
  6
CONTINUOUS
 62
7
 10
206.632
 20
204.706
 11
206.298
 21
204.516
  0
LINE
  8
Layer2
  6
CONTINUOUS
 62
7
 10
206.369
 20
206.896
 11
205.509
 21
205.313
  0
LINE
  8
Layer2
  6
CONTINUOUS
 62
7
 10
214.214
 20
206.896
 11
215.101
 21
205.081
  0
LINE
  8
Layer2
  6
CONTINUOUS
 62
7
 10
214.031
 20
204.626
 11
214.516
 21
204.482
  0
POLYLINE
  8
Layer2
  6
CONTINUOUS
 62
7
 66
1
 10
0
 20
0
 30
0
  0
VERTEX
  8
Layer2
 10
205.509
 20
205.313
  0
VERTEX
  8
Layer2
 10
205.494
 20
205.285
  0
VERTEX
  8
Layer2
 10
205.481
 20
205.256
  0
VERTEX
  8
Layer2
 10
205.469
 20
205.227
  0
VERTEX
  8
Layer2
 10
205.458
 20
205.197
  0
VERTEX
  8
Layer2
 10
205.45
 20
205.167
  0
VERTEX
  8
Layer2
 10
205.441
 20
205.136
  0
VERTEX
  8
Layer2
 10
205.437
 20
205.105
  0
VERTEX
  8
Layer2
 10
205.433
 20
205.073
  0
VERTEX
  8
Layer2
 10
205.43
 20
205.042
  0
VERTEX
  8
Layer2
 10
205.43
 20
205.01
  0
VERTEX
  8
Layer2
 10
205.432
 20
204.979
  0
VERTEX
  8
Layer2
 10
205.435
 20
204.947
  0
VERTEX
  8
Layer2
 10
205.44
 20
204.916
  0
VERTEX
  8
Layer2
 10
205.446
 20
204.885
  0
VERTEX
  8
Layer2
 10
205.455
 20
204.854
  0
VERTEX
  8
Layer2
 10
205.464
 20
204.824
  0
VERTEX
  8
Layer2
 10
205.476
 20
204.795
  0
VERTEX
  8
Layer2
 10
205.489
 20
204.766
  0
VERTEX
  8
Layer2
 10
205.504
 20
204.738
  0
VERTEX
  8
Layer2
 10
205.521
 20
204.711
  0
VERTEX
  8
Layer2
 10
205.537
 20
204.684
  0
VERTEX
  8
Layer2
 10
205.557
 20
204.659
  0
VERTEX
  8
Layer2
 10
205.577
 20
204.635
  0
VERTEX
  8
Layer2
 10
205.599
 20
204.612
  0
VERTEX
  8
Layer2
 10
205.622
 20
204.59
  0
VERTEX
  8
Layer2
 10
205.646
 20
204.569
  0
VERTEX
  8
Layer2
 10
205.671
 20
204.55
  0
VERTEX
  8
Layer2
 10
205.696
 20
204.532
  0
VERTEX
  8
Layer2
 10
205.724
 20
204.516
  0
VERTEX
  8
Layer2
 10
205.751
 20
204.501
  0
VERTEX
  8
Layer2
 10
205.78
 20
204.488
  0
VERTEX
  8
Layer2
 10
205.81
 20
204.476
  0
VERTEX
  8
Layer2
 10
205.839
 20
204.466
  0
VERTEX
  8
Layer2
 10
205.87
 20
204.457
  0
VERTEX
  8
Layer2
 10
205.902
 20
204.45
  0
VERTEX
  8
Layer2
 10
205.933
 20
204.445
  0
VERTEX
  8
Layer2
 10
205.964
 20
204.442
  0
VERTEX
  8
Layer2
 10
205.995
 20
204.44
  0
VERTEX
  8
Layer2
 10
206.027
 20
204.44
  0
VERTEX
  8
Layer2
 10
206.059
 20
204.442
  0
VERTEX
  8
Layer2
 10
206.089
 20
204.445
  0
VERTEX
  8
Layer2
 10
206.122
 20
204.45
  0
VERTEX
  8
Layer2
 10
206.153
 20
204.457
  0
VERTEX
  8
Layer2
 10
206.183
 20
204.466
  0
VERTEX
  8
Layer2
 10
206.213
 20
204.476
  0
VERTEX
  8
Layer2
 10
206.242
 20
204.487
  0
VERTEX
  8
Layer2
 10
206.271
 20
204.501
  0
VERTEX
  8
Layer2
 10
206.298
 20
204.516
  0
SEQEND
  0
POLYLINE
  8
Layer2
  6
CONTINUOUS
 62
7
 66
1
 10
0
 20
0
 30
0
  0
VERTEX
  8
Layer2
 10
214.516
 20
204.482
  0
VERTEX
  8
Layer2
 10
214.536
 20
204.476
  0
VERTEX
  8
Layer2
 10
214.558
 20
204.472
  0
VERTEX
  8
Layer2
 10
214.578
 20
204.468
  0
VERTEX
  8
Layer2
 10
214.6
 20
204.465
  0
VERTEX
  8
Layer2
 10
214.62
 20
204.463
  0
VERTEX
  8
Layer2
 10
214.643
 20
204.463
  0
VERTEX
  8
Layer2
 10
214.664
 20
204.463
  0
VERTEX
  8
Layer2
 10
214.685
 20
204.464
  0
VERTEX
  8
Layer2
 10
214.707
 20
204.466
  0
VERTEX
  8
Layer2
 10
214.727
 20
204.469
  0
VERTEX
  8
Layer2
 10
214.749
 20
204.473
  0
VERTEX
  8
Layer2
 10
214.769
 20
204.478
  0
VERTEX
  8
Layer2
 10
214.79
 20
204.484
  0
VERTEX
  8
Layer2
 10
214.81
 20
204.49
  0
VERTEX
  8
Layer2
 10
214.831
 20
204.498
  0
VERTEX
  8
Layer2
 10
214.85
 20
204.507
  0
VERTEX
  8
Layer2
 10
214.869
 20
204.516
  0
VERTEX
  8
Layer2
 10
214.887
 20
204.526
  0
VERTEX
  8
Layer2
 10
214.905
 20
204.538
  0
VERTEX
  8
Layer2
 10
214.923
 20
204.549
  0
VERTEX
  8
Layer2
 10
214.94
 20
204.562
  0
VERTEX
  8
Layer2
 10
214.958
 20
204.576
  0
VERTEX
  8
Layer2
 10
214.974
 20
204.59
  0
VERTEX
  8
Layer2
 10
214.988
 20
204.605
  0
VERTEX
  8
Layer2
 10
215.004
 20
204.621
  0
VERTEX
  8
Layer2
 10
215.018
 20
204.637
  0
VERTEX
  8
Layer2
 10
215.03
 20
204.654
  0
VERTEX
  8
Layer2
 10
215.042
 20
204.671
  0
VERTEX
  8
Layer2
 10
215.054
 20
204.689
  0
VERTEX
  8
Layer2
 10
215.065
 20
204.708
  0
VERTEX
  8
Layer2
 10
215.075
 20
204.727
  0
VERTEX
  8
Layer2
 10
215.083
 20
204.746
  0
VERTEX
  8
Layer2
 10
215.093
 20
204.766
  0
VERTEX
  8
Layer2
 10
215.1
 20
204.786
  0
VERTEX
  8
Layer2
 10
215.106
 20
204.807
  0
VERTEX
  8
Layer2
 10
215.111
 20
204.827
  0
VERTEX
  8
Layer2
 10
215.116
 20
204.848
  0
VERTEX
  8
Layer2
 10
215.119
 20
204.869
  0
VERTEX
  8
Layer2
 10
215.122
 20
204.891
  0
VERTEX
  8
Layer2
 10
215.123
 20
204.912
  0
VERTEX
  8
Layer2
 10
215.124
 20
204.933
  0
VERTEX
  8
Layer2
 10
215.124
 20
204.955
  0
VERTEX
  8
Layer2
 10
215.122
 20
204.976
  0
VERTEX
  8
Layer2
 10
215.119
 20
204.997
  0
VERTEX
  8
Layer2
 10
215.117
 20
205.019
  0
VERTEX
  8
Layer2
 10
215.112
 20
205.04
  0
VERTEX
  8
Layer2
 10
215.107
 20
205.06
  0
VERTEX
  8
Layer2
 10
215.101
 20
205.081
  0
SEQEND
  0
LINE
  8
Layer2
  6
CONTINUOUS
 62
7
 10
213.238
 20
204.816
 11
213.238
 21
202.913
  0
LINE
  8
Layer2
  6
CONTINUOUS
 62
7
 10
207.093
 20
204.86
 11
207.093
 21
202.913
  0
LINE
  8
Layer2
  6
CONTINUOUS
 62
7
 10
205.946
 20
202.913
 11
205.221
 21
202.189
  0
LINE
  8
Layer2
  6
CONTINUOUS
 62
7
 10
214.394
 20
202.913
 11
215.119
 21
202.189
  0
LINE
  8
Layer2
  6
CONTINUOUS
 62
7
 10
495.902
 20
209.299
 11
504.805
 21
209.299
  0
LINE
  8
Layer2
  6
CONTINUOUS
 62
7
 10
495.902
 20
206.984
 11
503.736
 21
206.984
  0
LINE
  8
Layer2
  6
CONTINUOUS
 62
7
 10
504.805
 20
209.299
 11
506.229
 21
207.637
  0
LINE
  8
Layer2
  6
CONTINUOUS
 62
7
 10
506.229
 20
206.984
 11
506.229
 21
207.637
  0
POLYLINE
  8
Layer2
  6
CONTINUOUS
 62
7
 66
1
 10
0
 20
0
 30
0
  0
VERTEX
  8
Layer2
 10
503.736
 20
206.984
  0
VERTEX
  8
Layer2
 10
503.738
 20
206.902
  0
VERTEX
  8
Layer2
 10
503.745
 20
206.82
  0
VERTEX
  8
Layer2
 10
503.757
 20
206.739
  0
VERTEX
  8
Layer2
 10
503.776
 20
206.659
  0
VERTEX
  8
Layer2
 10
503.798
 20
206.58
  0
VERTEX
  8
Layer2
 10
503.827
 20
206.503
  0
VERTEX
  8
Layer2
 10
503.861
 20
206.428
  0
VERTEX
  8
Layer2
 10
503.899
 20
206.355
  0
VERTEX
  8
Layer2
 10
503.942
 20
206.285
  0
VERTEX
  8
Layer2
 10
503.988
 20
206.218
  0
VERTEX
  8
Layer2
 10
504.041
 20
206.154
  0
VERTEX
  8
Layer2
 10
504.096
 20
206.094
  0
VERTEX
  8
Layer2
 10
504.156
 20
206.038
  0
VERTEX
  8
Layer2
 10
504.219
 20
205.985
  0
VERTEX
  8
Layer2
 10
504.286
 20
205.937
  0
VERTEX
  8
Layer2
 10
504.356
 20
205.894
  0
VERTEX
  8
Layer2
 10
504.428
 20
205.855
  0
VERTEX
  8
Layer2
 10
504.503
 20
205.821
  0
VERTEX
  8
Layer2
 10
504.58
 20
205.792
  0
VERTEX
  8
Layer2
 10
504.658
 20
205.768
  0
VERTEX
  8
Layer2
 10
504.738
 20
205.749
  0
VERTEX
  8
Layer2
 10
504.818
 20
205.735
  0
VERTEX
  8
Layer2
 10
504.901
 20
205.727
  0
VERTEX
  8
Layer2
 10
504.983
 20
205.725
  0
VERTEX
  8
Layer2
 10
505.065
 20
205.727
  0
VERTEX
  8
Layer2
 10
505.146
 20
205.735
  0
VERTEX
  8
Layer2
 10
505.226
 20
205.749
  0
VERTEX
  8
Layer2
 10
505.307
 20
205.768
  0
VERTEX
  8
Layer2
 10
505.385
 20
205.792
  0
VERTEX
  8
Layer2
 10
505.462
 20
205.821
  0
VERTEX
  8
Layer2
 10
505.536
 20
205.855
  0
VERTEX
  8
Layer2
 10
505.61
 20
205.894
  0
VERTEX
  8
Layer2
 10
505.678
 20
205.937
  0
VERTEX
  8
Layer2
 10
505.745
 20
205.985
  0
VERTEX
  8
Layer2
 10
505.808
 20
206.038
  0
VERTEX
  8
Layer2
 10
505.868
 20
206.094
  0
VERTEX
  8
Layer2
 10
505.923
 20
206.154
  0
VERTEX
  8
Layer2
 10
505.976
 20
206.218
  0
VERTEX
  8
Layer2
 10
506.024
 20
206.285
  0
VERTEX
  8
Layer2
 10
506.065
 20
206.355
  0
VERTEX
  8
Layer2
 10
506.104
 20
206.428
  0
VERTEX
  8
Layer2
 10
506.137
 20
206.503
  0
VERTEX
  8
Layer2
 10
506.166
 20
206.58
  0
VERTEX
  8
Layer2
 10
506.188
 20
206.659
  0
VERTEX
  8
Layer2
 10
506.207
 20
206.739
  0
VERTEX
  8
Layer2
 10
506.219
 20
206.82
  0
VERTEX
  8
Layer2
 10
506.226
 20
206.902
  0
VERTEX
  8
Layer2
 10
506.229
 20
206.984
  0
SEQEND
  0
LINE
  8
Layer2
  6
CONTINUOUS
 62
7
 10
495.902
 20
209.299
 11
493.488
 21
206.77
  0
LINE
  8
Layer2
  6
CONTINUOUS
 62
7
 10
495.902
 20
206.984
 11
494.476
 21
205.737
  0
POLYLINE
  8
Layer2
  6
CONTINUOUS
 62
7
 66
1
 10
0
 20
0
 30
0
  0
VERTEX
  8
Layer2
 10
493.488
 20
206.77
  0
VERTEX
  8
Layer2
 10
493.457
 20
206.736
  0
VERTEX
  8
Layer2
 10
493.43
 20
206.701
  0
VERTEX
  8
Layer2
 10
493.404
 20
206.663
  0
VERTEX
  8
Layer2
 10
493.38
 20
206.624
  0
VERTEX
  8
Layer2
 10
493.36
 20
206.584
  0
VERTEX
  8
Layer2
 10
493.342
 20
206.542
  0
VERTEX
  8
Layer2
 10
493.325
 20
206.499
  0
VERTEX
  8
Layer2
 10
493.313
 20
206.456
  0
VERTEX
  8
Layer2
 10
493.303
 20
206.411
  0
VERTEX
  8
Layer2
 10
493.296
 20
206.366
  0
VERTEX
  8
Layer2
 10
493.291
 20
206.321
  0
VERTEX
  8
Layer2
 10
493.291
 20
206.275
  0
VERTEX
  8
Layer2
 10
493.291
 20
206.23
  0
VERTEX
  8
Layer2
 10
493.296
 20
206.185
  0
VERTEX
  8
Layer2
 10
493.303
 20
206.14
  0
VERTEX
  8
Layer2
 10
493.313
 20
206.095
  0
VERTEX
  8
Layer2
 10
493.327
 20
206.052
  0
VERTEX
  8
Layer2
 10
493.342
 20
206.009
  0
VERTEX
  8
Layer2
 10
493.36
 20
205.967
  0
VERTEX
  8
Layer2
 10
493.38
 20
205.927
  0
VERTEX
  8
Layer2
 10
493.404
 20
205.888
  0
VERTEX
  8
Layer2
 10
493.43
 20
205.851
  0
VERTEX
  8
Layer2
 10
493.459
 20
205.815
  0
VERTEX
  8
Layer2
 10
493.488
 20
205.781
  0
VERTEX
  8
Layer2
 10
493.522
 20
205.749
  0
VERTEX
  8
Layer2
 10
493.555
 20
205.72
  0
VERTEX
  8
Layer2
 10
493.592
 20
205.692
  0
VERTEX
  8
Layer2
 10
493.63
 20
205.667
  0
VERTEX
  8
Layer2
 10
493.67
 20
205.644
  0
VERTEX
  8
Layer2
 10
493.711
 20
205.624
  0
VERTEX
  8
Layer2
 10
493.753
 20
205.607
  0
VERTEX
  8
Layer2
 10
493.796
 20
205.592
  0
VERTEX
  8
Layer2
 10
493.839
 20
205.58
  0
VERTEX
  8
Layer2
 10
493.884
 20
205.571
  0
VERTEX
  8
Layer2
 10
493.928
 20
205.565
  0
VERTEX
  8
Layer2
 10
493.974
 20
205.561
  0
VERTEX
  8
Layer2
 10
494.019
 20
205.561
  0
VERTEX
  8
Layer2
 10
494.065
 20
205.563
  0
VERTEX
  8
Layer2
 10
494.111
 20
205.568
  0
VERTEX
  8
Layer2
 10
494.156
 20
205.576
  0
VERTEX
  8
Layer2
 10
494.2
 20
205.587
  0
VERTEX
  8
Layer2
 10
494.243
 20
205.601
  0
VERTEX
  8
Layer2
 10
494.286
 20
205.617
  0
VERTEX
  8
Layer2
 10
494.327
 20
205.636
  0
VERTEX
  8
Layer2
 10
494.366
 20
205.658
  0
VERTEX
  8
Layer2
 10
494.404
 20
205.682
  0
VERTEX
  8
Layer2
 10
494.442
 20
205.709
  0
VERTEX
  8
Layer2
 10
494.476
 20
205.737
  0
SEQEND
  0
LINE
  8
Layer2
  6
CONTINUOUS
 62
7
 10
497.223
 20
206.984
 11
497.223
 21
203.861
  0
LINE
  8
Layer2
  6
CONTINUOUS
 62
7
 10
503.132
 20
206.984
 11
503.132
 21
203.861
  0
LINE
  8
Layer2
  6
CONTINUOUS
 62
7
 10
498.029
 20
193.708
 11
502.416
 21
193.708
  0
LINE
  8
Layer2
  6
CONTINUOUS
 62
7
 10
497.223
 20
194.257
 11
503.223
 21
194.257
  0
LINE
  8
Layer2
  6
CONTINUOUS
 62
7
 10
498.029
 20
193.708
 11
497.223
 21
194.257
  0
LINE
  8
Layer2
  6
CONTINUOUS
 62
7
 10
502.416
 20
193.708
 11
503.223
 21
194.257
  0
LINE
  8
Layer2
  6
CONTINUOUS
 62
7
 10
505.334
 20
200.129
 11
505.334
 21
203.216
  0
LINE
  8
Layer2
  6
CONTINUOUS
 62
7
 10
505.334
 20
203.216
 11
504.214
 21
203.861
  0
LINE
  8
Layer2
  6
CONTINUOUS
 62
7
 10
504.214
 20
203.861
 11
496.313
 21
203.861
  0
LINE
  8
Layer2
  6
CONTINUOUS
 62
7
 10
496.313
 20
203.861
 11
495.195
 21
203.216
  0
LINE
  8
Layer2
  6
CONTINUOUS
 62
7
 10
495.195
 20
203.216
 11
495.195
 21
200.129
  0
LINE
  8
Layer2
  6
CONTINUOUS
 62
7
 10
502.798
 20
200.129
 11
502.798
 21
203.216
  0
LINE
  8
Layer2
  6
CONTINUOUS
 62
7
 10
497.729
 20
200.129
 11
497.729
 21
203.216
  0
POLYLINE
  8
Layer2
  6
CONTINUOUS
 62
7
 66
1
 10
0
 20
0
 30
0
  0
VERTEX
  8
Layer2
 10
502.798
 20
203.215
  0
VERTEX
  8
Layer2
 10
502.697
 20
203.247
  0
VERTEX
  8
Layer2
 10
502.594
 20
203.277
  0
VERTEX
  8
Layer2
 10
502.49
 20
203.307
  0
VERTEX
  8
Layer2
 10
502.387
 20
203.334
  0
VERTEX
  8
Layer2
 10
502.283
 20
203.361
  0
VERTEX
  8
Layer2
 10
502.178
 20
203.386
  0
VERTEX
  8
Layer2
 10
502.074
 20
203.41
  0
VERTEX
  8
Layer2
 10
501.969
 20
203.432
  0
VERTEX
  8
Layer2
 10
501.863
 20
203.453
  0
VERTEX
  8
Layer2
 10
501.757
 20
203.473
  0
VERTEX
  8
Layer2
 10
501.652
 20
203.492
  0
VERTEX
  8
Layer2
 10
501.546
 20
203.509
  0
VERTEX
  8
Layer2
 10
501.44
 20
203.524
  0
VERTEX
  8
Layer2
 10
501.334
 20
203.539
  0
VERTEX
  8
Layer2
 10
501.228
 20
203.552
  0
VERTEX
  8
Layer2
 10
501.12
 20
203.563
  0
VERTEX
  8
Layer2
 10
501.014
 20
203.574
  0
VERTEX
  8
Layer2
 10
500.906
 20
203.583
  0
VERTEX
  8
Layer2
 10
500.8
 20
203.59
  0
VERTEX
  8
Layer2
 10
500.693
 20
203.596
  0
VERTEX
  8
Layer2
 10
500.586
 20
203.601
  0
VERTEX
  8
Layer2
 10
500.479
 20
203.605
  0
VERTEX
  8
Layer2
 10
500.372
 20
203.607
  0
VERTEX
  8
Layer2
 10
500.264
 20
203.607
  0
VERTEX
  8
Layer2
 10
500.156
 20
203.607
  0
VERTEX
  8
Layer2
 10
500.05
 20
203.605
  0
VERTEX
  8
Layer2
 10
499.942
 20
203.601
  0
VERTEX
  8
Layer2
 10
499.834
 20
203.596
  0
VERTEX
  8
Layer2
 10
499.728
 20
203.59
  0
VERTEX
  8
Layer2
 10
499.62
 20
203.583
  0
VERTEX
  8
Layer2
 10
499.514
 20
203.574
  0
VERTEX
  8
Layer2
 10
499.406
 20
203.563
  0
VERTEX
  8
Layer2
 10
499.301
 20
203.552
  0
VERTEX
  8
Layer2
 10
499.193
 20
203.539
  0
VERTEX
  8
Layer2
 10
499.087
 20
203.524
  0
VERTEX
  8
Layer2
 10
498.981
 20
203.509
  0
VERTEX
  8
Layer2
 10
498.875
 20
203.492
  0
VERTEX
  8
Layer2
 10
498.769
 20
203.473
  0
VERTEX
  8
Layer2
 10
498.664
 20
203.453
  0
VERTEX
  8
Layer2
 10
498.56
 20
203.432
  0
VERTEX
  8
Layer2
 10
498.455
 20
203.41
  0
VERTEX
  8
Layer2
 10
498.349
 20
203.386
  0
VERTEX
  8
Layer2
 10
498.245
 20
203.361
  0
VERTEX
  8
Layer2
 10
498.142
 20
203.334
  0
VERTEX
  8
Layer2
 10
498.038
 20
203.307
  0
VERTEX
  8
Layer2
 10
497.935
 20
203.277
  0
VERTEX
  8
Layer2
 10
497.832
 20
203.247
  0
VERTEX
  8
Layer2
 10
497.729
 20
203.215
  0
SEQEND
  0
POLYLINE
  8
Layer2
  6
CONTINUOUS
 62
7
 66
1
 10
0
 20
0
 30
0
  0
VERTEX
  8
Layer2
 10
505.334
 20
203.215
  0
VERTEX
  8
Layer2
 10
505.286
 20
203.246
  0
VERTEX
  8
Layer2
 10
505.24
 20
203.276
  0
VERTEX
  8
Layer2
 10
505.19
 20
203.305
  0
VERTEX
  8
Layer2
 10
505.142
 20
203.333
  0
VERTEX
  8
Layer2
 10
505.092
 20
203.359
  0
VERTEX
  8
Layer2
 10
505.043
 20
203.384
  0
VERTEX
  8
Layer2
 10
504.991
 20
203.408
  0
VERTEX
  8
Layer2
 10
504.94
 20
203.43
  0
VERTEX
  8
Layer2
 10
504.887
 20
203.451
  0
VERTEX
  8
Layer2
 10
504.836
 20
203.471
  0
VERTEX
  8
Layer2
 10
504.783
 20
203.49
  0
VERTEX
  8
Layer2
 10
504.729
 20
203.507
  0
VERTEX
  8
Layer2
 10
504.676
 20
203.523
  0
VERTEX
  8
Layer2
 10
504.622
 20
203.538
  0
VERTEX
  8
Layer2
 10
504.567
 20
203.551
  0
VERTEX
  8
Layer2
 10
504.512
 20
203.563
  0
VERTEX
  8
Layer2
 10
504.457
 20
203.573
  0
VERTEX
  8
Layer2
 10
504.402
 20
203.582
  0
VERTEX
  8
Layer2
 10
504.346
 20
203.59
  0
VERTEX
  8
Layer2
 10
504.289
 20
203.596
  0
VERTEX
  8
Layer2
 10
504.233
 20
203.601
  0
VERTEX
  8
Layer2
 10
504.178
 20
203.605
  0
VERTEX
  8
Layer2
 10
504.122
 20
203.607
  0
VERTEX
  8
Layer2
 10
504.065
 20
203.607
  0
VERTEX
  8
Layer2
 10
504.01
 20
203.607
  0
VERTEX
  8
Layer2
 10
503.954
 20
203.605
  0
VERTEX
  8
Layer2
 10
503.897
 20
203.601
  0
VERTEX
  8
Layer2
 10
503.842
 20
203.596
  0
VERTEX
  8
Layer2
 10
503.786
 20
203.59
  0
VERTEX
  8
Layer2
 10
503.731
 20
203.582
  0
VERTEX
  8
Layer2
 10
503.675
 20
203.573
  0
VERTEX
  8
Layer2
 10
503.62
 20
203.563
  0
VERTEX
  8
Layer2
 10
503.565
 20
203.551
  0
VERTEX
  8
Layer2
 10
503.51
 20
203.538
  0
VERTEX
  8
Layer2
 10
503.457
 20
203.523
  0
VERTEX
  8
Layer2
 10
503.402
 20
203.507
  0
VERTEX
  8
Layer2
 10
503.349
 20
203.49
  0
VERTEX
  8
Layer2
 10
503.296
 20
203.471
  0
VERTEX
  8
Layer2
 10
503.243
 20
203.451
  0
VERTEX
  8
Layer2
 10
503.192
 20
203.43
  0
VERTEX
  8
Layer2
 10
503.14
 20
203.408
  0
VERTEX
  8
Layer2
 10
503.089
 20
203.384
  0
VERTEX
  8
Layer2
 10
503.039
 20
203.359
  0
VERTEX
  8
Layer2
 10
502.99
 20
203.333
  0
VERTEX
  8
Layer2
 10
502.94
 20
203.305
  0
VERTEX
  8
Layer2
 10
502.892
 20
203.276
  0
VERTEX
  8
Layer2
 10
502.844
 20
203.246
  0
VERTEX
  8
Layer2
 10
502.798
 20
203.215
  0
SEQEND
  0
POLYLINE
  8
Layer2
  6
CONTINUOUS
 62
7
 66
1
 10
0
 20
0
 30
0
  0
VERTEX
  8
Layer2
 10
497.729
 20
203.215
  0
VERTEX
  8
Layer2
 10
497.683
 20
203.246
  0
VERTEX
  8
Layer2
 10
497.635
 20
203.276
  0
VERTEX
  8
Layer2
 10
497.587
 20
203.305
  0
VERTEX
  8
Layer2
 10
497.539
 20
203.333
  0
VERTEX
  8
Layer2
 10
497.488
 20
203.359
  0
VERTEX
  8
Layer2
 10
497.438
 20
203.384
  0
VERTEX
  8
Layer2
 10
497.387
 20
203.408
  0
VERTEX
  8
Layer2
 10
497.337
 20
203.43
  0
VERTEX
  8
Layer2
 10
497.284
 20
203.451
  0
VERTEX
  8
Layer2
 10
497.231
 20
203.471
  0
VERTEX
  8
Layer2
 10
497.178
 20
203.49
  0
VERTEX
  8
Layer2
 10
497.125
 20
203.507
  0
VERTEX
  8
Layer2
 10
497.072
 20
203.523
  0
VERTEX
  8
Layer2
 10
497.017
 20
203.538
  0
VERTEX
  8
Layer2
 10
496.962
 20
203.551
  0
VERTEX
  8
Layer2
 10
496.908
 20
203.563
  0
VERTEX
  8
Layer2
 10
496.853
 20
203.573
  0
VERTEX
  8
Layer2
 10
496.798
 20
203.582
  0
VERTEX
  8
Layer2
 10
496.741
 20
203.59
  0
VERTEX
  8
Layer2
 10
496.685
 20
203.596
  0
VERTEX
  8
Layer2
 10
496.63
 20
203.601
  0
VERTEX
  8
Layer2
 10
496.575
 20
203.605
  0
VERTEX
  8
Layer2
 10
496.517
 20
203.607
  0
VERTEX
  8
Layer2
 10
496.462
 20
203.607
  0
VERTEX
  8
Layer2
 10
496.406
 20
203.607
  0
VERTEX
  8
Layer2
 10
496.349
 20
203.605
  0
VERTEX
  8
Layer2
 10
496.293
 20
203.601
  0
VERTEX
  8
Layer2
 10
496.238
 20
203.596
  0
VERTEX
  8
Layer2
 10
496.182
 20
203.59
  0
VERTEX
  8
Layer2
 10
496.127
 20
203.582
  0
VERTEX
  8
Layer2
 10
496.07
 20
203.573
  0
VERTEX
  8
Layer2
 10
496.015
 20
203.563
  0
VERTEX
  8
Layer2
 10
495.962
 20
203.551
  0
VERTEX
  8
Layer2
 10
495.906
 20
203.538
  0
VERTEX
  8
Layer2
 10
495.853
 20
203.523
  0
VERTEX
  8
Layer2
 10
495.798
 20
203.507
  0
VERTEX
  8
Layer2
 10
495.745
 20
203.49
  0
VERTEX
  8
Layer2
 10
495.693
 20
203.471
  0
VERTEX
  8
Layer2
 10
495.64
 20
203.451
  0
VERTEX
  8
Layer2
 10
495.587
 20
203.43
  0
VERTEX
  8
Layer2
 10
495.536
 20
203.408
  0
VERTEX
  8
Layer2
 10
495.486
 20
203.384
  0
VERTEX
  8
Layer2
 10
495.435
 20
203.359
  0
VERTEX
  8
Layer2
 10
495.385
 20
203.333
  0
VERTEX
  8
Layer2
 10
495.337
 20
203.305
  0
VERTEX
  8
Layer2
 10
495.289
 20
203.276
  0
VERTEX
  8
Layer2
 10
495.241
 20
203.246
  0
VERTEX
  8
Layer2
 10
495.195
 20
203.215
  0
SEQEND
  0
POLYLINE
  8
Layer2
  6
CONTINUOUS
 62
7
 66
1
 10
0
 20
0
 30
0
 70
1
  0
VERTEX
  8
Layer2
 10
505.529
 20
206.971
  0
VERTEX
  8
Layer2
 10
505.524
 20
207.042
  0
VERTEX
  8
Layer2
 10
505.51
 20
207.112
  0
VERTEX
  8
Layer2
 10
505.486
 20
207.18
  0
VERTEX
  8
Layer2
 10
505.455
 20
207.244
  0
VERTEX
  8
Layer2
 10
505.416
 20
207.304
  0
VERTEX
  8
Layer2
 10
505.368
 20
207.357
  0
VERTEX
  8
Layer2
 10
505.315
 20
207.404
  0
VERTEX
  8
Layer2
 10
505.255
 20
207.444
  0
VERTEX
  8
Layer2
 10
505.192
 20
207.476
  0
VERTEX
  8
Layer2
 10
505.123
 20
207.499
  0
VERTEX
  8
Layer2
 10
505.053
 20
207.512
  0
VERTEX
  8
Layer2
 10
504.983
 20
207.517
  0
VERTEX
  8
Layer2
 10
504.911
 20
207.512
  0
VERTEX
  8
Layer2
 10
504.841
 20
207.499
  0
VERTEX
  8
Layer2
 10
504.774
 20
207.476
  0
VERTEX
  8
Layer2
 10
504.709
 20
207.444
  0
VERTEX
  8
Layer2
 10
504.649
 20
207.404
  0
VERTEX
  8
Layer2
 10
504.596
 20
207.357
  0
VERTEX
  8
Layer2
 10
504.55
 20
207.304
  0
VERTEX
  8
Layer2
 10
504.51
 20
207.244
  0
VERTEX
  8
Layer2
 10
504.478
 20
207.18
  0
VERTEX
  8
Layer2
 10
504.455
 20
207.112
  0
VERTEX
  8
Layer2
 10
504.44
 20
207.042
  0
VERTEX
  8
Layer2
 10
504.437
 20
206.971
  0
VERTEX
  8
Layer2
 10
504.44
 20
206.9
  0
VERTEX
  8
Layer2
 10
504.455
 20
206.83
  0
VERTEX
  8
Layer2
 10
504.478
 20
206.762
  0
VERTEX
  8
Layer2
 10
504.51
 20
206.698
  0
VERTEX
  8
Layer2
 10
504.55
 20
206.639
  0
VERTEX
  8
Layer2
 10
504.596
 20
206.585
  0
VERTEX
  8
Layer2
 10
504.649
 20
206.538
  0
VERTEX
  8
Layer2
 10
504.709
 20
206.498
  0
VERTEX
  8
Layer2
 10
504.774
 20
206.467
  0
VERTEX
  8
Layer2
 10
504.841
 20
206.444
  0
VERTEX
  8
Layer2
 10
504.911
 20
206.43
  0
VERTEX
  8
Layer2
 10
504.983
 20
206.425
  0
VERTEX
  8
Layer2
 10
505.053
 20
206.43
  0
VERTEX
  8
Layer2
 10
505.123
 20
206.444
  0
VERTEX
  8
Layer2
 10
505.192
 20
206.467
  0
VERTEX
  8
Layer2
 10
505.255
 20
206.498
  0
VERTEX
  8
Layer2
 10
505.315
 20
206.538
  0
VERTEX
  8
Layer2
 10
505.368
 20
206.585
  0
VERTEX
  8
Layer2
 10
505.416
 20
206.639
  0
VERTEX
  8
Layer2
 10
505.455
 20
206.698
  0
VERTEX
  8
Layer2
 10
505.486
 20
206.762
  0
VERTEX
  8
Layer2
 10
505.51
 20
206.83
  0
VERTEX
  8
Layer2
 10
505.524
 20
206.9
  0
SEQEND
  0
LINE
  8
Layer2
  6
CONTINUOUS
 62
7
 10
495.195
 20
200.129
 11
505.334
 21
200.129
  0
LINE
  8
Layer2
  6
CONTINUOUS
 62
7
 10
515.78
 20
200.129
 11
505.781
 21
190.129
  0
LINE
  8
Layer2
  6
CONTINUOUS
 62
7
 10
519.78
 20
200.129
 11
509.781
 21
190.129
  0
LINE
  8
Layer2
  6
CONTINUOUS
 62
7
 10
511.781
 20
200.129
 11
503.264
 21
191.612
  0
LINE
  8
Layer2
  6
CONTINUOUS
 62
7
 10
513.764
 20
190.129
 11
486.764
 21
190.129
  0
LINE
  8
Layer2
  6
CONTINUOUS
 62
7
 10
495.781
 20
200.129
 11
481.486
 21
186.282
  0
LINE
  8
Layer2
  6
CONTINUOUS
 62
7
 10
485.264
 20
186.812
 11
482.58
 21
184.129
  0
LINE
  8
Layer2
  6
CONTINUOUS
 62
7
 10
491.781
 20
200.129
 11
490.014
 21
198.362
  0
LINE
  8
Layer2
  6
CONTINUOUS
 62
7
 10
487.344
 20
200.129
 11
481.519
 21
193.867
  0
LINE
  8
Layer2
  6
CONTINUOUS
 62
7
 10
483.781
 20
200.129
 11
480.486
 21
196.835
  0
LINE
  8
Layer2
  6
CONTINUOUS
 62
7
 10
515.264
 20
185.129
 11
515.264
 21
188.629
  0
LINE
  8
Layer2
  6
CONTINUOUS
 62
7
 10
485.264
 20
185.129
 11
485.264
 21
188.629
  0
LINE
  8
Layer2
  6
CONTINUOUS
 62
7
 10
507.781
 20
200.129
 11
503.264
 21
195.612
  0
ARC
  8
Layer2
  6
CONTINUOUS
 62
7
 10
513.764
 20
188.629
 40
1.5
 50
2.03555e-013
 51
90
  0
ARC
  8
Layer2
  6
CONTINUOUS
 62
7
 10
486.764
 20
188.629
 40
1.5
 50
90
 51
180
  0
LINE
  8
Layer2
  6
CONTINUOUS
 62
7
 10
516.264
 20
184.129
 11
521.134
 21
184.129
  0
LINE
  8
Layer2
  6
CONTINUOUS
 62
7
 10
484.264
 20
184.129
 11
481.553
 21
184.129
  0
ARC
  8
Layer2
  6
CONTINUOUS
 62
7
 10
516.264
 20
185.129
 40
1
 50
180
 51
270
  0
ARC
  8
Layer2
  6
CONTINUOUS
 62
7
 10
484.264
 20
185.129
 40
1
 50
270
 51
2.03555e-013
  0
LINE
  8
Layer2
  6
CONTINUOUS
 62
7
 10
490.014
 20
198.362
 11
481.354
 21
189.703
  0
LINE
  8
Layer2
  6
CONTINUOUS
 62
7
 10
502.764
 20
199.129
 11
502.764
 21
190.129
  0
LINE
  8
Layer2
  6
CONTINUOUS
 62
7
 10
497.764
 20
199.129
 11
497.764
 21
190.129
  0
LINE
  8
Layer2
  6
CONTINUOUS
 62
7
 10
497.264
 20
190.812
 11
496.58
 21
190.129
  0
LINE
  8
Layer2
  6
CONTINUOUS
 62
7
 10
503.264
 20
199.129
 11
497.264
 21
199.129
  0
LINE
  8
Layer2
  6
CONTINUOUS
 62
7
 10
497.264
 20
199.129
 11
496.264
 21
200.129
  0
LINE
  8
Layer2
  6
CONTINUOUS
 62
7
 10
494.264
 20
190.129
 11
497.223
 21
193.087
  0
LINE
  8
Layer2
  6
CONTINUOUS
 62
7
 10
500.264
 20
199.129
 11
500.264
 21
198.516
  0
LINE
  8
Layer2
  6
CONTINUOUS
 62
7
 10
523.78
 20
200.129
 11
513.78
 21
190.129
  0
POLYLINE
  8
Layer2
  6
CONTINUOUS
 62
7
 66
1
 10
0
 20
0
 30
0
  0
VERTEX
  8
Layer2
 10
479.745
 20
200.129
  0
VERTEX
  8
Layer2
 10
479.769
 20
199.927
  0
VERTEX
  8
Layer2
 10
479.795
 20
199.726
  0
VERTEX
  8
Layer2
 10
479.82
 20
199.525
  0
VERTEX
  8
Layer2
 10
479.846
 20
199.324
  0
VERTEX
  8
Layer2
 10
479.873
 20
199.123
  0
VERTEX
  8
Layer2
 10
479.902
 20
198.922
  0
VERTEX
  8
Layer2
 10
479.93
 20
198.721
  0
VERTEX
  8
Layer2
 10
479.961
 20
198.52
  0
VERTEX
  8
Layer2
 10
479.993
 20
198.32
  0
VERTEX
  8
Layer2
 10
480.026
 20
198.12
  0
VERTEX
  8
Layer2
 10
480.06
 20
197.92
  0
VERTEX
  8
Layer2
 10
480.096
 20
197.721
  0
VERTEX
  8
Layer2
 10
480.135
 20
197.521
  0
VERTEX
  8
Layer2
 10
480.176
 20
197.322
  0
VERTEX
  8
Layer2
 10
480.221
 20
197.124
  0
VERTEX
  8
Layer2
 10
480.267
 20
196.926
  0
VERTEX
  8
Layer2
 10
480.315
 20
196.728
  0
VERTEX
  8
Layer2
 10
480.368
 20
196.531
  0
VERTEX
  8
Layer2
 10
480.423
 20
196.334
  0
VERTEX
  8
Layer2
 10
480.481
 20
196.138
  0
VERTEX
  8
Layer2
 10
480.543
 20
195.942
  0
VERTEX
  8
Layer2
 10
480.606
 20
195.747
  0
VERTEX
  8
Layer2
 10
480.673
 20
195.552
  0
VERTEX
  8
Layer2
 10
480.741
 20
195.358
  0
VERTEX
  8
Layer2
 10
480.812
 20
195.164
  0
VERTEX
  8
Layer2
 10
480.88
 20
194.97
  0
VERTEX
  8
Layer2
 10
480.95
 20
194.776
  0
VERTEX
  8
Layer2
 10
481.017
 20
194.582
  0
VERTEX
  8
Layer2
 10
481.084
 20
194.388
  0
VERTEX
  8
Layer2
 10
481.147
 20
194.194
  0
VERTEX
  8
Layer2
 10
481.209
 20
193.999
  0
VERTEX
  8
Layer2
 10
481.267
 20
193.805
  0
VERTEX
  8
Layer2
 10
481.32
 20
193.61
  0
VERTEX
  8
Layer2
 10
481.368
 20
193.414
  0
VERTEX
  8
Layer2
 10
481.411
 20
193.218
  0
VERTEX
  8
Layer2
 10
481.447
 20
193.022
  0
VERTEX
  8
Layer2
 10
481.476
 20
192.825
  0
VERTEX
  8
Layer2
 10
481.5
 20
192.627
  0
VERTEX
  8
Layer2
 10
481.514
 20
192.429
  0
VERTEX
  8
Layer2
 10
481.519
 20
192.229
  0
VERTEX
  8
Layer2
 10
481.519
 20
192.029
  0
VERTEX
  8
Layer2
 10
481.512
 20
191.829
  0
VERTEX
  8
Layer2
 10
481.5
 20
191.627
  0
VERTEX
  8
Layer2
 10
481.483
 20
191.426
  0
VERTEX
  8
Layer2
 10
481.462
 20
191.223
  0
VERTEX
  8
Layer2
 10
481.438
 20
191.021
  0
VERTEX
  8
Layer2
 10
481.414
 20
190.818
  0
VERTEX
  8
Layer2
 10
481.387
 20
190.614
  0
VERTEX
  8
Layer2
 10
481.361
 20
190.411
  0
VERTEX
  8
Layer2
 10
481.337
 20
190.207
  0
VERTEX
  8
Layer2
 10
481.313
 20
190.004
  0
VERTEX
  8
Layer2
 10
481.291
 20
189.8
  0
VERTEX
  8
Layer2
 10
481.272
 20
189.597
  0
VERTEX
  8
Layer2
 10
481.259
 20
189.393
  0
VERTEX
  8
Layer2
 10
481.25
 20
189.19
  0
VERTEX
  8
Layer2
 10
481.247
 20
188.987
  0
VERTEX
  8
Layer2
 10
481.248
 20
188.784
  0
VERTEX
  8
Layer2
 10
481.255
 20
188.581
  0
VERTEX
  8
Layer2
 10
481.265
 20
188.379
  0
VERTEX
  8
Layer2
 10
481.281
 20
188.176
  0
VERTEX
  8
Layer2
 10
481.298
 20
187.974
  0
VERTEX
  8
Layer2
 10
481.318
 20
187.772
  0
VERTEX
  8
Layer2
 10
481.339
 20
187.57
  0
VERTEX
  8
Layer2
 10
481.361
 20
187.368
  0
VERTEX
  8
Layer2
 10
481.385
 20
187.166
  0
VERTEX
  8
Layer2
 10
481.409
 20
186.964
  0
VERTEX
  8
Layer2
 10
481.433
 20
186.762
  0
VERTEX
  8
Layer2
 10
481.457
 20
186.56
  0
VERTEX
  8
Layer2
 10
481.479
 20
186.358
  0
VERTEX
  8
Layer2
 10
481.498
 20
186.156
  0
VERTEX
  8
Layer2
 10
481.515
 20
185.954
  0
VERTEX
  8
Layer2
 10
481.529
 20
185.752
  0
VERTEX
  8
Layer2
 10
481.541
 20
185.549
  0
VERTEX
  8
Layer2
 10
481.548
 20
185.346
  0
VERTEX
  8
Layer2
 10
481.551
 20
185.144
  0
VERTEX
  8
Layer2
 10
481.553
 20
184.941
  0
VERTEX
  8
Layer2
 10
481.551
 20
184.738
  0
VERTEX
  8
Layer2
 10
481.548
 20
184.535
  0
VERTEX
  8
Layer2
 10
481.543
 20
184.332
  0
VERTEX
  8
Layer2
 10
481.539
 20
184.129
  0
SEQEND
  0
LINE
  8
Layer2
  6
CENTER1
 62
7
 10
182.283
 20
117.629
 11
202.941
 21
117.629
  0
LINE
  8
Layer2
  6
CENTER1
 62
7
 10
218.211
 20
175.629
 11
240.891
 21
175.629
  0
LINE
  8
Layer2
  6
CENTER1
 62
7
 10
217.762
 20
117.629
 11
237.523
 21
117.629
  0
LINE
  8
Layer2
  6
CENTER1
 62
7
 10
193.812
 20
126.22
 11
193.812
 21
106.01
  0
LINE
  8
Layer2
  6
CENTER1
 62
7
 10
226.812
 20
127.118
 11
226.812
 21
106.01
  0
LINE
  8
Layer2
  6
CENTER1
 62
7
 10
182.732
 20
175.629
 11
203.391
 21
175.629
  0
LINE
  8
Layer2
  6
CENTER1
 62
7
 10
193.812
 20
185.951
 11
193.812
 21
167.537
  0
LINE
  8
Layer2
  6
CENTER1
 62
7
 10
226.812
 20
185.951
 11
226.812
 21
167.537
  0
LINE
  8
Layer2
  6
CONTINUOUS
 62
7
 10
630.264
 20
277.229
 11
552.264
 21
277.229
  0
LINE
  8
Layer2
  6
CONTINUOUS
 62
7
 10
548.264
 20
200.129
 11
452.264
 21
200.129
  0
LINE
  8
Layer2
  6
DASHED1
 62
7
 10
607.264
 20
162.229
 11
626.264
 21
162.229
  0
LINE
  8
Layer2
  6
CONTINUOUS
 62
7
 10
444.264
 20
109.129
 11
423.264
 21
109.129
  0
LINE
  8
Layer2
  6
CONTINUOUS
 62
7
 10
452.264
 20
86.6292
 11
630.264
 21
86.6292
  0
LINE
  8
Layer2
  6
CONTINUOUS
 62
7
 10
631.264
 20
193.629
 11
631.264
 21
107.629
  0
LINE
  8
Layer2
  6
CONTINUOUS
 62
7
 10
646.264
 20
107.629
 11
646.264
 21
193.629
  0
LINE
  8
Layer2
  6
CONTINUOUS
 62
7
 10
451.264
 20
110.28
 11
451.264
 21
183.129
  0
LINE
  8
Layer2
  6
CONTINUOUS
 62
7
 10
445.264
 20
173.629
 11
445.264
 21
110.129
  0
LINE
  8
Layer2
  6
CONTINUOUS
 62
7
 10
422.264
 20
110.129
 11
422.264
 21
183.129
  0
LINE
  8
Layer2
  6
PHANTOM1
 62
7
 10
551.264
 20
229.629
 11
631.264
 21
229.629
  0
LINE
  8
Layer2
  6
CONTINUOUS
 62
7
 10
551.264
 20
262.229
 11
551.264
 21
276.229
  0
LINE
  8
Layer2
  6
CONTINUOUS
 62
7
 10
452.264
 20
184.129
 11
588.888
 21
184.129
  0
LINE
  8
Layer2
  6
CONTINUOUS
 62
7
 10
630.264
 20
261.229
 11
552.264
 21
261.229
  0
LINE
  8
Layer2
  6
PHANTOM1
 62
7
 10
551.264
 20
213.629
 11
631.264
 21
213.629
  0
LINE
  8
Layer2
  6
CONTINUOUS
 62
7
 10
451.264
 20
185.129
 11
451.264
 21
199.129
  0
LINE
  8
Layer2
  6
CONTINUOUS
 62
7
 10
451.264
 20
199.129
 11
452.264
 21
200.129
  0
LINE
  8
Layer2
  6
CONTINUOUS
 62
7
 10
452.264
 20
184.129
 11
451.264
 21
185.129
  0
LINE
  8
Layer2
  6
CONTINUOUS
 62
7
 10
448.764
 20
184.129
 11
446.264
 21
184.129
  0
LINE
  8
Layer2
  6
CONTINUOUS
 62
7
 10
423.264
 20
184.129
 11
444.264
 21
184.129
  0
LINE
  8
Layer2
  6
CONTINUOUS
 62
7
 10
445.264
 20
183.129
 11
444.264
 21
184.129
  0
LINE
  8
Layer2
  6
CONTINUOUS
 62
7
 10
422.264
 20
110.129
 11
423.264
 21
109.129
  0
LINE
  8
Layer2
  6
CONTINUOUS
 62
7
 10
448.764
 20
109.129
 11
446.264
 21
109.129
  0
LINE
  8
Layer2
  6
CONTINUOUS
 62
7
 10
445.264
 20
110.129
 11
444.264
 21
109.129
  0
LINE
  8
Layer2
  6
CONTINUOUS
 62
7
 10
445.264
 20
110.129
 11
446.264
 21
109.129
  0
LINE
  8
Layer2
  6
CONTINUOUS
 62
7
 10
452.264
 20
109.629
 11
519.672
 21
109.629
  0
POLYLINE
  8
Layer2
  6
CONTINUOUS
 62
7
 66
1
 10
0
 20
0
 30
0
  0
VERTEX
  8
Layer2
 10
481.539
 20
184.129
  0
VERTEX
  8
Layer2
 10
483.197
 20
182.956
  0
VERTEX
  8
Layer2
 10
484.836
 20
181.781
  0
VERTEX
  8
Layer2
 10
486.438
 20
180.602
  0
VERTEX
  8
Layer2
 10
487.991
 20
179.417
  0
VERTEX
  8
Layer2
 10
489.476
 20
178.224
  0
VERTEX
  8
Layer2
 10
490.873
 20
177.022
  0
VERTEX
  8
Layer2
 10
492.17
 20
175.808
  0
VERTEX
  8
Layer2
 10
493.358
 20
174.581
  0
VERTEX
  8
Layer2
 10
494.454
 20
173.343
  0
VERTEX
  8
Layer2
 10
495.476
 20
172.094
  0
VERTEX
  8
Layer2
 10
496.442
 20
170.838
  0
VERTEX
  8
Layer2
 10
497.366
 20
169.573
  0
VERTEX
  8
Layer2
 10
498.267
 20
168.303
  0
VERTEX
  8
Layer2
 10
499.164
 20
167.029
  0
VERTEX
  8
Layer2
 10
500.072
 20
165.751
  0
VERTEX
  8
Layer2
 10
501.009
 20
164.471
  0
VERTEX
  8
Layer2
 10
501.995
 20
163.192
  0
VERTEX
  8
Layer2
 10
503.043
 20
161.913
  0
VERTEX
  8
Layer2
 10
504.176
 20
160.637
  0
VERTEX
  8
Layer2
 10
505.402
 20
159.365
  0
VERTEX
  8
Layer2
 10
506.748
 20
158.097
  0
VERTEX
  8
Layer2
 10
508.229
 20
156.837
  0
VERTEX
  8
Layer2
 10
509.851
 20
155.584
  0
VERTEX
  8
Layer2
 10
511.601
 20
154.338
  0
VERTEX
  8
Layer2
 10
513.456
 20
153.099
  0
VERTEX
  8
Layer2
 10
515.399
 20
151.867
  0
VERTEX
  8
Layer2
 10
517.408
 20
150.641
  0
VERTEX
  8
Layer2
 10
519.458
 20
149.421
  0
VERTEX
  8
Layer2
 10
521.534
 20
148.204
  0
VERTEX
  8
Layer2
 10
523.612
 20
146.993
  0
VERTEX
  8
Layer2
 10
525.673
 20
145.786
  0
VERTEX
  8
Layer2
 10
527.693
 20
144.583
  0
VERTEX
  8
Layer2
 10
529.654
 20
143.383
  0
VERTEX
  8
Layer2
 10
531.533
 20
142.185
  0
VERTEX
  8
Layer2
 10
533.309
 20
140.99
  0
VERTEX
  8
Layer2
 10
534.962
 20
139.797
  0
VERTEX
  8
Layer2
 10
536.472
 20
138.604
  0
VERTEX
  8
Layer2
 10
537.816
 20
137.412
  0
VERTEX
  8
Layer2
 10
538.975
 20
136.222
  0
VERTEX
  8
Layer2
 10
539.928
 20
135.031
  0
VERTEX
  8
Layer2
 10
540.654
 20
133.839
  0
VERTEX
  8
Layer2
 10
541.129
 20
132.646
  0
VERTEX
  8
Layer2
 10
541.337
 20
131.452
  0
VERTEX
  8
Layer2
 10
541.254
 20
130.255
  0
VERTEX
  8
Layer2
 10
540.86
 20
129.056
  0
VERTEX
  8
Layer2
 10
540.146
 20
127.855
  0
VERTEX
  8
Layer2
 10
539.146
 20
126.65
  0
VERTEX
  8
Layer2
 10
537.909
 20
125.443
  0
VERTEX
  8
Layer2
 10
536.472
 20
124.235
  0
VERTEX
  8
Layer2
 10
534.883
 20
123.024
  0
VERTEX
  8
Layer2
 10
533.182
 20
121.811
  0
VERTEX
  8
Layer2
 10
531.418
 20
120.597
  0
VERTEX
  8
Layer2
 10
529.629
 20
119.382
  0
VERTEX
  8
Layer2
 10
527.861
 20
118.166
  0
VERTEX
  8
Layer2
 10
526.162
 20
116.949
  0
VERTEX
  8
Layer2
 10
524.568
 20
115.732
  0
VERTEX
  8
Layer2
 10
523.128
 20
114.515
  0
VERTEX
  8
Layer2
 10
521.883
 20
113.298
  0
VERTEX
  8
Layer2
 10
520.878
 20
112.081
  0
VERTEX
  8
Layer2
 10
520.158
 20
110.864
  0
VERTEX
  8
Layer2
 10
519.736
 20
109.648
  0
VERTEX
  8
Layer2
 10
519.601
 20
108.433
  0
VERTEX
  8
Layer2
 10
519.741
 20
107.219
  0
VERTEX
  8
Layer2
 10
520.135
 20
106.004
  0
VERTEX
  8
Layer2
 10
520.773
 20
104.79
  0
VERTEX
  8
Layer2
 10
521.638
 20
103.577
  0
VERTEX
  8
Layer2
 10
522.711
 20
102.365
  0
VERTEX
  8
Layer2
 10
523.986
 20
101.153
  0
VERTEX
  8
Layer2
 10
525.438
 20
99.9419
  0
VERTEX
  8
Layer2
 10
527.058
 20
98.7297
  0
VERTEX
  8
Layer2
 10
528.83
 20
97.5195
  0
VERTEX
  8
Layer2
 10
530.736
 20
96.3083
  0
VERTEX
  8
Layer2
 10
532.763
 20
95.098
  0
VERTEX
  8
Layer2
 10
534.898
 20
93.8878
  0
VERTEX
  8
Layer2
 10
537.122
 20
92.6775
  0
VERTEX
  8
Layer2
 10
539.423
 20
91.4673
  0
VERTEX
  8
Layer2
 10
541.784
 20
90.258
  0
VERTEX
  8
Layer2
 10
544.189
 20
89.0478
  0
VERTEX
  8
Layer2
 10
546.625
 20
87.8385
  0
VERTEX
  8
Layer2
 10
549.078
 20
86.6292
  0
SEQEND
  0
LINE
  8
Layer2
  6
CONTINUOUS
 62
7
 10
630.264
 20
109.129
 11
605.264
 21
109.129
  0
LINE
  8
Layer2
  6
CONTINUOUS
 62
7
 10
551.264
 20
262.229
 11
551.264
 21
228.967
  0
LINE
  8
Layer2
  6
CONTINUOUS
 62
7
 10
631.264
 20
276.229
 11
631.264
 21
262.229
  0
LINE
  8
Layer2
  6
CONTINUOUS
 62
7
 10
551.264
 20
276.229
 11
552.264
 21
277.229
  0
LINE
  8
Layer2
  6
CONTINUOUS
 62
7
 10
551.264
 20
262.229
 11
552.264
 21
261.229
  0
LINE
  8
Layer2
  6
CONTINUOUS
 62
7
 10
630.264
 20
261.229
 11
631.264
 21
262.229
  0
LINE
  8
Layer2
  6
CONTINUOUS
 62
7
 10
631.264
 20
276.229
 11
630.264
 21
277.229
  0
LINE
  8
Layer2
  6
CONTINUOUS
 62
7
 10
631.264
 20
133.627
 11
551.264
 21
228.967
  0
LINE
  8
Layer2
  6
PHANTOM1
 62
7
 10
551.264
 20
228.967
 11
551.264
 21
184.129
  0
LINE
  8
Layer2
  6
CONTINUOUS
 62
7
 10
632.264
 20
106.629
 11
645.264
 21
106.629
  0
LINE
  8
Layer2
  6
CONTINUOUS
 62
7
 10
632.264
 20
194.629
 11
645.264
 21
194.629
  0
LINE
  8
Layer2
  6
CONTINUOUS
 62
7
 10
645.264
 20
194.629
 11
646.264
 21
193.629
  0
LINE
  8
Layer2
  6
CONTINUOUS
 62
7
 10
646.264
 20
107.629
 11
645.264
 21
106.629
  0
LINE
  8
Layer2
  6
CONTINUOUS
 62
7
 10
632.264
 20
106.629
 11
631.264
 21
107.629
  0
LINE
  8
Layer2
  6
CONTINUOUS
 62
7
 10
631.264
 20
193.629
 11
632.264
 21
194.629
  0
LINE
  8
Layer2
  6
CONTINUOUS
 62
7
 10
631.264
 20
108.129
 11
631.264
 21
87.6292
  0
LINE
  8
Layer2
  6
CONTINUOUS
 62
7
 10
631.264
 20
87.6292
 11
630.264
 21
86.6292
  0
LINE
  8
Layer2
  6
CONTINUOUS
 62
7
 10
451.264
 20
87.6292
 11
452.264
 21
86.6292
  0
LINE
  8
Layer2
  6
CONTINUOUS
 62
7
 10
452.264
 20
109.629
 11
451.264
 21
108.629
  0
LINE
  8
Layer2
  6
CONTINUOUS
 62
7
 10
631.264
 20
167.229
 11
631.264
 21
262.229
  0
LINE
  8
Layer2
  6
PHANTOM1
 62
7
 10
591.264
 20
133.627
 11
548.888
 21
184.129
  0
LINE
  8
Layer2
  6
PHANTOM1
 62
7
 10
591.264
 20
133.627
 11
591.264
 21
109.129
  0
LINE
  8
Layer2
  6
CENTER1
 62
7
 10
599.264
 20
119.483
 11
599.264
 21
79.9622
  0
LINE
  8
Layer2
  6
CONTINUOUS
 62
7
 10
593.264
 20
109.129
 11
593.264
 21
112.129
  0
LINE
  8
Layer2
  6
CONTINUOUS
 62
7
 10
605.264
 20
112.129
 11
605.264
 21
109.129
  0
LINE
  8
Layer2
  6
CONTINUOUS
 62
7
 10
593.264
 20
112.129
 11
605.264
 21
112.129
  0
LINE
  8
Layer2
  6
CONTINUOUS
 62
7
 10
593.264
 20
109.129
 11
519.933
 21
109.129
  0
LINE
  8
Layer2
  6
CONTINUOUS
 62
7
 10
446.264
 20
184.129
 11
445.264
 21
183.129
  0
LINE
  8
Layer2
  6
CONTINUOUS
 62
7
 10
451.264
 20
183.129
 11
452.264
 21
184.129
  0
LINE
  8
Layer2
  6
CENTER1
 62
7
 10
414.284
 20
117.629
 11
465.923
 21
117.629
  0
LINE
  8
Layer2
  6
CENTER1
 62
7
 10
599.264
 20
86.1382
 11
599.264
 21
131.562
  0
LINE
  8
Layer2
  6
CONTINUOUS
 62
7
 10
605.264
 20
90.1292
 11
605.264
 21
112.129
  0
LINE
  8
Layer2
  6
CONTINUOUS
 62
7
 10
593.264
 20
90.1292
 11
593.264
 21
112.129
  0
LINE
  8
Layer2
  6
CONTINUOUS
 62
7
 10
593.264
 20
112.129
 11
605.264
 21
112.129
  0
LINE
  8
Layer2
  6
DASHED1
 62
7
 10
596.264
 20
102.739
 11
596.264
 21
124.129
  0
LINE
  8
Layer2
  6
DASHED1
 62
7
 10
602.264
 20
113.129
 11
602.264
 21
124.129
  0
LINE
  8
Layer2
  6
DASHED1
 62
7
 10
596.264
 20
124.129
 11
602.264
 21
124.129
  0
LINE
  8
Layer2
  6
DASHED1
 62
7
 10
596.764
 20
102.755
 11
596.764
 21
127.685
  0
LINE
  8
Layer2
  6
DASHED1
 62
7
 10
601.764
 20
103.115
 11
601.764
 21
127.685
  0
LINE
  8
Layer2
  6
CONTINUOUS
 62
7
 10
599.264
 20
129.129
 11
601.764
 21
127.685
  0
LINE
  8
Layer2
  6
CONTINUOUS
 62
7
 10
599.264
 20
129.129
 11
596.764
 21
127.685
  0
LINE
  8
Layer2
  6
DASHED1
 62
7
 10
596.764
 20
127.685
 11
601.764
 21
127.685
  0
LINE
  8
Layer2
  6
CONTINUOUS
 62
7
 10
601.764
 20
127.685
 11
601.443
 21
127.685
  0
LINE
  8
Layer2
  6
CONTINUOUS
 62
7
 10
602.264
 20
124.129
 11
601.14
 21
124.129
  0
LINE
  8
Layer2
  6
CONTINUOUS
 62
7
 10
596.264
 20
124.129
 11
596.264
 21
123.228
  0
LINE
  8
Layer2
  6
DASHED1
 62
7
 10
602.264
 20
124.129
 11
602.264
 21
103.51
  0
LINE
  8
Layer2
  6
CONTINUOUS
 62
7
 10
595.264
 20
112.129
 11
603.264
 21
112.129
  0
LINE
  8
Layer2
  6
CONTINUOUS
 62
7
 10
605.264
 20
90.1292
 11
593.264
 21
90.1292
  0
LINE
  8
Layer2
  6
CENTER1
 62
7
 10
474.375
 20
91.4772
 11
567.982
 21
91.4772
  0
LINE
  8
Layer2
  6
PHANTOM1
 62
7
 10
593.264
 20
88.9522
 11
593.264
 21
93.4522
  0
LINE
  8
Layer2
  6
CENTER1
 62
7
 10
564.572
 20
106.483
 11
473.777
 21
106.483
  0
LINE
  8
Layer2
  6
DASHED1
 62
7
 10
477.88
 20
88.9652
 11
480.44
 21
88.9652
  0
LINE
  8
Layer2
  6
DASHED1
 62
7
 10
476.173
 20
103.984
 11
478.733
 21
103.984
  0
LINE
  8
Layer2
  6
DASHED1
 62
7
 10
477.88
 20
93.9892
 11
480.44
 21
93.9892
  0
LINE
  8
Layer2
  6
DASHED1
 62
7
 10
478.733
 20
108.981
 11
478.733
 21
103.984
  0
LINE
  8
Layer2
  6
DASHED1
 62
7
 10
476.173
 20
108.981
 11
476.173
 21
103.984
  0
LINE
  8
Layer2
  6
DASHED1
 62
7
 10
477.88
 20
93.9892
 11
477.88
 21
88.9652
  0
LINE
  8
Layer2
  6
DASHED1
 62
7
 10
480.44
 20
93.9892
 11
480.44
 21
88.9652
  0
LINE
  8
Layer2
  6
DASHED1
 62
7
 10
476.173
 20
103.984
 11
477.88
 21
93.9892
  0
LINE
  8
Layer2
  6
DASHED1
 62
7
 10
478.733
 20
103.984
 11
480.44
 21
93.9892
  0
LINE
  8
Layer2
  6
DASHED1
 62
7
 10
477.027
 20
98.9862
 11
477.88
 21
88.9652
  0
LINE
  8
Layer2
  6
DASHED1
 62
7
 10
478.947
 20
108.981
 11
479.587
 21
98.9862
  0
LINE
  8
Layer2
  6
DASHED1
 62
7
 10
475.961
 20
88.9652
 11
477.24
 21
88.9652
  0
LINE
  8
Layer2
  6
DASHED1
 62
7
 10
477.24
 20
93.9632
 11
475.961
 21
93.9632
  0
LINE
  8
Layer2
  6
DASHED1
 62
7
 10
477.24
 20
88.9652
 11
477.24
 21
93.9632
  0
LINE
  8
Layer2
  6
DASHED1
 62
7
 10
477.24
 20
93.9632
 11
476.387
 21
98.9602
  0
LINE
  8
Layer2
  6
DASHED1
 62
7
 10
475.961
 20
88.9652
 11
475.961
 21
98.9602
  0
LINE
  8
Layer2
  6
DASHED1
 62
7
 10
476.387
 20
98.9602
 11
475.961
 21
98.9602
  0
LINE
  8
Layer2
  6
CONTINUOUS
 62
7
 10
603.264
 20
91.1292
 11
595.264
 21
91.1292
  0
LINE
  8
Layer2
  6
CONTINUOUS
 62
7
 10
594.264
 20
92.1292
 11
594.264
 21
97.1292
  0
LINE
  8
Layer2
  6
CONTINUOUS
 62
7
 10
604.264
 20
92.1292
 11
604.264
 21
97.1292
  0
LINE
  8
Layer2
  6
CONTINUOUS
 62
7
 10
593.764
 20
97.1292
 11
604.764
 21
97.1292
  0
LINE
  8
Layer2
  6
CONTINUOUS
 62
7
 10
595.264
 20
91.1292
 11
594.264
 21
92.1292
  0
LINE
  8
Layer2
  6
CONTINUOUS
 62
7
 10
603.264
 20
91.1292
 11
604.264
 21
92.1292
  0
LINE
  8
Layer2
  6
CONTINUOUS
 62
7
 10
594.264
 20
92.1292
 11
604.264
 21
92.1292
  0
LINE
  8
Layer2
  6
CONTINUOUS
 62
7
 10
602.264
 20
124.129
 11
601.764
 21
124.995
  0
LINE
  8
Layer2
  6
CONTINUOUS
 62
7
 10
596.264
 20
124.129
 11
596.764
 21
124.995
  0
LINE
  8
Layer2
  6
DASHED1
 62
7
 10
596.764
 20
124.995
 11
601.764
 21
124.995
  0
POLYLINE
  8
Layer2
  6
CONTINUOUS
 62
7
 66
1
 10
0
 20
0
 30
0
  0
VERTEX
  8
Layer2
 10
593.264
 20
101.129
  0
VERTEX
  8
Layer2
 10
593.451
 20
101.269
  0
VERTEX
  8
Layer2
 10
593.638
 20
101.409
  0
VERTEX
  8
Layer2
 10
593.823
 20
101.547
  0
VERTEX
  8
Layer2
 10
594.011
 20
101.682
  0
VERTEX
  8
Layer2
 10
594.198
 20
101.814
  0
VERTEX
  8
Layer2
 10
594.386
 20
101.941
  0
VERTEX
  8
Layer2
 10
594.576
 20
102.062
  0
VERTEX
  8
Layer2
 10
594.765
 20
102.176
  0
VERTEX
  8
Layer2
 10
594.956
 20
102.284
  0
VERTEX
  8
Layer2
 10
595.146
 20
102.382
  0
VERTEX
  8
Layer2
 10
595.338
 20
102.472
  0
VERTEX
  8
Layer2
 10
595.532
 20
102.551
  0
VERTEX
  8
Layer2
 10
595.726
 20
102.619
  0
VERTEX
  8
Layer2
 10
595.922
 20
102.675
  0
VERTEX
  8
Layer2
 10
596.117
 20
102.718
  0
VERTEX
  8
Layer2
 10
596.317
 20
102.747
  0
VERTEX
  8
Layer2
 10
596.516
 20
102.761
  0
VERTEX
  8
Layer2
 10
596.718
 20
102.759
  0
VERTEX
  8
Layer2
 10
596.922
 20
102.74
  0
VERTEX
  8
Layer2
 10
597.126
 20
102.707
  0
VERTEX
  8
Layer2
 10
597.332
 20
102.662
  0
VERTEX
  8
Layer2
 10
597.539
 20
102.607
  0
VERTEX
  8
Layer2
 10
597.747
 20
102.546
  0
VERTEX
  8
Layer2
 10
597.956
 20
102.482
  0
VERTEX
  8
Layer2
 10
598.164
 20
102.416
  0
VERTEX
  8
Layer2
 10
598.371
 20
102.353
  0
VERTEX
  8
Layer2
 10
598.578
 20
102.294
  0
VERTEX
  8
Layer2
 10
598.784
 20
102.243
  0
VERTEX
  8
Layer2
 10
598.99
 20
102.202
  0
VERTEX
  8
Layer2
 10
599.193
 20
102.174
  0
VERTEX
  8
Layer2
 10
599.394
 20
102.162
  0
VERTEX
  8
Layer2
 10
599.593
 20
102.166
  0
VERTEX
  8
Layer2
 10
599.79
 20
102.186
  0
VERTEX
  8
Layer2
 10
599.986
 20
102.221
  0
VERTEX
  8
Layer2
 10
600.181
 20
102.269
  0
VERTEX
  8
Layer2
 10
600.372
 20
102.33
  0
VERTEX
  8
Layer2
 10
600.563
 20
102.403
  0
VERTEX
  8
Layer2
 10
600.753
 20
102.488
  0
VERTEX
  8
Layer2
 10
600.939
 20
102.582
  0
VERTEX
  8
Layer2
 10
601.125
 20
102.687
  0
VERTEX
  8
Layer2
 10
601.309
 20
102.8
  0
VERTEX
  8
Layer2
 10
601.492
 20
102.921
  0
VERTEX
  8
Layer2
 10
601.673
 20
103.048
  0
VERTEX
  8
Layer2
 10
601.854
 20
103.182
  0
VERTEX
  8
Layer2
 10
602.033
 20
103.321
  0
VERTEX
  8
Layer2
 10
602.211
 20
103.465
  0
VERTEX
  8
Layer2
 10
602.386
 20
103.612
  0
VERTEX
  8
Layer2
 10
602.562
 20
103.762
  0
VERTEX
  8
Layer2
 10
602.736
 20
103.914
  0
VERTEX
  8
Layer2
 10
602.909
 20
104.066
  0
VERTEX
  8
Layer2
 10
603.082
 20
104.219
  0
VERTEX
  8
Layer2
 10
603.254
 20
104.371
  0
VERTEX
  8
Layer2
 10
603.424
 20
104.522
  0
VERTEX
  8
Layer2
 10
603.593
 20
104.67
  0
VERTEX
  8
Layer2
 10
603.764
 20
104.814
  0
VERTEX
  8
Layer2
 10
603.932
 20
104.955
  0
VERTEX
  8
Layer2
 10
604.1
 20
105.093
  0
VERTEX
  8
Layer2
 10
604.266
 20
105.227
  0
VERTEX
  8
Layer2
 10
604.433
 20
105.358
  0
VERTEX
  8
Layer2
 10
604.601
 20
105.487
  0
VERTEX
  8
Layer2
 10
604.766
 20
105.614
  0
VERTEX
  8
Layer2
 10
604.933
 20
105.74
  0
VERTEX
  8
Layer2
 10
605.098
 20
105.865
  0
VERTEX
  8
Layer2
 10
605.264
 20
105.989
  0
SEQEND
  0
LINE
  8
Layer2
  6
CONTINUOUS
 62
7
 10
602.264
 20
103.51
 11
602.264
 21
97.1292
  0
LINE
  8
Layer2
  6
CONTINUOUS
 62
7
 10
601.764
 20
103.115
 11
601.764
 21
97.1292
  0
LINE
  8
Layer2
  6
CONTINUOUS
 62
7
 10
596.764
 20
102.756
 11
596.764
 21
97.1292
  0
LINE
  8
Layer2
  6
CONTINUOUS
 62
7
 10
596.264
 20
102.739
 11
596.264
 21
97.1292
  0
LINE
  8
Layer2
  6
CONTINUOUS
 62
7
 10
594.264
 20
97.1292
 11
594.264
 21
92.1292
  0
LINE
  8
Layer2
  6
CONTINUOUS
 62
7
 10
604.264
 20
97.1292
 11
604.264
 21
92.1292
  0
LINE
  8
Layer2
  6
CONTINUOUS
 62
7
 10
593.764
 20
90.1292
 11
593.764
 21
97.1292
  0
LINE
  8
Layer2
  6
CONTINUOUS
 62
7
 10
604.764
 20
90.1292
 11
604.764
 21
97.1292
  0
LINE
  8
Layer2
  6
CONTINUOUS
 62
7
 10
594.764
 20
96.8792
 11
594.764
 21
92.3792
  0
LINE
  8
Layer2
  6
CONTINUOUS
 62
7
 10
595.764
 20
96.3792
 11
595.764
 21
92.8792
  0
LINE
  8
Layer2
  6
CONTINUOUS
 62
7
 10
596.764
 20
95.8792
 11
596.764
 21
93.3792
  0
LINE
  8
Layer2
  6
CONTINUOUS
 62
7
 10
599.264
 20
97.1292
 11
599.264
 21
92.1292
  0
LINE
  8
Layer2
  6
CONTINUOUS
 62
7
 10
475.961
 20
108.968
 11
475.961
 21
88.9522
  0
LINE
  8
Layer2
  6
CONTINUOUS
 62
7
 10
593.264
 20
106.952
 11
593.264
 21
88.9522
  0
LINE
  8
Layer2
  6
DASHED1
 62
7
 10
577.41
 20
88.9522
 11
579.989
 21
88.9522
  0
LINE
  8
Layer2
  6
CONTINUOUS
 62
7
 10
593.264
 20
106.952
 11
591.332
 21
106.952
  0
LINE
  8
Layer2
  6
DASHED1
 62
7
 10
575.692
 20
103.971
 11
578.269
 21
103.971
  0
LINE
  8
Layer2
  6
DASHED1
 62
7
 10
577.41
 20
93.9762
 11
579.989
 21
93.9762
  0
LINE
  8
Layer2
  6
DASHED1
 62
7
 10
578.269
 20
108.968
 11
578.269
 21
103.971
  0
LINE
  8
Layer2
  6
DASHED1
 62
7
 10
575.692
 20
108.968
 11
575.692
 21
103.971
  0
LINE
  8
Layer2
  6
DASHED1
 62
7
 10
577.41
 20
93.9762
 11
577.41
 21
88.9522
  0
LINE
  8
Layer2
  6
DASHED1
 62
7
 10
579.989
 20
93.9762
 11
579.989
 21
88.9522
  0
LINE
  8
Layer2
  6
DASHED1
 62
7
 10
575.692
 20
103.971
 11
577.41
 21
93.9762
  0
LINE
  8
Layer2
  6
DASHED1
 62
7
 10
578.269
 20
103.971
 11
579.989
 21
93.9762
  0
LINE
  8
Layer2
  6
DASHED1
 62
7
 10
576.552
 20
98.9732
 11
577.41
 21
88.9522
  0
LINE
  8
Layer2
  6
DASHED1
 62
7
 10
578.485
 20
108.968
 11
579.129
 21
98.9732
  0
LINE
  8
Layer2
  6
CONTINUOUS
 62
7
 10
582.567
 20
88.9522
 11
585.144
 21
88.9522
  0
LINE
  8
Layer2
  6
CONTINUOUS
 62
7
 10
583.426
 20
108.968
 11
580.847
 21
108.968
  0
LINE
  8
Layer2
  6
CONTINUOUS
 62
7
 10
580.847
 20
103.971
 11
583.426
 21
103.971
  0
LINE
  8
Layer2
  6
CONTINUOUS
 62
7
 10
582.567
 20
93.9762
 11
585.144
 21
93.9762
  0
LINE
  8
Layer2
  6
CONTINUOUS
 62
7
 10
583.426
 20
108.968
 11
583.426
 21
103.971
  0
LINE
  8
Layer2
  6
CONTINUOUS
 62
7
 10
580.847
 20
108.968
 11
580.847
 21
103.971
  0
LINE
  8
Layer2
  6
CONTINUOUS
 62
7
 10
582.567
 20
93.9762
 11
582.567
 21
88.9522
  0
LINE
  8
Layer2
  6
CONTINUOUS
 62
7
 10
585.144
 20
93.9762
 11
585.144
 21
88.9522
  0
LINE
  8
Layer2
  6
CONTINUOUS
 62
7
 10
580.847
 20
103.971
 11
582.567
 21
93.9762
  0
LINE
  8
Layer2
  6
CONTINUOUS
 62
7
 10
583.426
 20
103.971
 11
585.144
 21
93.9762
  0
LINE
  8
Layer2
  6
CONTINUOUS
 62
7
 10
581.707
 20
98.9732
 11
582.567
 21
88.9522
  0
LINE
  8
Layer2
  6
CONTINUOUS
 62
7
 10
583.64
 20
108.968
 11
584.284
 21
98.9732
  0
LINE
  8
Layer2
  6
CONTINUOUS
 62
7
 10
587.721
 20
88.9522
 11
590.299
 21
88.9522
  0
LINE
  8
Layer2
  6
CONTINUOUS
 62
7
 10
588.582
 20
108.968
 11
586.004
 21
108.968
  0
LINE
  8
Layer2
  6
CONTINUOUS
 62
7
 10
586.004
 20
103.971
 11
588.582
 21
103.971
  0
LINE
  8
Layer2
  6
CONTINUOUS
 62
7
 10
587.721
 20
93.9762
 11
590.299
 21
93.9762
  0
LINE
  8
Layer2
  6
CONTINUOUS
 62
7
 10
588.582
 20
108.968
 11
588.582
 21
103.971
  0
LINE
  8
Layer2
  6
CONTINUOUS
 62
7
 10
586.004
 20
108.968
 11
586.004
 21
103.971
  0
LINE
  8
Layer2
  6
CONTINUOUS
 62
7
 10
587.721
 20
93.9762
 11
587.721
 21
88.9522
  0
LINE
  8
Layer2
  6
CONTINUOUS
 62
7
 10
590.299
 20
93.9762
 11
590.299
 21
88.9522
  0
LINE
  8
Layer2
  6
CONTINUOUS
 62
7
 10
586.004
 20
103.971
 11
587.721
 21
93.9762
  0
LINE
  8
Layer2
  6
CONTINUOUS
 62
7
 10
588.582
 20
103.971
 11
590.299
 21
93.9762
  0
LINE
  8
Layer2
  6
CONTINUOUS
 62
7
 10
586.862
 20
98.9732
 11
587.721
 21
88.9522
  0
LINE
  8
Layer2
  6
CONTINUOUS
 62
7
 10
588.795
 20
108.968
 11
589.441
 21
98.9732
  0
LINE
  8
Layer2
  6
CONTINUOUS
 62
7
 10
592.878
 20
88.9522
 11
593.264
 21
88.9522
  0
LINE
  8
Layer2
  6
CONTINUOUS
 62
7
 10
591.332
 20
102.458
 11
593.264
 21
102.452
  0
LINE
  8
Layer2
  6
CONTINUOUS
 62
7
 10
592.878
 20
93.4702
 11
593.264
 21
93.4522
  0
LINE
  8
Layer2
  6
CONTINUOUS
 62
7
 10
591.159
 20
108.968
 11
591.159
 21
103.971
  0
LINE
  8
Layer2
  6
CONTINUOUS
 62
7
 10
592.878
 20
93.9762
 11
592.878
 21
88.9522
  0
LINE
  8
Layer2
  6
CONTINUOUS
 62
7
 10
591.159
 20
103.971
 11
592.878
 21
93.9762
  0
LINE
  8
Layer2
  6
CONTINUOUS
 62
7
 10
592.019
 20
98.9732
 11
592.878
 21
88.9522
  0
LINE
  8
Layer2
  6
DASHED1
 62
7
 10
578.269
 20
108.968
 11
575.692
 21
108.968
  0
LINE
  8
Layer2
  6
DASHED1
 62
7
 10
573.115
 20
108.968
 11
570.537
 21
108.968
  0
LINE
  8
Layer2
  6
DASHED1
 62
7
 10
567.958
 20
108.968
 11
565.38
 21
108.968
  0
LINE
  8
Layer2
  6
DASHED1
 62
7
 10
567.1
 20
88.9522
 11
569.677
 21
88.9522
  0
LINE
  8
Layer2
  6
CONTINUOUS
 62
7
 10
567.958
 20
108.968
 11
565.38
 21
108.968
  0
LINE
  8
Layer2
  6
CONTINUOUS
 62
7
 10
565.38
 20
103.971
 11
567.958
 21
103.971
  0
LINE
  8
Layer2
  6
CONTINUOUS
 62
7
 10
567.1
 20
93.9762
 11
569.677
 21
93.9762
  0
LINE
  8
Layer2
  6
CONTINUOUS
 62
7
 10
567.958
 20
108.968
 11
567.958
 21
103.971
  0
LINE
  8
Layer2
  6
CONTINUOUS
 62
7
 10
565.38
 20
108.968
 11
565.38
 21
103.971
  0
LINE
  8
Layer2
  6
DASHED1
 62
7
 10
567.1
 20
93.9762
 11
567.1
 21
88.9522
  0
LINE
  8
Layer2
  6
DASHED1
 62
7
 10
569.677
 20
92.3252
 11
569.677
 21
88.9522
  0
LINE
  8
Layer2
  6
CONTINUOUS
 62
7
 10
565.38
 20
103.971
 11
566.845
 21
95.4572
  0
LINE
  8
Layer2
  6
CONTINUOUS
 62
7
 10
567.958
 20
103.971
 11
569.677
 21
93.9762
  0
LINE
  8
Layer2
  6
DASHED1
 62
7
 10
566.481
 20
96.1602
 11
567.1
 21
88.9522
  0
LINE
  8
Layer2
  6
CONTINUOUS
 62
7
 10
568.173
 20
108.968
 11
568.818
 21
98.9732
  0
LINE
  8
Layer2
  6
DASHED1
 62
7
 10
572.255
 20
88.9522
 11
574.832
 21
88.9522
  0
LINE
  8
Layer2
  6
CONTINUOUS
 62
7
 10
577.41
 20
88.9522
 11
579.989
 21
88.9522
  0
LINE
  8
Layer2
  6
CONTINUOUS
 62
7
 10
578.269
 20
108.968
 11
575.692
 21
108.968
  0
LINE
  8
Layer2
  6
CONTINUOUS
 62
7
 10
575.692
 20
103.971
 11
578.269
 21
103.971
  0
LINE
  8
Layer2
  6
CONTINUOUS
 62
7
 10
577.41
 20
93.9762
 11
579.989
 21
93.9762
  0
LINE
  8
Layer2
  6
CONTINUOUS
 62
7
 10
578.269
 20
108.968
 11
578.269
 21
103.971
  0
LINE
  8
Layer2
  6
CONTINUOUS
 62
7
 10
575.692
 20
108.968
 11
575.692
 21
103.971
  0
LINE
  8
Layer2
  6
CONTINUOUS
 62
7
 10
577.41
 20
93.9762
 11
577.41
 21
88.9522
  0
LINE
  8
Layer2
  6
CONTINUOUS
 62
7
 10
579.989
 20
93.9762
 11
579.989
 21
88.9522
  0
LINE
  8
Layer2
  6
CONTINUOUS
 62
7
 10
575.692
 20
103.971
 11
577.41
 21
93.9762
  0
LINE
  8
Layer2
  6
CONTINUOUS
 62
7
 10
578.269
 20
103.971
 11
579.989
 21
93.9762
  0
LINE
  8
Layer2
  6
CONTINUOUS
 62
7
 10
576.552
 20
98.9732
 11
577.41
 21
88.9522
  0
LINE
  8
Layer2
  6
CONTINUOUS
 62
7
 10
578.485
 20
108.968
 11
579.129
 21
98.9732
  0
LINE
  8
Layer2
  6
CONTINUOUS
 62
7
 10
569.677
 20
92.3252
 11
569.677
 21
93.9762
  0
LINE
  8
Layer2
  6
CONTINUOUS
 62
7
 10
566.481
 20
96.1602
 11
566.24
 21
98.9732
  0
LINE
  8
Layer2
  6
CONTINUOUS
 62
7
 10
566.845
 20
95.4572
 11
567.1
 21
93.9762
  0
LINE
  8
Layer2
  6
CONTINUOUS
 62
7
 10
573.115
 20
108.968
 11
570.537
 21
108.968
  0
LINE
  8
Layer2
  6
CONTINUOUS
 62
7
 10
570.537
 20
103.971
 11
573.115
 21
103.971
  0
LINE
  8
Layer2
  6
CONTINUOUS
 62
7
 10
572.255
 20
93.9762
 11
574.832
 21
93.9762
  0
LINE
  8
Layer2
  6
CONTINUOUS
 62
7
 10
573.115
 20
108.968
 11
573.115
 21
103.971
  0
LINE
  8
Layer2
  6
CONTINUOUS
 62
7
 10
570.537
 20
108.968
 11
570.537
 21
103.971
  0
LINE
  8
Layer2
  6
CONTINUOUS
 62
7
 10
572.255
 20
93.9762
 11
572.255
 21
90.7292
  0
LINE
  8
Layer2
  6
CONTINUOUS
 62
7
 10
574.832
 20
93.9762
 11
574.832
 21
89.5772
  0
LINE
  8
Layer2
  6
CONTINUOUS
 62
7
 10
570.537
 20
103.971
 11
572.255
 21
93.9762
  0
LINE
  8
Layer2
  6
CONTINUOUS
 62
7
 10
573.115
 20
103.971
 11
574.832
 21
93.9762
  0
LINE
  8
Layer2
  6
CONTINUOUS
 62
7
 10
571.395
 20
98.9732
 11
572.096
 21
90.8152
  0
LINE
  8
Layer2
  6
CONTINUOUS
 62
7
 10
573.328
 20
108.968
 11
573.973
 21
98.9732
  0
LINE
  8
Layer2
  6
DASHED1
 62
7
 10
572.255
 20
88.9522
 11
572.063
 21
91.1872
  0
LINE
  8
Layer2
  6
DASHED1
 62
7
 10
572.255
 20
90.7292
 11
572.255
 21
88.9522
  0
LINE
  8
Layer2
  6
CONTINUOUS
 62
7
 10
574.832
 20
89.5772
 11
574.832
 21
88.9522
  0
LINE
  8
Layer2
  6
CONTINUOUS
 62
7
 10
590.481
 20
182.229
 11
631.264
 21
182.229
  0
LINE
  8
Layer2
  6
CONTINUOUS
 62
7
 10
445.264
 20
183.129
 11
445.264
 21
179.629
  0
LINE
  8
Layer2
  6
CONTINUOUS
 62
7
 10
422.264
 20
183.129
 11
423.264
 21
184.129
  0
POLYLINE
  8
Layer2
  6
CONTINUOUS
 62
7
 66
1
 10
0
 20
0
 30
0
  0
VERTEX
  8
Layer2
 10
447.884
 20
184.129
  0
VERTEX
  8
Layer2
 10
447.892
 20
183.809
  0
VERTEX
  8
Layer2
 10
447.899
 20
183.488
  0
VERTEX
  8
Layer2
 10
447.908
 20
183.167
  0
VERTEX
  8
Layer2
 10
447.916
 20
182.844
  0
VERTEX
  8
Layer2
 10
447.923
 20
182.52
  0
VERTEX
  8
Layer2
 10
447.933
 20
182.193
  0
VERTEX
  8
Layer2
 10
447.942
 20
181.864
  0
VERTEX
  8
Layer2
 10
447.952
 20
181.531
  0
VERTEX
  8
Layer2
 10
447.962
 20
181.195
  0
VERTEX
  8
Layer2
 10
447.971
 20
180.854
  0
VERTEX
  8
Layer2
 10
447.983
 20
180.509
  0
VERTEX
  8
Layer2
 10
447.995
 20
180.159
  0
VERTEX
  8
Layer2
 10
448.009
 20
179.804
  0
VERTEX
  8
Layer2
 10
448.022
 20
179.443
  0
VERTEX
  8
Layer2
 10
448.036
 20
179.075
  0
VERTEX
  8
Layer2
 10
448.051
 20
178.702
  0
VERTEX
  8
Layer2
 10
448.063
 20
178.326
  0
VERTEX
  8
Layer2
 10
448.072
 20
177.948
  0
VERTEX
  8
Layer2
 10
448.079
 20
177.569
  0
VERTEX
  8
Layer2
 10
448.077
 20
177.191
  0
VERTEX
  8
Layer2
 10
448.07
 20
176.816
  0
VERTEX
  8
Layer2
 10
448.055
 20
176.445
  0
VERTEX
  8
Layer2
 10
448.029
 20
176.08
  0
VERTEX
  8
Layer2
 10
447.993
 20
175.722
  0
VERTEX
  8
Layer2
 10
447.943
 20
175.373
  0
VERTEX
  8
Layer2
 10
447.88
 20
175.035
  0
VERTEX
  8
Layer2
 10
447.801
 20
174.708
  0
VERTEX
  8
Layer2
 10
447.705
 20
174.395
  0
VERTEX
  8
Layer2
 10
447.592
 20
174.097
  0
VERTEX
  8
Layer2
 10
447.459
 20
173.816
  0
VERTEX
  8
Layer2
 10
447.307
 20
173.553
  0
VERTEX
  8
Layer2
 10
447.13
 20
173.309
  0
VERTEX
  8
Layer2
 10
446.933
 20
173.087
  0
VERTEX
  8
Layer2
 10
446.709
 20
172.888
  0
VERTEX
  8
Layer2
 10
446.459
 20
172.711
  0
VERTEX
  8
Layer2
 10
446.19
 20
172.554
  0
VERTEX
  8
Layer2
 10
445.901
 20
172.412
  0
VERTEX
  8
Layer2
 10
445.596
 20
172.282
  0
VERTEX
  8
Layer2
 10
445.281
 20
172.159
  0
VERTEX
  8
Layer2
 10
444.957
 20
172.039
  0
VERTEX
  8
Layer2
 10
444.628
 20
171.92
  0
VERTEX
  8
Layer2
 10
444.298
 20
171.796
  0
VERTEX
  8
Layer2
 10
443.969
 20
171.664
  0
VERTEX
  8
Layer2
 10
443.644
 20
171.52
  0
VERTEX
  8
Layer2
 10
443.33
 20
171.36
  0
VERTEX
  8
Layer2
 10
443.024
 20
171.184
  0
VERTEX
  8
Layer2
 10
442.726
 20
170.995
  0
VERTEX
  8
Layer2
 10
442.435
 20
170.795
  0
VERTEX
  8
Layer2
 10
442.151
 20
170.587
  0
VERTEX
  8
Layer2
 10
441.87
 20
170.373
  0
VERTEX
  8
Layer2
 10
441.596
 20
170.155
  0
VERTEX
  8
Layer2
 10
441.324
 20
169.936
  0
VERTEX
  8
Layer2
 10
441.053
 20
169.72
  0
VERTEX
  8
Layer2
 10
440.784
 20
169.507
  0
VERTEX
  8
Layer2
 10
440.515
 20
169.301
  0
VERTEX
  8
Layer2
 10
440.245
 20
169.104
  0
VERTEX
  8
Layer2
 10
439.974
 20
168.919
  0
VERTEX
  8
Layer2
 10
439.699
 20
168.748
  0
VERTEX
  8
Layer2
 10
439.42
 20
168.593
  0
VERTEX
  8
Layer2
 10
439.135
 20
168.458
  0
VERTEX
  8
Layer2
 10
438.846
 20
168.345
  0
VERTEX
  8
Layer2
 10
438.55
 20
168.255
  0
VERTEX
  8
Layer2
 10
438.245
 20
168.192
  0
VERTEX
  8
Layer2
 10
437.933
 20
168.154
  0
VERTEX
  8
Layer2
 10
437.613
 20
168.139
  0
VERTEX
  8
Layer2
 10
437.288
 20
168.142
  0
VERTEX
  8
Layer2
 10
436.957
 20
168.161
  0
VERTEX
  8
Layer2
 10
436.622
 20
168.193
  0
VERTEX
  8
Layer2
 10
436.283
 20
168.234
  0
VERTEX
  8
Layer2
 10
435.942
 20
168.282
  0
VERTEX
  8
Layer2
 10
435.598
 20
168.333
  0
VERTEX
  8
Layer2
 10
435.253
 20
168.384
  0
VERTEX
  8
Layer2
 10
434.908
 20
168.433
  0
VERTEX
  8
Layer2
 10
434.563
 20
168.476
  0
VERTEX
  8
Layer2
 10
434.219
 20
168.509
  0
VERTEX
  8
Layer2
 10
433.878
 20
168.531
  0
VERTEX
  8
Layer2
 10
433.539
 20
168.537
  0
VERTEX
  8
Layer2
 10
433.204
 20
168.525
  0
VERTEX
  8
Layer2
 10
432.873
 20
168.492
  0
VERTEX
  8
Layer2
 10
432.546
 20
168.441
  0
VERTEX
  8
Layer2
 10
432.223
 20
168.372
  0
VERTEX
  8
Layer2
 10
431.902
 20
168.287
  0
VERTEX
  8
Layer2
 10
431.584
 20
168.189
  0
VERTEX
  8
Layer2
 10
431.269
 20
168.078
  0
VERTEX
  8
Layer2
 10
430.957
 20
167.957
  0
VERTEX
  8
Layer2
 10
430.647
 20
167.827
  0
VERTEX
  8
Layer2
 10
430.337
 20
167.689
  0
VERTEX
  8
Layer2
 10
430.029
 20
167.546
  0
VERTEX
  8
Layer2
 10
429.721
 20
167.399
  0
VERTEX
  8
Layer2
 10
429.413
 20
167.25
  0
VERTEX
  8
Layer2
 10
429.106
 20
167.1
  0
VERTEX
  8
Layer2
 10
428.798
 20
166.951
  0
VERTEX
  8
Layer2
 10
428.488
 20
166.805
  0
VERTEX
  8
Layer2
 10
428.178
 20
166.664
  0
VERTEX
  8
Layer2
 10
427.868
 20
166.529
  0
VERTEX
  8
Layer2
 10
427.555
 20
166.401
  0
VERTEX
  8
Layer2
 10
427.238
 20
166.283
  0
VERTEX
  8
Layer2
 10
426.921
 20
166.176
  0
VERTEX
  8
Layer2
 10
426.601
 20
166.082
  0
VERTEX
  8
Layer2
 10
426.277
 20
165.999
  0
VERTEX
  8
Layer2
 10
425.952
 20
165.927
  0
VERTEX
  8
Layer2
 10
425.623
 20
165.865
  0
VERTEX
  8
Layer2
 10
425.293
 20
165.812
  0
VERTEX
  8
Layer2
 10
424.962
 20
165.767
  0
VERTEX
  8
Layer2
 10
424.628
 20
165.73
  0
VERTEX
  8
Layer2
 10
424.293
 20
165.699
  0
VERTEX
  8
Layer2
 10
423.957
 20
165.673
  0
VERTEX
  8
Layer2
 10
423.62
 20
165.652
  0
VERTEX
  8
Layer2
 10
423.281
 20
165.634
  0
VERTEX
  8
Layer2
 10
422.943
 20
165.62
  0
VERTEX
  8
Layer2
 10
422.604
 20
165.607
  0
VERTEX
  8
Layer2
 10
422.264
 20
165.595
  0
SEQEND
  0
LINE
  8
Layer2
  6
CENTER1
 62
7
 10
462.264
 20
180.047
 11
462.264
 21
205.039
  0
LINE
  8
Layer2
  6
CENTER1
 62
7
 10
500.264
 20
181.601
 11
500.264
 21
209.831
  0
LINE
  8
Layer2
  6
CENTER1
 62
7
 10
538.264
 20
208.572
 11
538.264
 21
176.781
  0
LINE
  8
Layer2
  6
CONTINUOUS
 62
7
 10
549.264
 20
185.129
 11
549.264
 21
199.129
  0
LINE
  8
Layer2
  6
CONTINUOUS
 62
7
 10
548.264
 20
200.129
 11
549.264
 21
199.129
  0
LINE
  8
Layer2
  6
CONTINUOUS
 62
7
 10
548.264
 20
184.129
 11
549.264
 21
185.129
  0
LINE
  8
Layer2
  6
DASHED1
 62
7
 10
544.764
 20
200.129
 11
544.764
 21
192.129
  0
LINE
  8
Layer2
  6
DASHED1
 62
7
 10
531.764
 20
200.129
 11
531.764
 21
192.129
  0
LINE
  8
Layer2
  6
DASHED1
 62
7
 10
531.764
 20
192.129
 11
544.764
 21
192.129
  0
LINE
  8
Layer2
  6
CONTINUOUS
 62
7
 10
542.264
 20
192.129
 11
542.264
 21
184.129
  0
LINE
  8
Layer2
  6
CONTINUOUS
 62
7
 10
534.264
 20
192.129
 11
534.264
 21
184.129
  0
LINE
  8
Layer2
  6
CENTER1
 62
7
 10
566.264
 20
282.545
 11
566.264
 21
253.304
  0
LINE
  8
Layer2
  6
CENTER1
 62
7
 10
616.264
 20
283.043
 11
616.264
 21
253.155
  0
ARC
  8
Layer2
  6
CONTINUOUS
 62
7
 10
626.264
 20
167.229
 40
5
 50
270
 51
2.03555e-013
  0
LINE
  8
Layer2
  6
CONTINUOUS
 62
7
 10
646.264
 20
392.174
 11
646.264
 21
485.174
  0
LINE
  8
Layer2
  6
CONTINUOUS
 62
7
 10
631.264
 20
371.674
 11
631.264
 21
505.674
  0
LINE
  8
Layer2
  6
CONTINUOUS
 62
7
 10
551.264
 20
392.174
 11
551.264
 21
485.174
  0
LINE
  8
Layer2
  6
CONTINUOUS
 62
7
 10
451.264
 20
371.674
 11
451.264
 21
505.674
  0
LINE
  8
Layer2
  6
CONTINUOUS
 62
7
 10
445.264
 20
414.674
 11
445.264
 21
462.674
  0
LINE
  8
Layer2
  6
CONTINUOUS
 62
7
 10
422.264
 20
462.674
 11
422.264
 21
414.674
  0
LINE
  8
Layer2
  6
CONTINUOUS
 62
7
 10
549.264
 20
392.674
 11
549.264
 21
484.674
  0
LINE
  8
Layer2
  6
CONTINUOUS
 62
7
 10
453.264
 20
507.674
 11
629.264
 21
507.674
  0
LINE
  8
Layer2
  6
CONTINUOUS
 62
7
 10
452.264
 20
485.674
 11
548.264
 21
485.674
  0
LINE
  8
Layer2
  6
CONTINUOUS
 62
7
 10
453.264
 20
369.674
 11
629.264
 21
369.674
  0
LINE
  8
Layer2
  6
CONTINUOUS
 62
7
 10
548.264
 20
391.674
 11
452.264
 21
391.674
  0
LINE
  8
Layer2
  6
CONTINUOUS
 62
7
 10
646.264
 20
482.674
 11
655.664
 21
482.674
  0
LINE
  8
Layer2
  6
CONTINUOUS
 62
7
 10
646.264
 20
466.674
 11
655.664
 21
466.674
  0
LINE
  8
Layer2
  6
CONTINUOUS
 62
7
 10
655.664
 20
482.674
 11
655.664
 21
466.674
  0
LINE
  8
Layer2
  6
CONTINUOUS
 62
7
 10
656.264
 20
482.074
 11
656.264
 21
467.274
  0
LINE
  8
Layer2
  6
CONTINUOUS
 62
7
 10
655.664
 20
482.674
 11
656.264
 21
482.074
  0
LINE
  8
Layer2
  6
CONTINUOUS
 62
7
 10
655.664
 20
466.674
 11
656.264
 21
467.274
  0
LINE
  8
Layer2
  6
CONTINUOUS
 62
7
 10
646.264
 20
466.674
 11
646.264
 21
482.674
  0
LINE
  8
Layer2
  6
CONTINUOUS
 62
7
 10
655.077
 20
481.674
 11
646.851
 21
481.674
  0
LINE
  8
Layer2
  6
CONTINUOUS
 62
7
 10
654.489
 20
480.674
 11
647.438
 21
480.674
  0
LINE
  8
Layer2
  6
CONTINUOUS
 62
7
 10
653.902
 20
479.674
 11
648.027
 21
479.674
  0
LINE
  8
Layer2
  6
CONTINUOUS
 62
7
 10
653.313
 20
478.674
 11
648.614
 21
478.674
  0
LINE
  8
Layer2
  6
CONTINUOUS
 62
7
 10
652.726
 20
477.674
 11
649.202
 21
477.674
  0
LINE
  8
Layer2
  6
CONTINUOUS
 62
7
 10
652.139
 20
476.674
 11
649.789
 21
476.674
  0
LINE
  8
Layer2
  6
CENTER1
 62
7
 10
420.251
 20
455.174
 11
457.803
 21
455.174
  0
LINE
  8
Layer2
  6
CONTINUOUS
 62
7
 10
423.264
 20
463.674
 11
444.264
 21
463.674
  0
LINE
  8
Layer2
  6
CONTINUOUS
 62
7
 10
423.264
 20
413.674
 11
444.264
 21
413.674
  0
LINE
  8
Layer2
  6
CONTINUOUS
 62
7
 10
448.764
 20
463.674
 11
446.264
 21
463.674
  0
LINE
  8
Layer2
  6
CONTINUOUS
 62
7
 10
448.764
 20
413.674
 11
446.264
 21
413.674
  0
LINE
  8
Layer2
  6
CONTINUOUS
 62
7
 10
446.264
 20
463.674
 11
445.264
 21
462.674
  0
LINE
  8
Layer2
  6
CONTINUOUS
 62
7
 10
445.264
 20
462.674
 11
444.264
 21
463.674
  0
LINE
  8
Layer2
  6
CONTINUOUS
 62
7
 10
445.264
 20
414.674
 11
446.264
 21
413.674
  0
LINE
  8
Layer2
  6
CONTINUOUS
 62
7
 10
445.264
 20
414.674
 11
444.264
 21
413.674
  0
LINE
  8
Layer2
  6
CONTINUOUS
 62
7
 10
423.264
 20
413.674
 11
422.264
 21
414.674
  0
LINE
  8
Layer2
  6
CONTINUOUS
 62
7
 10
422.264
 20
462.674
 11
423.264
 21
463.674
  0
LINE
  8
Layer2
  6
CENTER1
 62
7
 10
419.103
 20
422.174
 11
455.802
 21
422.174
  0
LINE
  8
Layer2
  6
CENTER1
 62
7
 10
416.89
 20
438.674
 11
653.602
 21
438.674
  0
LINE
  8
Layer2
  6
CONTINUOUS
 62
7
 10
630.264
 20
486.174
 11
552.264
 21
486.174
  0
LINE
  8
Layer2
  6
CONTINUOUS
 62
7
 10
552.264
 20
391.174
 11
630.264
 21
391.174
  0
LINE
  8
Layer2
  6
CONTINUOUS
 62
7
 10
631.264
 20
505.674
 11
631.264
 21
392.174
  0
LINE
  8
Layer2
  6
CONTINUOUS
 62
7
 10
551.264
 20
485.174
 11
552.264
 21
486.174
  0
LINE
  8
Layer2
  6
CONTINUOUS
 62
7
 10
630.264
 20
486.174
 11
631.264
 21
485.174
  0
LINE
  8
Layer2
  6
CONTINUOUS
 62
7
 10
631.264
 20
392.174
 11
630.264
 21
391.174
  0
LINE
  8
Layer2
  6
CONTINUOUS
 62
7
 10
551.264
 20
392.174
 11
552.264
 21
391.174
  0
LINE
  8
Layer2
  6
DASHED1
 62
7
 10
451.264
 20
463.674
 11
631.264
 21
463.674
  0
LINE
  8
Layer2
  6
DASHED1
 62
7
 10
451.264
 20
413.674
 11
631.264
 21
413.674
  0
LINE
  8
Layer2
  6
CENTER1
 62
7
 10
616.264
 20
463.674
 11
616.264
 21
486.267
  0
LINE
  8
Layer2
  6
CENTER1
 62
7
 10
538.264
 20
395.305
 11
538.264
 21
411.642
  0
LINE
  8
Layer2
  6
CENTER1
 62
7
 10
538.264
 20
467.276
 11
538.264
 21
486.174
  0
LINE
  8
Layer2
  6
CENTER1
 62
7
 10
500.264
 20
467.276
 11
500.264
 21
486.174
  0
LINE
  8
Layer2
  6
CENTER1
 62
7
 10
462.264
 20
467.276
 11
462.264
 21
486.174
  0
LINE
  8
Layer2
  6
CENTER1
 62
7
 10
500.264
 20
395.305
 11
500.264
 21
411.642
  0
LINE
  8
Layer2
  6
CENTER1
 62
7
 10
462.264
 20
395.305
 11
462.264
 21
411.642
  0
LINE
  8
Layer2
  6
CENTER1
 62
7
 10
453.889
 20
474.674
 11
470.666
 21
474.674
  0
LINE
  8
Layer2
  6
CENTER1
 62
7
 10
491.418
 20
474.674
 11
510.406
 21
474.674
  0
LINE
  8
Layer2
  6
CENTER1
 62
7
 10
528.067
 20
474.674
 11
546.169
 21
474.674
  0
LINE
  8
Layer2
  6
CENTER1
 62
7
 10
556.298
 20
474.674
 11
581.793
 21
474.674
  0
LINE
  8
Layer2
  6
CENTER1
 62
7
 10
451.264
 20
402.674
 11
470.666
 21
402.674
  0
LINE
  8
Layer2
  6
CENTER1
 62
7
 10
492.743
 20
402.674
 11
509.964
 21
402.674
  0
LINE
  8
Layer2
  6
CENTER1
 62
7
 10
531.6
 20
402.674
 11
544.404
 21
402.674
  0
LINE
  8
Layer2
  6
CENTER1
 62
7
 10
554.255
 20
402.674
 11
578.269
 21
402.674
  0
CIRCLE
  8
Layer2
  6
CONTINUOUS
 62
7
 10
462.277
 20
474.674
 40
6.5
  0
POLYLINE
  8
Layer2
  6
CONTINUOUS
 62
7
 66
1
 10
0
 20
0
 30
0
 70
1
  0
VERTEX
  8
Layer2
 10
459.307
 20
472.959
  0
VERTEX
  8
Layer2
 10
462.277
 20
471.244
  0
VERTEX
  8
Layer2
 10
465.248
 20
472.959
  0
VERTEX
  8
Layer2
 10
465.248
 20
476.389
  0
VERTEX
  8
Layer2
 10
462.277
 20
478.104
  0
VERTEX
  8
Layer2
 10
459.307
 20
476.389
  0
SEQEND
  0
CIRCLE
  8
Layer2
  6
CONTINUOUS
 62
7
 10
500.264
 20
474.674
 40
6.5
  0
POLYLINE
  8
Layer2
  6
CONTINUOUS
 62
7
 66
1
 10
0
 20
0
 30
0
 70
1
  0
VERTEX
  8
Layer2
 10
497.293
 20
472.959
  0
VERTEX
  8
Layer2
 10
500.264
 20
471.244
  0
VERTEX
  8
Layer2
 10
503.235
 20
472.959
  0
VERTEX
  8
Layer2
 10
503.235
 20
476.389
  0
VERTEX
  8
Layer2
 10
500.264
 20
478.104
  0
VERTEX
  8
Layer2
 10
497.293
 20
476.389
  0
SEQEND
  0
CIRCLE
  8
Layer2
  6
CONTINUOUS
 62
7
 10
538.264
 20
474.674
 40
6.5
  0
POLYLINE
  8
Layer2
  6
CONTINUOUS
 62
7
 66
1
 10
0
 20
0
 30
0
 70
1
  0
VERTEX
  8
Layer2
 10
535.293
 20
472.959
  0
VERTEX
  8
Layer2
 10
538.264
 20
471.244
  0
VERTEX
  8
Layer2
 10
541.235
 20
472.959
  0
VERTEX
  8
Layer2
 10
541.235
 20
476.389
  0
VERTEX
  8
Layer2
 10
538.264
 20
478.104
  0
VERTEX
  8
Layer2
 10
535.293
 20
476.389
  0
SEQEND
  0
CIRCLE
  8
Layer2
  6
CONTINUOUS
 62
7
 10
462.264
 20
402.674
 40
6.5
  0
POLYLINE
  8
Layer2
  6
CONTINUOUS
 62
7
 66
1
 10
0
 20
0
 30
0
 70
1
  0
VERTEX
  8
Layer2
 10
459.293
 20
400.959
  0
VERTEX
  8
Layer2
 10
462.264
 20
399.244
  0
VERTEX
  8
Layer2
 10
465.235
 20
400.959
  0
VERTEX
  8
Layer2
 10
465.235
 20
404.389
  0
VERTEX
  8
Layer2
 10
462.264
 20
406.104
  0
VERTEX
  8
Layer2
 10
459.293
 20
404.389
  0
SEQEND
  0
CIRCLE
  8
Layer2
  6
CONTINUOUS
 62
7
 10
500.264
 20
402.674
 40
6.5
  0
POLYLINE
  8
Layer2
  6
CONTINUOUS
 62
7
 66
1
 10
0
 20
0
 30
0
 70
1
  0
VERTEX
  8
Layer2
 10
497.293
 20
400.959
  0
VERTEX
  8
Layer2
 10
500.264
 20
399.244
  0
VERTEX
  8
Layer2
 10
503.235
 20
400.959
  0
VERTEX
  8
Layer2
 10
503.235
 20
404.389
  0
VERTEX
  8
Layer2
 10
500.264
 20
406.104
  0
VERTEX
  8
Layer2
 10
497.293
 20
404.389
  0
SEQEND
  0
CIRCLE
  8
Layer2
  6
CONTINUOUS
 62
7
 10
538.264
 20
402.674
 40
6.5
  0
POLYLINE
  8
Layer2
  6
CONTINUOUS
 62
7
 66
1
 10
0
 20
0
 30
0
 70
1
  0
VERTEX
  8
Layer2
 10
535.293
 20
400.959
  0
VERTEX
  8
Layer2
 10
538.264
 20
399.244
  0
VERTEX
  8
Layer2
 10
541.235
 20
400.959
  0
VERTEX
  8
Layer2
 10
541.235
 20
404.389
  0
VERTEX
  8
Layer2
 10
538.264
 20
406.104
  0
VERTEX
  8
Layer2
 10
535.293
 20
404.389
  0
SEQEND
  0
LINE
  8
Layer2
  6
CENTER1
 62
7
 10
471.264
 20
516.247
 11
471.264
 21
484.518
  0
LINE
  8
Layer2
  6
CENTER1
 62
7
 10
541.264
 20
515.454
 11
541.264
 21
484.121
  0
LINE
  8
Layer2
  6
CENTER1
 62
7
 10
471.264
 20
391.174
 11
471.264
 21
365.967
  0
LINE
  8
Layer2
  6
CENTER1
 62
7
 10
541.264
 20
391.174
 11
541.264
 21
366.904
  0
LINE
  8
Layer2
  6
CENTER1
 62
7
 10
616.264
 20
394.1
 11
616.264
 21
411.249
  0
LINE
  8
Layer2
  6
CENTER1
 62
7
 10
528.779
 20
496.674
 11
553.221
 21
496.674
  0
LINE
  8
Layer2
  6
CENTER1
 62
7
 10
598.074
 20
496.674
 11
621.99
 21
496.674
  0
LINE
  8
Layer2
  6
CENTER1
 62
7
 10
600.587
 20
380.674
 11
621.99
 21
380.674
  0
LINE
  8
Layer2
  6
CENTER1
 62
7
 10
531.817
 20
380.674
 11
550.842
 21
380.674
  0
LINE
  8
Layer2
  6
CENTER1
 62
7
 10
458.921
 20
380.674
 11
483.453
 21
380.674
  0
LINE
  8
Layer2
  6
CENTER1
 62
7
 10
460.471
 20
496.674
 11
483.461
 21
496.674
  0
LINE
  8
Layer2
  6
CENTER1
 62
7
 10
611.264
 20
513.056
 11
611.264
 21
486.174
  0
LINE
  8
Layer2
  6
CENTER1
 62
7
 10
611.264
 20
391.174
 11
611.264
 21
363.457
  0
LINE
  8
Layer2
  6
CENTER1
 62
7
 10
566.264
 20
394.1
 11
566.264
 21
411.249
  0
LINE
  8
Layer2
  6
CENTER1
 62
7
 10
566.264
 20
463.674
 11
566.264
 21
486.267
  0
CIRCLE
  8
Layer2
  6
CONTINUOUS
 62
7
 10
471.264
 20
496.674
 40
5.5
  0
CIRCLE
  8
Layer2
  6
CONTINUOUS
 62
7
 10
471.264
 20
496.674
 40
8.5
  0
CIRCLE
  8
Layer2
  6
CONTINUOUS
 62
7
 10
541.264
 20
496.674
 40
5.5
  0
CIRCLE
  8
Layer2
  6
CONTINUOUS
 62
7
 10
541.264
 20
496.674
 40
8.5
  0
CIRCLE
  8
Layer2
  6
CONTINUOUS
 62
7
 10
611.264
 20
496.674
 40
5.5
  0
CIRCLE
  8
Layer2
  6
CONTINUOUS
 62
7
 10
611.264
 20
496.674
 40
8.5
  0
CIRCLE
  8
Layer2
  6
CONTINUOUS
 62
7
 10
611.264
 20
380.674
 40
5.5
  0
CIRCLE
  8
Layer2
  6
CONTINUOUS
 62
7
 10
611.264
 20
380.674
 40
8.5
  0
CIRCLE
  8
Layer2
  6
CONTINUOUS
 62
7
 10
541.264
 20
380.674
 40
5.5
  0
CIRCLE
  8
Layer2
  6
CONTINUOUS
 62
7
 10
541.264
 20
380.674
 40
8.5
  0
CIRCLE
  8
Layer2
  6
CONTINUOUS
 62
7
 10
471.173
 20
380.674
 40
5.5
  0
CIRCLE
  8
Layer2
  6
CONTINUOUS
 62
7
 10
471.173
 20
380.674
 40
8.5
  0
CIRCLE
  8
Layer2
  6
CONTINUOUS
 62
7
 10
616.264
 20
474.674
 40
5.5
  0
CIRCLE
  8
Layer2
  6
DASHED1
 62
7
 10
616.264
 20
474.674
 40
8.5
  0
CIRCLE
  8
Layer2
  6
CONTINUOUS
 62
7
 10
566.264
 20
474.674
 40
5.5
  0
CIRCLE
  8
Layer2
  6
DASHED1
 62
7
 10
566.264
 20
474.674
 40
8.5
  0
CIRCLE
  8
Layer2
  6
CONTINUOUS
 62
7
 10
616.264
 20
402.674
 40
5.5
  0
CIRCLE
  8
Layer2
  6
DASHED1
 62
7
 10
616.264
 20
402.674
 40
8.5
  0
CIRCLE
  8
Layer2
  6
CONTINUOUS
 62
7
 10
566.264
 20
402.674
 40
5.5
  0
CIRCLE
  8
Layer2
  6
DASHED1
 62
7
 10
566.264
 20
402.674
 40
8.5
  0
LINE
  8
Layer2
  6
CENTER1
 62
7
 10
603.322
 20
402.674
 11
628.375
 21
402.674
  0
LINE
  8
Layer2
  6
CENTER1
 62
7
 10
603.01
 20
474.674
 11
629.516
 21
474.674
  0
LINE
  8
Layer2
  6
CONTINUOUS
 62
7
 10
645.264
 20
486.174
 11
632.264
 21
486.174
  0
LINE
  8
Layer2
  6
CONTINUOUS
 62
7
 10
632.264
 20
391.174
 11
645.264
 21
391.174
  0
LINE
  8
Layer2
  6
CONTINUOUS
 62
7
 10
631.264
 20
485.174
 11
632.264
 21
486.174
  0
LINE
  8
Layer2
  6
CONTINUOUS
 62
7
 10
645.264
 20
486.174
 11
646.264
 21
485.174
  0
LINE
  8
Layer2
  6
CONTINUOUS
 62
7
 10
646.264
 20
392.174
 11
645.264
 21
391.174
  0
LINE
  8
Layer2
  6
CONTINUOUS
 62
7
 10
632.264
 20
391.174
 11
631.264
 21
392.174
  0
LINE
  8
Layer2
  6
CENTER1
 62
7
 10
628.739
 20
474.674
 11
662.506
 21
474.674
  0
LINE
  8
Layer2
  6
CENTER1
 62
7
 10
628.375
 20
402.674
 11
661.779
 21
402.674
  0
LINE
  8
Layer2
  6
CONTINUOUS
 62
7
 10
646.264
 20
410.674
 11
655.664
 21
410.674
  0
LINE
  8
Layer2
  6
CONTINUOUS
 62
7
 10
646.264
 20
394.674
 11
655.664
 21
394.674
  0
LINE
  8
Layer2
  6
CONTINUOUS
 62
7
 10
655.664
 20
410.674
 11
655.664
 21
394.674
  0
LINE
  8
Layer2
  6
CONTINUOUS
 62
7
 10
656.264
 20
410.074
 11
656.264
 21
395.274
  0
LINE
  8
Layer2
  6
CONTINUOUS
 62
7
 10
655.664
 20
410.674
 11
656.264
 21
410.074
  0
LINE
  8
Layer2
  6
CONTINUOUS
 62
7
 10
655.664
 20
394.674
 11
656.264
 21
395.274
  0
LINE
  8
Layer2
  6
CONTINUOUS
 62
7
 10
646.264
 20
394.674
 11
646.264
 21
410.674
  0
LINE
  8
Layer2
  6
CONTINUOUS
 62
7
 10
655.077
 20
409.674
 11
646.851
 21
409.674
  0
LINE
  8
Layer2
  6
CONTINUOUS
 62
7
 10
654.489
 20
408.674
 11
647.438
 21
408.674
  0
LINE
  8
Layer2
  6
CONTINUOUS
 62
7
 10
653.902
 20
407.674
 11
648.027
 21
407.674
  0
LINE
  8
Layer2
  6
CONTINUOUS
 62
7
 10
653.313
 20
406.674
 11
648.614
 21
406.674
  0
LINE
  8
Layer2
  6
CONTINUOUS
 62
7
 10
652.726
 20
405.674
 11
649.202
 21
405.674
  0
LINE
  8
Layer2
  6
CONTINUOUS
 62
7
 10
652.139
 20
404.674
 11
649.789
 21
404.674
  0
LINE
  8
Layer2
  6
CONTINUOUS
 62
7
 10
631.264
 20
505.674
 11
629.264
 21
507.674
  0
LINE
  8
Layer2
  6
CONTINUOUS
 62
7
 10
631.264
 20
371.674
 11
629.264
 21
369.674
  0
LINE
  8
Layer2
  6
CONTINUOUS
 62
7
 10
451.264
 20
371.674
 11
453.264
 21
369.674
  0
LINE
  8
Layer2
  6
CONTINUOUS
 62
7
 10
451.264
 20
505.674
 11
453.264
 21
507.674
  0
LINE
  8
Layer2
  6
CENTER1
 62
7
 10
500.264
 20
448.168
 11
500.264
 21
428.854
  0
CIRCLE
  8
Layer2
  6
CONTINUOUS
 62
7
 10
500.264
 20
438.674
 40
3.76681
  0
ARC
  8
Layer2
  6
CONTINUOUS
 62
7
 10
495.791
 20
438.709
 40
1
 50
140.711
 51
225
  0
LINE
  8
Layer2
  6
CONTINUOUS
 62
7
 10
504.774
 20
440.318
 11
507.038
 21
440.318
  0
LINE
  8
Layer2
  6
CONTINUOUS
 62
7
 10
504.774
 20
436.833
 11
507.038
 21
436.833
  0
LINE
  8
Layer2
  6
CONTINUOUS
 62
7
 10
507.038
 20
440.318
 11
507.038
 21
436.833
  0
ARC
  8
Layer2
  6
CONTINUOUS
 62
7
 10
500.264
 20
438.674
 40
4.80058
 50
20.031
 51
140.098
  0
ARC
  8
Layer2
  6
CONTINUOUS
 62
7
 10
500.264
 20
438.674
 40
4.80058
 50
218.056
 51
337.793
  0
ARC
  8
Layer2
  6
CONTINUOUS
 62
7
 10
487.372
 20
431.424
 40
10.1292
 50
24.1178
 51
40.4581
  0
ARC
  8
Layer2
  6
CONTINUOUS
 62
7
 10
487.31
 20
445.915
 40
10.1292
 50
319.542
 51
335.882
  0
ARC
  8
Layer2
  6
CONTINUOUS
 62
7
 10
505.906
 20
440.318
 40
0.542282
 50
0
 51
180
  0
ARC
  8
Layer2
  6
CONTINUOUS
 62
7
 10
505.906
 20
436.833
 40
0.657613
 50
180
 51
2.03555e-013
  0
LINE
  8
Layer2
  6
CONTINUOUS
 62
7
 10
549.264
 20
484.674
 11
548.264
 21
485.674
  0
LINE
  8
Layer2
  6
CONTINUOUS
 62
7
 10
452.264
 20
485.674
 11
451.264
 21
484.674
  0
LINE
  8
Layer2
  6
CONTINUOUS
 62
7
 10
451.264
 20
392.674
 11
452.264
 21
391.674
  0
LINE
  8
Layer2
  6
CONTINUOUS
 62
7
 10
548.264
 20
391.674
 11
549.264
 21
392.674
  0
LINE
  8
Layer2
  6
CONTINUOUS
 62
7
 10
503.264
 20
199.129
 11
504.264
 21
200.129
  0
TEXT
  8
Layer2
 62
7
 10
727.424
 20
181.929
 72
1
 11
727.424
 21
181.929
 40
6
 41
1
 50
90
  1
 190.6(オープンハイト）
  0
LINE
  8
Layer2
  6
CONTINUOUS
 62
7
 10
642.264
 20
86.6292
 11
730.424
 21
86.6292
  0
LINE
  8
Layer2
  6
CONTINUOUS
 62
7
 10
630.264
 20
277.229
 11
730.424
 21
277.229
  0
POLYLINE
  8
Layer2
  6
CONTINUOUS
 62
7
 66
1
 10
0
 20
0
 30
0
  0
VERTEX
  8
Layer2
 10
728.424
 20
86.6292
  0
VERTEX
  8
Layer2
 10
728.424
 20
277.229
  0
SEQEND
  0
POLYLINE
  8
Layer2
  6
CONTINUOUS
 62
7
 66
1
 10
0
 20
0
 30
0
 70
1
  0
VERTEX
  8
Layer2
 10
729.46
 20
90.4929
  0
VERTEX
  8
Layer2
 10
728.424
 20
86.6292
  0
VERTEX
  8
Layer2
 10
727.39
 20
90.4929
  0
SEQEND
  0
POLYLINE
  8
Layer2
  6
CONTINUOUS
 62
7
 66
1
 10
0
 20
0
 30
0
 70
1
  0
VERTEX
  8
Layer2
 10
727.39
 20
273.365
  0
VERTEX
  8
Layer2
 10
728.424
 20
277.229
  0
VERTEX
  8
Layer2
 10
729.46
 20
273.365
  0
SEQEND
  0
POLYLINE
  8
Layer2
  6
CONTINUOUS
 62
7
 66
1
 10
0
 20
0
 30
0
  0
VERTEX
  8
Layer2
 10
729.202
 20
89.5262
  0
VERTEX
  8
Layer2
 10
728.424
 20
86.6292
  0
VERTEX
  8
Layer2
 10
727.649
 20
89.5262
  0
SEQEND
  0
TEXT
  8
Layer2
 62
7
 10
708.092
 20
158.129
 72
1
 11
708.092
 21
158.129
 40
6
 41
1
 50
90
  1
 143(シャットハイト） 
  0
LINE
  8
Layer2
  6
CONTINUOUS
 62
7
 10
633.759
 20
229.629
 11
711.092
 21
229.629
  0
LINE
  8
Layer2
  6
CONTINUOUS
 62
7
 10
634.967
 20
86.6292
 11
711.092
 21
86.6292
  0
POLYLINE
  8
Layer2
  6
CONTINUOUS
 62
7
 66
1
 10
0
 20
0
 30
0
  0
VERTEX
  8
Layer2
 10
709.092
 20
229.629
  0
VERTEX
  8
Layer2
 10
709.092
 20
86.6292
  0
SEQEND
  0
POLYLINE
  8
Layer2
  6
CONTINUOUS
 62
7
 66
1
 10
0
 20
0
 30
0
 70
1
  0
VERTEX
  8
Layer2
 10
708.057
 20
225.765
  0
VERTEX
  8
Layer2
 10
709.092
 20
229.629
  0
VERTEX
  8
Layer2
 10
710.126
 20
225.765
  0
SEQEND
  0
POLYLINE
  8
Layer2
  6
CONTINUOUS
 62
7
 66
1
 10
0
 20
0
 30
0
 70
1
  0
VERTEX
  8
Layer2
 10
710.126
 20
90.4929
  0
VERTEX
  8
Layer2
 10
709.092
 20
86.6292
  0
VERTEX
  8
Layer2
 10
708.057
 20
90.4929
  0
SEQEND
  0
POLYLINE
  8
Layer2
  6
CONTINUOUS
 62
7
 66
1
 10
0
 20
0
 30
0
  0
VERTEX
  8
Layer2
 10
709.867
 20
89.5262
  0
VERTEX
  8
Layer2
 10
709.092
 20
86.6292
  0
VERTEX
  8
Layer2
 10
708.316
 20
89.5262
  0
SEQEND
  0
LINE
  8
Layer2
  6
CONTINUOUS
 62
7
 10
624.967
 20
86.6292
 11
682.967
 21
86.6292
  0
LINE
  8
Layer2
  6
DASHED1
 62
7
 10
631.264
 20
123.629
 11
646.269
 21
123.629
  0
LINE
  8
Layer2
  6
DASHED1
 62
7
 10
631.264
 20
115.629
 11
646.266
 21
115.629
  0
LINE
  8
Layer2
  6
CENTER1
 62
7
 10
628.386
 20
119.629
 11
659.616
 21
119.629
  0
LINE
  8
Layer2
  6
CENTER1
 62
7
 10
652.872
 20
147.629
 11
626.894
 21
147.629
  0
LINE
  8
Layer2
  6
CENTER1
 62
7
 10
625.384
 20
175.629
 11
655.289
 21
175.629
  0
TEXT
  8
Layer2
 62
7
 10
457.109
 20
222.315
 72
1
 11
457.109
 21
222.315
 40
6
 41
1
  1
4.5
  0
LINE
  8
Layer2
  6
CONTINUOUS
 62
7
 10
445.264
 20
183.379
 11
445.264
 21
223.229
  0
LINE
  8
Layer2
  6
CONTINUOUS
 62
7
 10
449.764
 20
183.129
 11
449.764
 21
224.11
  0
POLYLINE
  8
Layer2
  6
CONTINUOUS
 62
7
 66
1
 10
0
 20
0
 30
0
  0
VERTEX
  8
Layer2
 10
445.264
 20
221.229
  0
VERTEX
  8
Layer2
 10
449.764
 20
221.229
  0
SEQEND
  0
TEXT
  8
Layer2
 62
7
 10
435.127
 20
221.694
 72
1
 11
435.127
 21
221.694
 40
6
 41
1
  1
 23 
  0
LINE
  8
Layer2
  6
CONTINUOUS
 62
7
 10
422.264
 20
181.541
 11
422.264
 21
223.229
  0
POLYLINE
  8
Layer2
  6
CONTINUOUS
 62
7
 66
1
 10
0
 20
0
 30
0
  0
VERTEX
  8
Layer2
 10
422.264
 20
221.229
  0
VERTEX
  8
Layer2
 10
445.264
 20
221.229
  0
SEQEND
  0
POLYLINE
  8
Layer2
  6
CONTINUOUS
 62
7
 66
1
 10
0
 20
0
 30
0
  0
VERTEX
  8
Layer2
 10
425.161
 20
220.452
  0
VERTEX
  8
Layer2
 10
422.264
 20
221.229
  0
VERTEX
  8
Layer2
 10
425.161
 20
222.005
  0
SEQEND
  0
POLYLINE
  8
Layer2
  6
CONTINUOUS
 62
7
 66
1
 10
0
 20
0
 30
0
  0
VERTEX
  8
Layer2
 10
442.366
 20
222.005
  0
VERTEX
  8
Layer2
 10
445.264
 20
221.229
  0
VERTEX
  8
Layer2
 10
442.366
 20
220.452
  0
SEQEND
  0
TEXT
  8
Layer2
 62
7
 10
591.264
 20
324.751
 72
1
 11
591.264
 21
324.751
 40
6
 41
1
  1
 80 
  0
LINE
  8
Layer2
  6
CONTINUOUS
 62
7
 10
551.264
 20
390.174
 11
551.264
 21
321.751
  0
LINE
  8
Layer2
  6
CONTINUOUS
 62
7
 10
631.264
 20
376.126
 11
631.264
 21
321.751
  0
POLYLINE
  8
Layer2
  6
CONTINUOUS
 62
7
 66
1
 10
0
 20
0
 30
0
  0
VERTEX
  8
Layer2
 10
551.264
 20
323.751
  0
VERTEX
  8
Layer2
 10
631.264
 20
323.751
  0
SEQEND
  0
POLYLINE
  8
Layer2
  6
CONTINUOUS
 62
7
 66
1
 10
0
 20
0
 30
0
  0
VERTEX
  8
Layer2
 10
554.162
 20
322.975
  0
VERTEX
  8
Layer2
 10
551.264
 20
323.751
  0
VERTEX
  8
Layer2
 10
554.162
 20
324.528
  0
SEQEND
  0
POLYLINE
  8
Layer2
  6
CONTINUOUS
 62
7
 66
1
 10
0
 20
0
 30
0
  0
VERTEX
  8
Layer2
 10
628.366
 20
324.528
  0
VERTEX
  8
Layer2
 10
631.264
 20
323.751
  0
VERTEX
  8
Layer2
 10
628.366
 20
322.975
  0
SEQEND
  0
TEXT
  8
Layer2
 62
7
 10
558.764
 20
340.46
 72
1
 11
558.764
 21
340.46
 40
6
 41
1
  1
 15 
  0
LINE
  8
Layer2
  6
CONTINUOUS
 62
7
 10
616.264
 20
392.1
 11
616.264
 21
337.46
  0
POLYLINE
  8
Layer2
  6
CONTINUOUS
 62
7
 66
1
 10
0
 20
0
 30
0
  0
VERTEX
  8
Layer2
 10
551.264
 20
339.46
  0
VERTEX
  8
Layer2
 10
566.264
 20
339.46
  0
SEQEND
  0
POLYLINE
  8
Layer2
  6
CONTINUOUS
 62
7
 66
1
 10
0
 20
0
 30
0
  0
VERTEX
  8
Layer2
 10
554.162
 20
338.683
  0
VERTEX
  8
Layer2
 10
551.264
 20
339.46
  0
VERTEX
  8
Layer2
 10
554.162
 20
340.236
  0
SEQEND
  0
POLYLINE
  8
Layer2
  6
CONTINUOUS
 62
7
 66
1
 10
0
 20
0
 30
0
  0
VERTEX
  8
Layer2
 10
563.366
 20
340.236
  0
VERTEX
  8
Layer2
 10
566.264
 20
339.46
  0
VERTEX
  8
Layer2
 10
563.366
 20
338.683
  0
SEQEND
  0
TEXT
  8
Layer2
 62
7
 10
591.264
 20
340.46
 72
1
 11
591.264
 21
340.46
 40
6
 41
1
  1
 50 
  0
LINE
  8
Layer2
  6
CONTINUOUS
 62
7
 10
566.264
 20
392.1
 11
566.264
 21
337.46
  0
POLYLINE
  8
Layer2
  6
CONTINUOUS
 62
7
 66
1
 10
0
 20
0
 30
0
  0
VERTEX
  8
Layer2
 10
616.264
 20
339.46
  0
VERTEX
  8
Layer2
 10
566.264
 20
339.46
  0
SEQEND
  0
POLYLINE
  8
Layer2
  6
CONTINUOUS
 62
7
 66
1
 10
0
 20
0
 30
0
  0
VERTEX
  8
Layer2
 10
613.366
 20
340.236
  0
VERTEX
  8
Layer2
 10
616.264
 20
339.46
  0
VERTEX
  8
Layer2
 10
613.366
 20
338.683
  0
SEQEND
  0
POLYLINE
  8
Layer2
  6
CONTINUOUS
 62
7
 66
1
 10
0
 20
0
 30
0
  0
VERTEX
  8
Layer2
 10
569.162
 20
338.683
  0
VERTEX
  8
Layer2
 10
566.264
 20
339.46
  0
VERTEX
  8
Layer2
 10
569.162
 20
340.236
  0
SEQEND
  0
TEXT
  8
Layer2
 62
7
 10
461.264
 20
527.751
 72
1
 11
461.264
 21
527.751
 40
6
 41
1
  1
 20 
  0
LINE
  8
Layer2
  6
CONTINUOUS
 62
7
 10
451.264
 20
500.96
 11
451.264
 21
528.751
  0
LINE
  8
Layer2
  6
CONTINUOUS
 62
7
 10
471.264
 20
509.674
 11
471.264
 21
528.751
  0
POLYLINE
  8
Layer2
  6
CONTINUOUS
 62
7
 66
1
 10
0
 20
0
 30
0
  0
VERTEX
  8
Layer2
 10
451.264
 20
526.751
  0
VERTEX
  8
Layer2
 10
471.264
 20
526.751
  0
SEQEND
  0
POLYLINE
  8
Layer2
  6
CONTINUOUS
 62
7
 66
1
 10
0
 20
0
 30
0
  0
VERTEX
  8
Layer2
 10
454.161
 20
525.975
  0
VERTEX
  8
Layer2
 10
451.264
 20
526.751
  0
VERTEX
  8
Layer2
 10
454.161
 20
527.528
  0
SEQEND
  0
POLYLINE
  8
Layer2
  6
CONTINUOUS
 62
7
 66
1
 10
0
 20
0
 30
0
  0
VERTEX
  8
Layer2
 10
468.366
 20
527.528
  0
VERTEX
  8
Layer2
 10
471.264
 20
526.751
  0
VERTEX
  8
Layer2
 10
468.366
 20
525.975
  0
SEQEND
  0
TEXT
  8
Layer2
 62
7
 10
506.264
 20
527.751
 72
1
 11
506.264
 21
527.751
 40
6
 41
1
  1
 70 
  0
LINE
  8
Layer2
  6
CONTINUOUS
 62
7
 10
541.264
 20
517.454
 11
541.264
 21
528.751
  0
POLYLINE
  8
Layer2
  6
CONTINUOUS
 62
7
 66
1
 10
0
 20
0
 30
0
  0
VERTEX
  8
Layer2
 10
471.264
 20
526.751
  0
VERTEX
  8
Layer2
 10
541.264
 20
526.751
  0
SEQEND
  0
POLYLINE
  8
Layer2
  6
CONTINUOUS
 62
7
 66
1
 10
0
 20
0
 30
0
  0
VERTEX
  8
Layer2
 10
474.161
 20
525.975
  0
VERTEX
  8
Layer2
 10
471.264
 20
526.751
  0
VERTEX
  8
Layer2
 10
474.161
 20
527.528
  0
SEQEND
  0
POLYLINE
  8
Layer2
  6
CONTINUOUS
 62
7
 66
1
 10
0
 20
0
 30
0
  0
VERTEX
  8
Layer2
 10
538.366
 20
527.528
  0
VERTEX
  8
Layer2
 10
541.264
 20
526.751
  0
VERTEX
  8
Layer2
 10
538.366
 20
525.975
  0
SEQEND
  0
TEXT
  8
Layer2
 62
7
 10
576.264
 20
527.751
 72
1
 11
576.264
 21
527.751
 40
6
 41
1
  1
 70 
  0
LINE
  8
Layer2
  6
CONTINUOUS
 62
7
 10
611.264
 20
515.056
 11
611.264
 21
528.751
  0
POLYLINE
  8
Layer2
  6
CONTINUOUS
 62
7
 66
1
 10
0
 20
0
 30
0
  0
VERTEX
  8
Layer2
 10
541.264
 20
526.751
  0
VERTEX
  8
Layer2
 10
611.264
 20
526.751
  0
SEQEND
  0
POLYLINE
  8
Layer2
  6
CONTINUOUS
 62
7
 66
1
 10
0
 20
0
 30
0
  0
VERTEX
  8
Layer2
 10
544.162
 20
525.975
  0
VERTEX
  8
Layer2
 10
541.264
 20
526.751
  0
VERTEX
  8
Layer2
 10
544.162
 20
527.528
  0
SEQEND
  0
POLYLINE
  8
Layer2
  6
CONTINUOUS
 62
7
 66
1
 10
0
 20
0
 30
0
  0
VERTEX
  8
Layer2
 10
608.366
 20
527.528
  0
VERTEX
  8
Layer2
 10
611.264
 20
526.751
  0
VERTEX
  8
Layer2
 10
608.366
 20
525.975
  0
SEQEND
  0
LINE
  8
Layer2
  6
DASHED1
 62
7
 10
218.312
 20
163.229
 11
218.312
 21
174.229
  0
LINE
  8
Layer2
  6
DASHED1
 62
7
 10
202.312
 20
163.229
 11
202.312
 21
174.229
  0
ARC
  8
Layer2
  6
DASHED1
 62
7
 10
210.312
 20
174.229
 40
8
 50
0
 51
180
  0
LINE
  8
Layer2
  6
DASHED1
 62
7
 10
202.312
 20
163.229
 11
201.312
 21
162.229
  0
LINE
  8
Layer2
  6
DASHED1
 62
7
 10
218.312
 20
163.229
 11
219.312
 21
162.229
  0
LINE
  8
Layer2
  6
DASHED1
 62
7
 10
219.312
 20
162.229
 11
233.312
 21
162.229
  0
TEXT
  8
Layer2
 62
7
 10
349.146
 20
143.379
 72
1
 11
349.146
 21
143.379
 40
6
 41
1
 50
90
  1
 113.5 
  0
LINE
  8
Layer2
  6
CONTINUOUS
 62
7
 10
260.812
 20
200.129
 11
355.146
 21
200.129
  0
LINE
  8
Layer2
  6
CONTINUOUS
 62
7
 10
277.255
 20
86.6292
 11
355.146
 21
86.6292
  0
POLYLINE
  8
Layer2
  6
CONTINUOUS
 62
7
 66
1
 10
0
 20
0
 30
0
  0
VERTEX
  8
Layer2
 10
351.146
 20
200.129
  0
VERTEX
  8
Layer2
 10
351.146
 20
86.6292
  0
SEQEND
  0
POLYLINE
  8
Layer2
  6
CONTINUOUS
 62
7
 66
1
 10
0
 20
0
 30
0
 70
1
  0
VERTEX
  8
Layer2
 10
350.111
 20
196.265
  0
VERTEX
  8
Layer2
 10
351.146
 20
200.129
  0
VERTEX
  8
Layer2
 10
352.18
 20
196.265
  0
SEQEND
  0
POLYLINE
  8
Layer2
  6
CONTINUOUS
 62
7
 66
1
 10
0
 20
0
 30
0
 70
1
  0
VERTEX
  8
Layer2
 10
352.18
 20
90.4929
  0
VERTEX
  8
Layer2
 10
351.146
 20
86.6292
  0
VERTEX
  8
Layer2
 10
350.111
 20
90.4929
  0
SEQEND
  0
TEXT
  8
Layer2
 62
7
 10
336.623
 20
146.629
 72
1
 11
336.623
 21
146.629
 40
6
 41
1
 50
90
  1
 75 
  0
LINE
  8
Layer2
  6
CONTINUOUS
 62
7
 10
260.812
 20
184.129
 11
342.623
 21
184.129
  0
LINE
  8
Layer2
  6
CONTINUOUS
 62
7
 10
238.312
 20
109.129
 11
342.623
 21
109.129
  0
POLYLINE
  8
Layer2
  6
CONTINUOUS
 62
7
 66
1
 10
0
 20
0
 30
0
  0
VERTEX
  8
Layer2
 10
338.623
 20
184.129
  0
VERTEX
  8
Layer2
 10
338.623
 20
109.129
  0
SEQEND
  0
POLYLINE
  8
Layer2
  6
CONTINUOUS
 62
7
 66
1
 10
0
 20
0
 30
0
 70
1
  0
VERTEX
  8
Layer2
 10
337.587
 20
180.265
  0
VERTEX
  8
Layer2
 10
338.623
 20
184.129
  0
VERTEX
  8
Layer2
 10
339.658
 20
180.265
  0
SEQEND
  0
POLYLINE
  8
Layer2
  6
CONTINUOUS
 62
7
 66
1
 10
0
 20
0
 30
0
 70
1
  0
VERTEX
  8
Layer2
 10
339.658
 20
112.993
  0
VERTEX
  8
Layer2
 10
338.623
 20
109.129
  0
VERTEX
  8
Layer2
 10
337.587
 20
112.993
  0
SEQEND
  0
TEXT
  8
Layer2
 62
7
 10
324.541
 20
146.629
 72
1
 11
324.541
 21
146.629
 40
6
 41
1
 50
90
  1
 58 
  0
LINE
  8
Layer2
  6
CONTINUOUS
 62
7
 10
244.891
 20
175.629
 11
330.541
 21
175.629
  0
LINE
  8
Layer2
  6
CONTINUOUS
 62
7
 10
244.106
 20
117.629
 11
330.541
 21
117.629
  0
POLYLINE
  8
Layer2
  6
CONTINUOUS
 62
7
 66
1
 10
0
 20
0
 30
0
  0
VERTEX
  8
Layer2
 10
326.541
 20
175.629
  0
VERTEX
  8
Layer2
 10
326.541
 20
117.629
  0
SEQEND
  0
POLYLINE
  8
Layer2
  6
CONTINUOUS
 62
7
 66
1
 10
0
 20
0
 30
0
 70
1
  0
VERTEX
  8
Layer2
 10
325.505
 20
171.765
  0
VERTEX
  8
Layer2
 10
326.541
 20
175.629
  0
VERTEX
  8
Layer2
 10
327.575
 20
171.765
  0
SEQEND
  0
POLYLINE
  8
Layer2
  6
CONTINUOUS
 62
7
 66
1
 10
0
 20
0
 30
0
 70
1
  0
VERTEX
  8
Layer2
 10
327.575
 20
121.493
  0
VERTEX
  8
Layer2
 10
326.541
 20
117.629
  0
VERTEX
  8
Layer2
 10
325.505
 20
121.493
  0
SEQEND
  0
TEXT
  8
Layer2
 62
7
 10
307.248
 20
98.8022
 72
1
 11
307.248
 21
98.8022
 40
6
 41
1
 50
90
  1
 60 
  0
LINE
  8
Layer2
  6
CENTER1
 62
7
 10
193.812
 20
165.546
 11
193.812
 21
159.794
  0
LINE
  8
Layer2
  6
CENTER1
 62
7
 10
191.541
 20
162.629
 11
196.732
 21
162.629
  0
CIRCLE
  8
Layer2
  6
CONTINUOUS
 62
7
 10
193.812
 20
162.629
 40
1.25
  0
LINE
  8
Layer2
  6
CENTER1
 62
7
 10
226.812
 20
133.546
 11
226.812
 21
127.794
  0
LINE
  8
Layer2
  6
CENTER1
 62
7
 10
224.541
 20
130.629
 11
229.732
 21
130.629
  0
CIRCLE
  8
Layer2
  6
CONTINUOUS
 62
7
 10
226.812
 20
130.629
 40
1.25
  0
TEXT
  8
Layer2
 62
7
 10
215.76
 20
124.129
 72
1
 11
215.76
 21
124.129
 40
6
 41
1
 50
90
  1
 13 
  0
LINE
  8
Layer2
  6
CONTINUOUS
 62
7
 10
217.762
 20
117.629
 11
213.76
 21
117.629
  0
LINE
  8
Layer2
  6
CONTINUOUS
 62
7
 10
224.541
 20
130.629
 11
213.76
 21
130.629
  0
POLYLINE
  8
Layer2
  6
CONTINUOUS
 62
7
 66
1
 10
0
 20
0
 30
0
  0
VERTEX
  8
Layer2
 10
217.76
 20
117.629
  0
VERTEX
  8
Layer2
 10
217.76
 20
130.629
  0
SEQEND
  0
POLYLINE
  8
Layer2
  6
CONTINUOUS
 62
7
 66
1
 10
0
 20
0
 30
0
 70
1
  0
VERTEX
  8
Layer2
 10
218.795
 20
121.493
  0
VERTEX
  8
Layer2
 10
217.76
 20
117.629
  0
VERTEX
  8
Layer2
 10
216.724
 20
121.493
  0
SEQEND
  0
POLYLINE
  8
Layer2
  6
CONTINUOUS
 62
7
 66
1
 10
0
 20
0
 30
0
 70
1
  0
VERTEX
  8
Layer2
 10
216.724
 20
126.765
  0
VERTEX
  8
Layer2
 10
217.76
 20
130.629
  0
VERTEX
  8
Layer2
 10
218.795
 20
126.765
  0
SEQEND
  0
LINE
  8
Layer2
  6
CONTINUOUS
 62
7
 10
241.012
 20
146.629
 11
314.43
 21
146.629
  0
LINE
  8
Layer2
  6
CONTINUOUS
 62
7
 10
273.255
 20
86.6292
 11
314.43
 21
86.6292
  0
POLYLINE
  8
Layer2
  6
CONTINUOUS
 62
7
 66
1
 10
0
 20
0
 30
0
  0
VERTEX
  8
Layer2
 10
310.43
 20
146.629
  0
VERTEX
  8
Layer2
 10
310.43
 20
86.6292
  0
SEQEND
  0
POLYLINE
  8
Layer2
  6
CONTINUOUS
 62
7
 66
1
 10
0
 20
0
 30
0
 70
1
  0
VERTEX
  8
Layer2
 10
309.396
 20
142.765
  0
VERTEX
  8
Layer2
 10
310.43
 20
146.629
  0
VERTEX
  8
Layer2
 10
311.466
 20
142.765
  0
SEQEND
  0
POLYLINE
  8
Layer2
  6
CONTINUOUS
 62
7
 66
1
 10
0
 20
0
 30
0
 70
1
  0
VERTEX
  8
Layer2
 10
311.466
 20
90.4929
  0
VERTEX
  8
Layer2
 10
310.43
 20
86.6292
  0
VERTEX
  8
Layer2
 10
309.396
 20
90.4929
  0
SEQEND
  0
TEXT
  8
Layer2
 62
7
 10
306.851
 20
129.427
 72
1
 11
306.851
 21
129.427
 40
6
 41
1
 50
90
  1
(中心間距離）
  0
LINE
  8
Layer2
  6
DASHED1
 62
7
 10
487.264
 20
94.9684
 11
487.264
 21
102.968
  0
LINE
  8
Layer2
  6
DASHED1
 62
7
 10
486.264
 20
103.968
 11
451.264
 21
103.968
  0
LINE
  8
Layer2
  6
DASHED1
 62
7
 10
486.264
 20
93.9684
 11
451.264
 21
93.9684
  0
LINE
  8
Layer2
  6
DASHED1
 62
7
 10
486.264
 20
103.968
 11
487.264
 21
102.968
  0
LINE
  8
Layer2
  6
DASHED1
 62
7
 10
487.264
 20
94.9684
 11
486.264
 21
93.9684
  0
LINE
  8
Layer2
  6
CONTINUOUS
 62
7
 10
544.764
 20
192.129
 11
544.764
 21
199.629
  0
LINE
  8
Layer2
  6
CONTINUOUS
 62
7
 10
531.764
 20
192.129
 11
531.764
 21
199.629
  0
LINE
  8
Layer2
  6
CONTINUOUS
 62
7
 10
544.764
 20
199.629
 11
531.764
 21
199.629
  0
LINE
  8
Layer2
  6
CONTINUOUS
 62
7
 10
544.264
 20
200.129
 11
532.264
 21
200.129
  0
LINE
  8
Layer2
  6
CONTINUOUS
 62
7
 10
544.764
 20
199.629
 11
544.264
 21
200.129
  0
LINE
  8
Layer2
  6
CONTINUOUS
 62
7
 10
531.764
 20
199.629
 11
532.264
 21
200.129
  0
LINE
  8
Layer2
  6
CONTINUOUS
 62
7
 10
531.764
 20
192.129
 11
544.764
 21
192.129
  0
LINE
  8
Layer2
  6
CONTINUOUS
 62
7
 10
532.764
 20
192.706
 11
532.764
 21
199.052
  0
LINE
  8
Layer2
  6
CONTINUOUS
 62
7
 10
533.764
 20
193.283
 11
533.764
 21
198.475
  0
LINE
  8
Layer2
  6
CONTINUOUS
 62
7
 10
534.764
 20
193.86
 11
534.764
 21
197.898
  0
LINE
  8
Layer2
  6
CONTINUOUS
 62
7
 10
535.764
 20
194.437
 11
535.764
 21
197.321
  0
LINE
  8
Layer2
  6
CONTINUOUS
 62
7
 10
496.58
 20
190.129
 11
496.58
 21
170.647
  0
LINE
  8
Layer2
  6
CONTINUOUS
 62
7
 10
493.366
 20
184.129
 11
493.366
 21
174.573
  0
LINE
  8
Layer2
  6
CONTINUOUS
 62
7
 10
493.366
 20
183.129
 11
496.58
 21
183.129
  0
LINE
  8
Layer2
  6
CONTINUOUS
 62
7
 10
646.264
 20
183.629
 11
646.264
 21
167.629
  0
LINE
  8
Layer2
  6
CONTINUOUS
 62
7
 10
646.264
 20
183.629
 11
655.664
 21
183.629
  0
LINE
  8
Layer2
  6
CONTINUOUS
 62
7
 10
646.264
 20
167.629
 11
655.664
 21
167.629
  0
LINE
  8
Layer2
  6
CONTINUOUS
 62
7
 10
655.664
 20
183.629
 11
655.664
 21
167.629
  0
LINE
  8
Layer2
  6
CONTINUOUS
 62
7
 10
656.264
 20
183.029
 11
656.264
 21
168.229
  0
LINE
  8
Layer2
  6
CONTINUOUS
 62
7
 10
655.664
 20
183.629
 11
656.264
 21
183.029
  0
LINE
  8
Layer2
  6
CONTINUOUS
 62
7
 10
655.664
 20
167.629
 11
656.264
 21
168.229
  0
LINE
  8
Layer2
  6
CONTINUOUS
 62
7
 10
646.851
 20
182.629
 11
655.077
 21
182.629
  0
LINE
  8
Layer2
  6
CONTINUOUS
 62
7
 10
647.438
 20
181.629
 11
654.489
 21
181.629
  0
LINE
  8
Layer2
  6
CONTINUOUS
 62
7
 10
648.025
 20
180.629
 11
653.9
 21
180.629
  0
LINE
  8
Layer2
  6
CONTINUOUS
 62
7
 10
648.614
 20
179.629
 11
653.313
 21
179.629
  0
LINE
  8
Layer2
  6
CONTINUOUS
 62
7
 10
649.202
 20
178.629
 11
652.726
 21
178.629
  0
LINE
  8
Layer2
  6
CONTINUOUS
 62
7
 10
649.789
 20
177.629
 11
652.139
 21
177.629
  0
LINE
  8
Layer2
  6
CONTINUOUS
 62
7
 10
646.264
 20
155.629
 11
646.264
 21
139.629
  0
LINE
  8
Layer2
  6
CONTINUOUS
 62
7
 10
646.264
 20
155.629
 11
655.664
 21
155.629
  0
LINE
  8
Layer2
  6
CONTINUOUS
 62
7
 10
646.264
 20
139.629
 11
655.664
 21
139.629
  0
LINE
  8
Layer2
  6
CONTINUOUS
 62
7
 10
655.664
 20
155.629
 11
655.664
 21
139.629
  0
LINE
  8
Layer2
  6
CONTINUOUS
 62
7
 10
656.264
 20
155.029
 11
656.264
 21
140.229
  0
LINE
  8
Layer2
  6
CONTINUOUS
 62
7
 10
655.664
 20
155.629
 11
656.264
 21
155.029
  0
LINE
  8
Layer2
  6
CONTINUOUS
 62
7
 10
655.664
 20
139.629
 11
656.264
 21
140.229
  0
LINE
  8
Layer2
  6
CONTINUOUS
 62
7
 10
646.851
 20
154.629
 11
655.077
 21
154.629
  0
LINE
  8
Layer2
  6
CONTINUOUS
 62
7
 10
647.438
 20
153.629
 11
654.489
 21
153.629
  0
LINE
  8
Layer2
  6
CONTINUOUS
 62
7
 10
648.025
 20
152.629
 11
653.9
 21
152.629
  0
LINE
  8
Layer2
  6
CONTINUOUS
 62
7
 10
648.614
 20
151.629
 11
653.313
 21
151.629
  0
LINE
  8
Layer2
  6
CONTINUOUS
 62
7
 10
649.202
 20
150.629
 11
652.726
 21
150.629
  0
LINE
  8
Layer2
  6
CONTINUOUS
 62
7
 10
649.789
 20
149.629
 11
652.139
 21
149.629
  0
LINE
  8
Layer2
  6
CONTINUOUS
 62
7
 10
612.264
 20
109.133
 11
612.264
 21
86.6292
  0
LINE
  8
Layer2
  6
CONTINUOUS
 62
7
 10
631.264
 20
110.129
 11
630.264
 21
109.129
  0
LINE
  8
Layer2
  6
CONTINUOUS
 62
7
 10
646.264
 20
127.629
 11
646.264
 21
111.629
  0
LINE
  8
Layer2
  6
CONTINUOUS
 62
7
 10
646.264
 20
127.629
 11
655.664
 21
127.629
  0
LINE
  8
Layer2
  6
CONTINUOUS
 62
7
 10
646.264
 20
111.629
 11
655.664
 21
111.629
  0
LINE
  8
Layer2
  6
CONTINUOUS
 62
7
 10
655.664
 20
127.629
 11
655.664
 21
111.629
  0
LINE
  8
Layer2
  6
CONTINUOUS
 62
7
 10
656.264
 20
127.029
 11
656.264
 21
112.229
  0
LINE
  8
Layer2
  6
CONTINUOUS
 62
7
 10
655.664
 20
127.629
 11
656.264
 21
127.029
  0
LINE
  8
Layer2
  6
CONTINUOUS
 62
7
 10
655.664
 20
111.629
 11
656.264
 21
112.229
  0
LINE
  8
Layer2
  6
CONTINUOUS
 62
7
 10
646.851
 20
126.629
 11
655.077
 21
126.629
  0
LINE
  8
Layer2
  6
CONTINUOUS
 62
7
 10
647.438
 20
125.629
 11
654.489
 21
125.629
  0
LINE
  8
Layer2
  6
CONTINUOUS
 62
7
 10
648.025
 20
124.629
 11
653.9
 21
124.629
  0
LINE
  8
Layer2
  6
CONTINUOUS
 62
7
 10
648.614
 20
123.629
 11
653.313
 21
123.629
  0
LINE
  8
Layer2
  6
CONTINUOUS
 62
7
 10
649.202
 20
122.629
 11
652.726
 21
122.629
  0
LINE
  8
Layer2
  6
CONTINUOUS
 62
7
 10
649.789
 20
121.629
 11
652.139
 21
121.629
  0
TEXT
  8
Layer2
 62
7
 10
606.152
 20
202.621
 72
1
 11
606.152
 21
202.621
 40
6
 41
1
 50
20
  1
 40°
  0
ARC
  8
Layer2
  6
CONTINUOUS
 62
7
 10
631.264
 20
133.627
 40
71.4222
 50
90
 51
130
  0
TEXT
  8
Layer2
 62
7
 10
670.343
 20
438.674
 72
1
 11
670.343
 21
438.674
 40
6
 41
1
 50
90
  1
 72 
  0
LINE
  8
Layer2
  6
CONTINUOUS
 62
7
 10
661.779
 20
402.674
 11
676.343
 21
402.674
  0
LINE
  8
Layer2
  6
CONTINUOUS
 62
7
 10
662.506
 20
474.674
 11
676.343
 21
474.674
  0
POLYLINE
  8
Layer2
  6
CONTINUOUS
 62
7
 66
1
 10
0
 20
0
 30
0
  0
VERTEX
  8
Layer2
 10
672.343
 20
402.674
  0
VERTEX
  8
Layer2
 10
672.343
 20
474.674
  0
SEQEND
  0
POLYLINE
  8
Layer2
  6
CONTINUOUS
 62
7
 66
1
 10
0
 20
0
 30
0
 70
1
  0
VERTEX
  8
Layer2
 10
673.379
 20
406.538
  0
VERTEX
  8
Layer2
 10
672.343
 20
402.674
  0
VERTEX
  8
Layer2
 10
671.308
 20
406.538
  0
SEQEND
  0
POLYLINE
  8
Layer2
  6
CONTINUOUS
 62
7
 66
1
 10
0
 20
0
 30
0
 70
1
  0
VERTEX
  8
Layer2
 10
671.308
 20
470.81
  0
VERTEX
  8
Layer2
 10
672.343
 20
474.674
  0
VERTEX
  8
Layer2
 10
673.379
 20
470.81
  0
SEQEND
  0
TEXT
  8
Layer2
 62
7
 10
726.424
 20
438.674
 72
1
 11
726.424
 21
438.674
 40
6
 41
1
 50
90
  1
 138 
  0
LINE
  8
Layer2
  6
CONTINUOUS
 62
7
 10
629.264
 20
507.674
 11
732.424
 21
507.674
  0
LINE
  8
Layer2
  6
CONTINUOUS
 62
7
 10
629.264
 20
369.674
 11
732.424
 21
369.674
  0
POLYLINE
  8
Layer2
  6
CONTINUOUS
 62
7
 66
1
 10
0
 20
0
 30
0
  0
VERTEX
  8
Layer2
 10
728.424
 20
507.674
  0
VERTEX
  8
Layer2
 10
728.424
 20
369.674
  0
SEQEND
  0
POLYLINE
  8
Layer2
  6
CONTINUOUS
 62
7
 66
1
 10
0
 20
0
 30
0
 70
1
  0
VERTEX
  8
Layer2
 10
727.39
 20
503.81
  0
VERTEX
  8
Layer2
 10
728.424
 20
507.674
  0
VERTEX
  8
Layer2
 10
729.46
 20
503.81
  0
SEQEND
  0
POLYLINE
  8
Layer2
  6
CONTINUOUS
 62
7
 66
1
 10
0
 20
0
 30
0
 70
1
  0
VERTEX
  8
Layer2
 10
729.46
 20
373.538
  0
VERTEX
  8
Layer2
 10
728.424
 20
369.674
  0
VERTEX
  8
Layer2
 10
727.39
 20
373.538
  0
SEQEND
  0
TEXT
  8
Layer2
 62
7
 10
713.696
 20
438.674
 72
1
 11
713.696
 21
438.674
 40
6
 41
1
 50
90
  1
 116 
  0
LINE
  8
Layer2
  6
CONTINUOUS
 62
7
 10
621.99
 20
496.674
 11
719.696
 21
496.674
  0
LINE
  8
Layer2
  6
CONTINUOUS
 62
7
 10
621.99
 20
380.674
 11
719.696
 21
380.674
  0
POLYLINE
  8
Layer2
  6
CONTINUOUS
 62
7
 66
1
 10
0
 20
0
 30
0
  0
VERTEX
  8
Layer2
 10
715.696
 20
496.674
  0
VERTEX
  8
Layer2
 10
715.696
 20
380.674
  0
SEQEND
  0
POLYLINE
  8
Layer2
  6
CONTINUOUS
 62
7
 66
1
 10
0
 20
0
 30
0
 70
1
  0
VERTEX
  8
Layer2
 10
714.66
 20
492.81
  0
VERTEX
  8
Layer2
 10
715.696
 20
496.674
  0
VERTEX
  8
Layer2
 10
716.731
 20
492.81
  0
SEQEND
  0
POLYLINE
  8
Layer2
  6
CONTINUOUS
 62
7
 66
1
 10
0
 20
0
 30
0
 70
1
  0
VERTEX
  8
Layer2
 10
716.731
 20
384.538
  0
VERTEX
  8
Layer2
 10
715.696
 20
380.674
  0
VERTEX
  8
Layer2
 10
714.66
 20
384.538
  0
SEQEND
  0
TEXT
  8
Layer2
 62
7
 10
541.264
 20
543.639
 72
1
 11
541.264
 21
543.639
 40
6
 41
1
  1
 180 
  0
LINE
  8
Layer2
  6
CONTINUOUS
 62
7
 10
451.264
 20
505.674
 11
451.264
 21
545.639
  0
LINE
  8
Layer2
  6
CONTINUOUS
 62
7
 10
631.264
 20
505.674
 11
631.264
 21
545.639
  0
POLYLINE
  8
Layer2
  6
CONTINUOUS
 62
7
 66
1
 10
0
 20
0
 30
0
  0
VERTEX
  8
Layer2
 10
451.264
 20
541.639
  0
VERTEX
  8
Layer2
 10
631.264
 20
541.639
  0
SEQEND
  0
POLYLINE
  8
Layer2
  6
CONTINUOUS
 62
7
 66
1
 10
0
 20
0
 30
0
 70
1
  0
VERTEX
  8
Layer2
 10
455.128
 20
540.603
  0
VERTEX
  8
Layer2
 10
451.264
 20
541.639
  0
VERTEX
  8
Layer2
 10
455.128
 20
542.674
  0
SEQEND
  0
POLYLINE
  8
Layer2
  6
CONTINUOUS
 62
7
 66
1
 10
0
 20
0
 30
0
 70
1
  0
VERTEX
  8
Layer2
 10
627.399
 20
542.674
  0
VERTEX
  8
Layer2
 10
631.264
 20
541.639
  0
VERTEX
  8
Layer2
 10
627.399
 20
540.603
  0
SEQEND
  0
LINE
  8
Layer2
  6
PHANTOM1
 62
7
 10
404.264
 20
109.129
 11
383.264
 21
109.129
  0
LINE
  8
Layer2
  6
PHANTOM1
 62
7
 10
405.264
 20
183.129
 11
405.264
 21
110.129
  0
LINE
  8
Layer2
  6
PHANTOM1
 62
7
 10
382.264
 20
110.129
 11
382.264
 21
183.129
  0
LINE
  8
Layer2
  6
PHANTOM1
 62
7
 10
383.264
 20
184.129
 11
404.264
 21
184.129
  0
LINE
  8
Layer2
  6
PHANTOM1
 62
7
 10
405.264
 20
183.129
 11
404.264
 21
184.129
  0
LINE
  8
Layer2
  6
PHANTOM1
 62
7
 10
382.264
 20
110.129
 11
383.264
 21
109.129
  0
LINE
  8
Layer2
  6
PHANTOM1
 62
7
 10
405.264
 20
110.129
 11
404.264
 21
109.129
  0
LINE
  8
Layer2
  6
PHANTOM1
 62
7
 10
382.264
 20
183.129
 11
383.264
 21
184.129
  0
TEXT
  8
Layer2
 62
7
 10
402.264
 20
88.6292
 72
1
 11
402.264
 21
88.6292
 40
6
 41
1
  1
 40ストローク 
  0
LINE
  8
Layer2
  6
CONTINUOUS
 62
7
 10
382.264
 20
110.129
 11
382.264
 21
82.6292
  0
LINE
  8
Layer2
  6
CONTINUOUS
 62
7
 10
422.264
 20
114.279
 11
422.264
 21
82.6292
  0
LINE
  8
Layer2
  6
CONTINUOUS
 62
7
 10
382.264
 20
86.6292
 11
422.264
 21
86.6292
  0
POLYLINE
  8
Layer2
  6
CONTINUOUS
 62
7
 66
1
 10
0
 20
0
 30
0
 70
1
  0
VERTEX
  8
Layer2
 10
386.128
 20
85.5939
  0
VERTEX
  8
Layer2
 10
382.264
 20
86.6292
  0
VERTEX
  8
Layer2
 10
386.128
 20
87.6645
  0
SEQEND
  0
POLYLINE
  8
Layer2
  6
CONTINUOUS
 62
7
 66
1
 10
0
 20
0
 30
0
 70
1
  0
VERTEX
  8
Layer2
 10
418.399
 20
87.6645
  0
VERTEX
  8
Layer2
 10
422.264
 20
86.6292
  0
VERTEX
  8
Layer2
 10
418.399
 20
85.5939
  0
SEQEND
  0
LINE
  8
Layer2
  6
CENTER1
 62
7
 10
152.312
 20
82.7162
 11
152.312
 21
115.627
  0
LINE
  8
Layer2
  6
CENTER1
 62
7
 10
268.312
 20
82.4763
 11
268.312
 21
115.627
  0
POLYLINE
  8
Layer2
  6
CONTINUOUS
 62
7
 66
1
 10
0
 20
0
 30
0
  0
VERTEX
  8
Layer2
 10
227.696
 20
131.513
  0
VERTEX
  8
Layer2
 10
261.774
 20
157.142
  0
VERTEX
  8
Layer2
 10
261.774
 20
157.142
  0
SEQEND
  0
POLYLINE
  8
Layer2
  6
CONTINUOUS
 62
7
 66
1
 10
0
 20
0
 30
0
 70
1
  0
VERTEX
  8
Layer2
 10
231.405
 20
133.008
  0
VERTEX
  8
Layer2
 10
227.696
 20
131.513
  0
VERTEX
  8
Layer2
 10
230.161
 20
134.662
  0
SEQEND
  0
LINE
  8
Layer2
  6
CONTINUOUS
 62
7
 10
261.774
 20
157.142
 11
312.774
 21
157.142
  0
TEXT
  8
Layer2
 62
7
 10
312.774
 20
159.142
 72
2
 11
312.774
 21
159.142
 40
6
 41
1
  1
2-φ2.5センター穴
  0
LINE
  8
Layer2
  6
CENTER1
 62
7
 10
476.264
 20
477.591
 11
476.264
 21
471.839
  0
LINE
  8
Layer2
  6
CENTER1
 62
7
 10
473.993
 20
474.674
 11
479.183
 21
474.674
  0
CIRCLE
  8
Layer2
  6
CONTINUOUS
 62
7
 10
476.264
 20
474.674
 40
1.25
  0
LINE
  8
Layer2
  6
CENTER1
 62
7
 10
524.264
 20
477.591
 11
524.264
 21
471.839
  0
LINE
  8
Layer2
  6
CENTER1
 62
7
 10
521.992
 20
474.674
 11
527.183
 21
474.674
  0
CIRCLE
  8
Layer2
  6
CONTINUOUS
 62
7
 10
524.264
 20
474.674
 40
1.25
  0
LINE
  8
Layer2
  6
CENTER1
 62
7
 10
524.264
 20
405.591
 11
524.264
 21
399.839
  0
LINE
  8
Layer2
  6
CENTER1
 62
7
 10
521.992
 20
402.674
 11
527.183
 21
402.674
  0
CIRCLE
  8
Layer2
  6
CONTINUOUS
 62
7
 10
524.264
 20
402.674
 40
1.25
  0
LINE
  8
Layer2
  6
CENTER1
 62
7
 10
476.264
 20
405.591
 11
476.264
 21
399.839
  0
LINE
  8
Layer2
  6
CENTER1
 62
7
 10
473.993
 20
402.674
 11
479.183
 21
402.674
  0
CIRCLE
  8
Layer2
  6
CONTINUOUS
 62
7
 10
476.264
 20
402.674
 40
1.25
  0
LINE
  8
Layer2
  6
CONTINUOUS
 62
7
 10
531.78
 20
192.129
 11
523.718
 21
184.067
  0
LINE
  8
Layer2
  6
CONTINUOUS
 62
7
 10
531.648
 20
195.996
 11
519.78
 21
184.129
  0
LINE
  8
Layer2
  6
CONTINUOUS
 62
7
 10
531.773
 20
200.12
 11
515.813
 21
184.161
  0
LINE
  8
Layer2
  6
CONTINUOUS
 62
7
 10
527.78
 20
200.129
 11
515.264
 21
187.612
  0
LINE
  8
Layer2
  6
CONTINUOUS
 62
7
 10
549.264
 20
193.502
 11
542.264
 21
186.56
  0
LINE
  8
Layer2
  6
CONTINUOUS
 62
7
 10
534.264
 20
186.612
 11
531.78
 21
184.129
  0
LINE
  8
Layer2
  6
CONTINUOUS
 62
7
 10
534.264
 20
190.27
 11
527.874
 21
184.129
  0
LINE
  8
Layer2
  6
CONTINUOUS
 62
7
 10
549.264
 20
189.521
 11
543.871
 21
184.129
  0
LINE
  8
Layer2
  6
CONTINUOUS
 62
7
 10
549.264
 20
197.521
 11
544.764
 21
193.366
  0
LINE
  8
Layer2
  6
CONTINUOUS
 62
7
 10
548.069
 20
200.327
 11
544.764
 21
197.021
  0
LINE
  8
Layer2
  6
CONTINUOUS
 62
7
 10
451.264
 20
110.28
 11
452.264
 21
109.629
  0
LINE
  8
Layer2
  6
CONTINUOUS
 62
7
 10
451.264
 20
108.629
 11
451.264
 21
87.6292
  0
POLYLINE
  8
Layer2
  6
CONTINUOUS
 62
7
 66
1
 10
0
 20
0
 30
0
  0
VERTEX
  8
Layer2
 10
467.375
 20
500.563
  0
VERTEX
  8
Layer2
 10
440.515
 20
521.254
  0
VERTEX
  8
Layer2
 10
440.515
 20
521.254
  0
SEQEND
  0
POLYLINE
  8
Layer2
  6
CONTINUOUS
 62
7
 66
1
 10
0
 20
0
 30
0
 70
1
  0
VERTEX
  8
Layer2
 10
464.945
 20
503.741
  0
VERTEX
  8
Layer2
 10
467.375
 20
500.563
  0
VERTEX
  8
Layer2
 10
463.682
 20
502.101
  0
SEQEND
  0
LINE
  8
Layer2
  6
CONTINUOUS
 62
7
 10
440.515
 20
521.254
 11
422.515
 21
521.254
  0
TEXT
  8
Layer2
 62
7
 10
422.515
 20
523.254
 40
6
 41
1
  1
6-φ11
  0
TEXT
  8
Layer2
 62
7
 10
412.235
 20
510.018
 40
6
 41
1
  1
ベース取付穴
  0
TEXT
  8
Layer2
 62
7
 10
660.317
 20
515.108
 40
6
 41
1
  1
アッパー取付穴
  0
POLYLINE
  8
Layer2
  6
CONTINUOUS
 62
7
 66
1
 10
0
 20
0
 30
0
  0
VERTEX
  8
Layer2
 10
620.153
 20
478.563
  0
VERTEX
  8
Layer2
 10
664.986
 20
526.053
  0
VERTEX
  8
Layer2
 10
664.986
 20
526.053
  0
SEQEND
  0
POLYLINE
  8
Layer2
  6
CONTINUOUS
 62
7
 66
1
 10
0
 20
0
 30
0
 70
1
  0
VERTEX
  8
Layer2
 10
623.558
 20
480.662
  0
VERTEX
  8
Layer2
 10
620.153
 20
478.563
  0
VERTEX
  8
Layer2
 10
622.053
 20
482.083
  0
SEQEND
  0
LINE
  8
Layer2
  6
CONTINUOUS
 62
7
 10
664.986
 20
526.053
 11
682.986
 21
526.053
  0
TEXT
  8
Layer2
 62
7
 10
682.986
 20
528.053
 72
2
 11
682.986
 21
528.053
 40
6
 41
1
  1
4-φ11
  0
CIRCLE
  8
Layer2
  6
CONTINUOUS
 62
7
 10
210.312
 20
99.1292
 40
4
  0
CIRCLE
  8
Layer2
  6
CONTINUOUS
 62
7
 10
210.312
 20
99.1292
 40
5
  0
LINE
  8
Layer2
  6
DASHED1
 62
7
 10
631.247
 20
122.929
 11
646.266
 21
122.929
  0
LINE
  8
Layer2
  6
DASHED1
 62
7
 10
631.264
 20
116.329
 11
646.274
 21
116.329
  0
LINE
  8
Layer2
  6
DASHED1
 62
7
 10
629.442
 20
132.172
 11
551.264
 21
225.341
  0
LINE
  8
Layer2
  6
CENTER1
 62
7
 10
588.461
 20
160.364
 11
611.914
 21
179.956
  0
LINE
  8
Layer2
  6
CENTER1
 62
7
 10
604.832
 20
150.611
 11
623.268
 21
166.079
  0
LINE
  8
Layer2
  6
CONTINUOUS
 62
7
 10
608.093
 20
185.886
 11
629.442
 21
185.886
  0
LINE
  8
Layer2
  6
DASHED1
 62
7
 10
551.264
 20
242.454
 11
599.048
 21
185.508
  0
LINE
  8
Layer2
  6
DASHED1
 62
7
 10
551.264
 20
256.456
 11
607.145
 21
189.859
  0
LINE
  8
Layer2
  6
CONTINUOUS
 62
7
 10
610.515
 20
184.286
 11
628.606
 21
162.727
  0
LINE
  8
Layer2
  6
DASHED1
 62
7
 10
614.052
 20
150.514
 11
595.318
 21
172.839
  0
LINE
  8
Layer2
  6
CONTINUOUS
 62
7
 10
609.106
 20
184.409
 11
596.851
 21
174.125
  0
POLYLINE
  8
Layer2
  6
CONTINUOUS
 62
7
 66
1
 10
0
 20
0
 30
0
  0
VERTEX
  8
Layer2
 10
594.633
 20
176.767
  0
VERTEX
  8
Layer2
 10
594.699
 20
177.316
  0
VERTEX
  8
Layer2
 10
594.769
 20
177.862
  0
VERTEX
  8
Layer2
 10
594.841
 20
178.404
  0
VERTEX
  8
Layer2
 10
594.919
 20
178.941
  0
VERTEX
  8
Layer2
 10
595.006
 20
179.47
  0
VERTEX
  8
Layer2
 10
595.105
 20
179.989
  0
VERTEX
  8
Layer2
 10
595.213
 20
180.497
  0
VERTEX
  8
Layer2
 10
595.337
 20
180.991
  0
VERTEX
  8
Layer2
 10
595.477
 20
181.469
  0
VERTEX
  8
Layer2
 10
595.636
 20
181.93
  0
VERTEX
  8
Layer2
 10
595.816
 20
182.372
  0
VERTEX
  8
Layer2
 10
596.016
 20
182.793
  0
VERTEX
  8
Layer2
 10
596.242
 20
183.19
  0
VERTEX
  8
Layer2
 10
596.495
 20
183.562
  0
VERTEX
  8
Layer2
 10
596.775
 20
183.907
  0
VERTEX
  8
Layer2
 10
597.086
 20
184.224
  0
VERTEX
  8
Layer2
 10
597.423
 20
184.515
  0
VERTEX
  8
Layer2
 10
597.788
 20
184.785
  0
VERTEX
  8
Layer2
 10
598.176
 20
185.035
  0
VERTEX
  8
Layer2
 10
598.583
 20
185.269
  0
VERTEX
  8
Layer2
 10
599.01
 20
185.49
  0
VERTEX
  8
Layer2
 10
599.453
 20
185.702
  0
VERTEX
  8
Layer2
 10
599.912
 20
185.907
  0
VERTEX
  8
Layer2
 10
600.381
 20
186.109
  0
VERTEX
  8
Layer2
 10
600.861
 20
186.31
  0
VERTEX
  8
Layer2
 10
601.347
 20
186.514
  0
VERTEX
  8
Layer2
 10
601.838
 20
186.724
  0
VERTEX
  8
Layer2
 10
602.333
 20
186.944
  0
VERTEX
  8
Layer2
 10
602.828
 20
187.176
  0
VERTEX
  8
Layer2
 10
603.322
 20
187.423
  0
VERTEX
  8
Layer2
 10
603.811
 20
187.688
  0
VERTEX
  8
Layer2
 10
604.293
 20
187.973
  0
VERTEX
  8
Layer2
 10
604.771
 20
188.272
  0
VERTEX
  8
Layer2
 10
605.245
 20
188.581
  0
VERTEX
  8
Layer2
 10
605.712
 20
188.895
  0
VERTEX
  8
Layer2
 10
606.177
 20
189.21
  0
VERTEX
  8
Layer2
 10
606.635
 20
189.521
  0
VERTEX
  8
Layer2
 10
607.088
 20
189.823
  0
VERTEX
  8
Layer2
 10
607.539
 20
190.111
  0
VERTEX
  8
Layer2
 10
607.985
 20
190.381
  0
VERTEX
  8
Layer2
 10
608.427
 20
190.629
  0
VERTEX
  8
Layer2
 10
608.865
 20
190.849
  0
VERTEX
  8
Layer2
 10
609.299
 20
191.037
  0
VERTEX
  8
Layer2
 10
609.731
 20
191.187
  0
VERTEX
  8
Layer2
 10
610.159
 20
191.297
  0
VERTEX
  8
Layer2
 10
610.586
 20
191.36
  0
VERTEX
  8
Layer2
 10
611.009
 20
191.373
  0
VERTEX
  8
Layer2
 10
611.428
 20
191.329
  0
VERTEX
  8
Layer2
 10
611.846
 20
191.228
  0
VERTEX
  8
Layer2
 10
612.264
 20
191.073
  0
VERTEX
  8
Layer2
 10
612.678
 20
190.872
  0
VERTEX
  8
Layer2
 10
613.095
 20
190.632
  0
VERTEX
  8
Layer2
 10
613.51
 20
190.36
  0
VERTEX
  8
Layer2
 10
613.928
 20
190.063
  0
VERTEX
  8
Layer2
 10
614.346
 20
189.749
  0
VERTEX
  8
Layer2
 10
614.768
 20
189.424
  0
VERTEX
  8
Layer2
 10
615.193
 20
189.097
  0
VERTEX
  8
Layer2
 10
615.621
 20
188.773
  0
VERTEX
  8
Layer2
 10
616.056
 20
188.461
  0
VERTEX
  8
Layer2
 10
616.495
 20
188.168
  0
VERTEX
  8
Layer2
 10
616.941
 20
187.898
  0
VERTEX
  8
Layer2
 10
617.391
 20
187.65
  0
VERTEX
  8
Layer2
 10
617.847
 20
187.425
  0
VERTEX
  8
Layer2
 10
618.309
 20
187.219
  0
VERTEX
  8
Layer2
 10
618.775
 20
187.033
  0
VERTEX
  8
Layer2
 10
619.246
 20
186.866
  0
VERTEX
  8
Layer2
 10
619.721
 20
186.715
  0
VERTEX
  8
Layer2
 10
620.201
 20
186.579
  0
VERTEX
  8
Layer2
 10
620.683
 20
186.458
  0
VERTEX
  8
Layer2
 10
621.169
 20
186.351
  0
VERTEX
  8
Layer2
 10
621.658
 20
186.255
  0
VERTEX
  8
Layer2
 10
622.149
 20
186.17
  0
VERTEX
  8
Layer2
 10
622.644
 20
186.095
  0
VERTEX
  8
Layer2
 10
623.14
 20
186.028
  0
VERTEX
  8
Layer2
 10
623.638
 20
185.969
  0
VERTEX
  8
Layer2
 10
624.138
 20
185.915
  0
VERTEX
  8
Layer2
 10
624.638
 20
185.867
  0
VERTEX
  8
Layer2
 10
625.14
 20
185.822
  0
VERTEX
  8
Layer2
 10
625.641
 20
185.779
  0
VERTEX
  8
Layer2
 10
626.144
 20
185.738
  0
SEQEND
  0
LINE
  8
Layer2
  6
CONTINUOUS
 62
7
 10
599.048
 20
185.508
 11
602.588
 21
181.287
  0
LINE
  8
Layer2
  6
CONTINUOUS
 62
7
 10
607.145
 20
189.859
 11
610.479
 21
185.886
  0
LINE
  8
Layer2
  6
CENTER2
 62
7
 10
618.12
 20
177.426
 11
616.052
 21
175.69
  0
LINE
  8
Layer2
  6
CONTINUOUS
 62
7
 10
618.12
 20
177.426
 11
616.052
 21
175.69
  0
LINE
  8
Layer2
  6
CONTINUOUS
 62
7
 10
606.659
 20
167.808
 11
605.466
 21
166.807
  0
LINE
  8
Layer2
  6
CONTINUOUS
 62
7
 10
598.686
 20
169.603
 11
598.625
 21
168.899
  0
LINE
  8
Layer2
  6
CONTINUOUS
 62
7
 10
616.519
 20
166.292
 11
622.304
 21
159.397
  0
LINE
  8
Layer2
  6
CONTINUOUS
 62
7
 10
627.641
 20
163.876
 11
622.279
 21
159.376
  0
LINE
  8
Layer2
  6
CONTINUOUS
 62
7
 10
621.856
 20
170.77
 11
616.495
 21
166.271
  0
LINE
  8
Layer2
  6
CONTINUOUS
 62
7
 10
617.644
 20
164.951
 11
609.958
 21
158.502
  0
LINE
  8
Layer2
  6
CONTINUOUS
 62
7
 10
621.179
 20
160.738
 11
613.495
 21
154.289
  0
LINE
  8
Layer2
  6
CONTINUOUS
 62
7
 10
616.052
 20
175.69
 11
611.934
 21
172.235
  0
LINE
  8
Layer2
  6
CONTINUOUS
 62
7
 10
610.153
 20
170.74
 11
608.508
 21
169.36
  0
LINE
  8
Layer2
  6
CONTINUOUS
 62
7
 10
606.909
 20
168.018
 11
601.611
 21
163.572
  0
LINE
  8
Layer2
  6
CENTER1
 62
7
 10
624.644
 20
167.234
 11
599.316
 21
145.982
  0
LINE
  8
Layer2
  6
CONTINUOUS
 62
7
 10
604.51
 20
180.552
 11
614.621
 21
168.503
  0
LINE
  8
Layer2
  6
DASHED1
 62
7
 10
599.835
 20
170.567
 11
598.686
 21
169.603
  0
POLYLINE
  8
Layer2
  6
CONTINUOUS
 62
7
 66
1
 10
0
 20
0
 30
0
  0
VERTEX
  8
Layer2
 10
619.846
 20
173.167
  0
VERTEX
  8
Layer2
 10
619.649
 20
172.836
  0
VERTEX
  8
Layer2
 10
619.451
 20
172.506
  0
VERTEX
  8
Layer2
 10
619.249
 20
172.18
  0
VERTEX
  8
Layer2
 10
619.043
 20
171.859
  0
VERTEX
  8
Layer2
 10
618.828
 20
171.546
  0
VERTEX
  8
Layer2
 10
618.607
 20
171.242
  0
VERTEX
  8
Layer2
 10
618.375
 20
170.95
  0
VERTEX
  8
Layer2
 10
618.131
 20
170.67
  0
VERTEX
  8
Layer2
 10
617.874
 20
170.405
  0
VERTEX
  8
Layer2
 10
617.601
 20
170.157
  0
VERTEX
  8
Layer2
 10
617.312
 20
169.927
  0
VERTEX
  8
Layer2
 10
617.008
 20
169.714
  0
VERTEX
  8
Layer2
 10
616.689
 20
169.516
  0
VERTEX
  8
Layer2
 10
616.361
 20
169.33
  0
VERTEX
  8
Layer2
 10
616.024
 20
169.154
  0
VERTEX
  8
Layer2
 10
615.679
 20
168.986
  0
VERTEX
  8
Layer2
 10
615.331
 20
168.824
  0
VERTEX
  8
Layer2
 10
614.981
 20
168.665
  0
VERTEX
  8
Layer2
 10
614.63
 20
168.507
  0
VERTEX
  8
Layer2
 10
614.283
 20
168.347
  0
VERTEX
  8
Layer2
 10
613.939
 20
168.184
  0
VERTEX
  8
Layer2
 10
613.602
 20
168.015
  0
VERTEX
  8
Layer2
 10
613.275
 20
167.838
  0
VERTEX
  8
Layer2
 10
612.96
 20
167.65
  0
VERTEX
  8
Layer2
 10
612.657
 20
167.45
  0
VERTEX
  8
Layer2
 10
612.37
 20
167.234
  0
VERTEX
  8
Layer2
 10
612.1
 20
167.003
  0
VERTEX
  8
Layer2
 10
611.846
 20
166.755
  0
VERTEX
  8
Layer2
 10
611.607
 20
166.493
  0
VERTEX
  8
Layer2
 10
611.383
 20
166.217
  0
VERTEX
  8
Layer2
 10
611.173
 20
165.928
  0
VERTEX
  8
Layer2
 10
610.975
 20
165.626
  0
VERTEX
  8
Layer2
 10
610.789
 20
165.313
  0
VERTEX
  8
Layer2
 10
610.616
 20
164.988
  0
VERTEX
  8
Layer2
 10
610.452
 20
164.653
  0
VERTEX
  8
Layer2
 10
610.299
 20
164.309
  0
VERTEX
  8
Layer2
 10
610.155
 20
163.955
  0
VERTEX
  8
Layer2
 10
610.02
 20
163.594
  0
VERTEX
  8
Layer2
 10
609.893
 20
163.225
  0
VERTEX
  8
Layer2
 10
609.771
 20
162.849
  0
VERTEX
  8
Layer2
 10
609.657
 20
162.468
  0
VERTEX
  8
Layer2
 10
609.547
 20
162.081
  0
VERTEX
  8
Layer2
 10
609.442
 20
161.69
  0
VERTEX
  8
Layer2
 10
609.341
 20
161.295
  0
VERTEX
  8
Layer2
 10
609.242
 20
160.897
  0
VERTEX
  8
Layer2
 10
609.146
 20
160.497
  0
VERTEX
  8
Layer2
 10
609.053
 20
160.096
  0
VERTEX
  8
Layer2
 10
608.96
 20
159.694
  0
SEQEND
  0
LINE
  8
Layer2
  6
DASHED1
 62
7
 10
617.35
 20
157.524
 11
616.201
 21
156.56
  0
LINE
  8
Layer2
  6
DASHED1
 62
7
 10
613.814
 20
161.737
 11
612.665
 21
160.773
  0
LINE
  8
Layer2
  6
CONTINUOUS
 62
7
 10
622.144
 20
159.589
 11
625.745
 21
162.61
  0
LINE
  8
Layer2
  6
CONTINUOUS
 62
7
 10
616.681
 20
166.1
 11
620.28
 21
169.121
  0
LINE
  8
Layer2
  6
CONTINUOUS
 62
7
 10
625.745
 20
162.61
 11
620.28
 21
169.121
  0
LINE
  8
Layer2
  6
CONTINUOUS
 62
7
 10
625.782
 20
163.033
 11
620.703
 21
169.084
  0
LINE
  8
Layer2
  6
CONTINUOUS
 62
7
 10
625.745
 20
162.61
 11
625.782
 21
163.033
  0
LINE
  8
Layer2
  6
CONTINUOUS
 62
7
 10
620.28
 20
169.121
 11
620.703
 21
169.084
  0
LINE
  8
Layer2
  6
DASHED1
 62
7
 10
617.806
 20
164.76
 11
599.38
 21
149.299
  0
LINE
  8
Layer2
  6
DASHED1
 62
7
 10
621.019
 20
160.929
 11
602.593
 21
145.469
  0
LINE
  8
Layer2
  6
DASHED1
 62
7
 10
599.38
 20
149.299
 11
602.593
 21
145.469
  0
LINE
  8
Layer2
  6
DASHED1
 62
7
 10
618.063
 20
164.453
 11
599.331
 21
148.735
  0
LINE
  8
Layer2
  6
DASHED1
 62
7
 10
620.761
 20
161.236
 11
602.03
 21
145.518
  0
LINE
  8
Layer2
  6
CONTINUOUS
 62
7
 10
616.681
 20
166.1
 11
622.144
 21
159.589
  0
LINE
  8
Layer2
  6
CONTINUOUS
 62
7
 10
622.001
 20
160.774
 11
624.678
 21
163.02
  0
LINE
  8
Layer2
  6
CONTINUOUS
 62
7
 10
621.759
 20
161.876
 11
623.611
 21
163.431
  0
LINE
  8
Layer2
  6
CONTINUOUS
 62
7
 10
621.515
 20
162.978
 11
622.545
 21
163.842
  0
LINE
  8
Layer2
  6
CONTINUOUS
 62
7
 10
608.093
 20
185.886
 11
595.682
 21
175.517
  0
LINE
  8
Layer2
  6
CONTINUOUS
 62
7
 10
628.482
 20
161.318
 11
615.461
 21
150.39
  0
LINE
  8
Layer2
  6
CONTINUOUS
 62
7
 10
628.606
 20
162.727
 11
628.482
 21
161.318
  0
LINE
  8
Layer2
  6
CONTINUOUS
 62
7
 10
620.35
 20
169.506
 11
626.135
 21
162.611
  0
LINE
  8
Layer2
  6
DASHED1
 62
7
 10
599.269
 20
148.031
 11
601.326
 21
145.58
  0
LINE
  8
Layer2
  6
DASHED1
 62
7
 10
599.38
 20
149.299
 11
599.269
 21
148.031
  0
LINE
  8
Layer2
  6
DASHED1
 62
7
 10
602.593
 20
145.469
 11
601.326
 21
145.58
  0
LINE
  8
Layer2
  6
CONTINUOUS
 62
7
 10
609.106
 20
184.409
 11
610.515
 21
184.286
  0
LINE
  8
Layer2
  6
CONTINUOUS
 62
7
 10
596.851
 20
174.125
 11
595.318
 21
172.839
  0
LINE
  8
Layer2
  6
CONTINUOUS
 62
7
 10
614.621
 20
168.503
 11
624.732
 21
156.453
  0
LINE
  8
Layer2
  6
CONTINUOUS
 62
7
 10
162.812
 20
199.129
 11
163.812
 21
200.129
  0
LINE
  8
Layer2
  6
CONTINUOUS
 62
7
 10
163.812
 20
184.129
 11
162.812
 21
185.129
  0
LINE
  8
Layer2
  6
DASHED1
 62
7
 10
197.312
 20
162.229
 11
187.312
 21
162.229
  0
LINE
  8
Layer2
  6
DASHED1
 62
7
 10
185.312
 20
164.229
 11
185.312
 21
200.129
  0
LINE
  8
Layer2
  6
DASHED1
 62
7
 10
235.312
 20
164.229
 11
233.312
 21
162.229
  0
LINE
  8
Layer2
  6
DASHED1
 62
7
 10
187.312
 20
162.229
 11
185.312
 21
164.229
  0
LINE
  8
Layer2
  6
CONTINUOUS
 62
7
 10
206.523
 20
206.602
 11
214.368
 21
206.602
  0
LINE
  8
Layer2
  6
CONTINUOUS
 62
7
 10
206.196
 20
205.999
 11
214.67
 21
205.999
  0
LINE
  8
Layer2
  6
CONTINUOUS
 62
7
 10
206.101
 20
202.619
 11
214.548
 21
202.619
  0
LINE
  8
Layer2
  6
CONTINUOUS
 62
7
 10
215.274
 20
201.895
 11
205.376
 21
201.895
  0
LINE
  8
Layer2
  6
CONTINUOUS
 62
7
 10
215.274
 20
201.895
 11
215.274
 21
200.024
  0
LINE
  8
Layer2
  6
CONTINUOUS
 62
7
 10
205.376
 20
201.895
 11
205.376
 21
200.024
  0
POLYLINE
  8
Layer2
  6
CONTINUOUS
 62
7
 66
1
 10
0
 20
0
 30
0
  0
VERTEX
  8
Layer2
 10
210.318
 20
203.815
  0
VERTEX
  8
Layer2
 10
210.253
 20
203.872
  0
VERTEX
  8
Layer2
 10
210.185
 20
203.928
  0
VERTEX
  8
Layer2
 10
210.118
 20
203.981
  0
VERTEX
  8
Layer2
 10
210.048
 20
204.033
  0
VERTEX
  8
Layer2
 10
209.977
 20
204.083
  0
VERTEX
  8
Layer2
 10
209.905
 20
204.131
  0
VERTEX
  8
Layer2
 10
209.832
 20
204.177
  0
VERTEX
  8
Layer2
 10
209.757
 20
204.222
  0
VERTEX
  8
Layer2
 10
209.682
 20
204.264
  0
VERTEX
  8
Layer2
 10
209.605
 20
204.305
  0
VERTEX
  8
Layer2
 10
209.528
 20
204.343
  0
VERTEX
  8
Layer2
 10
209.449
 20
204.379
  0
VERTEX
  8
Layer2
 10
209.369
 20
204.414
  0
VERTEX
  8
Layer2
 10
209.289
 20
204.446
  0
VERTEX
  8
Layer2
 10
209.207
 20
204.476
  0
VERTEX
  8
Layer2
 10
209.125
 20
204.504
  0
VERTEX
  8
Layer2
 10
209.042
 20
204.53
  0
VERTEX
  8
Layer2
 10
208.958
 20
204.554
  0
VERTEX
  8
Layer2
 10
208.875
 20
204.576
  0
VERTEX
  8
Layer2
 10
208.791
 20
204.595
  0
VERTEX
  8
Layer2
 10
208.706
 20
204.612
  0
VERTEX
  8
Layer2
 10
208.619
 20
204.627
  0
VERTEX
  8
Layer2
 10
208.535
 20
204.64
  0
VERTEX
  8
Layer2
 10
208.449
 20
204.651
  0
VERTEX
  8
Layer2
 10
208.362
 20
204.659
  0
VERTEX
  8
Layer2
 10
208.275
 20
204.665
  0
VERTEX
  8
Layer2
 10
208.189
 20
204.669
  0
VERTEX
  8
Layer2
 10
208.101
 20
204.671
  0
VERTEX
  8
Layer2
 10
208.016
 20
204.67
  0
VERTEX
  8
Layer2
 10
207.929
 20
204.668
  0
VERTEX
  8
Layer2
 10
207.843
 20
204.662
  0
VERTEX
  8
Layer2
 10
207.756
 20
204.655
  0
VERTEX
  8
Layer2
 10
207.67
 20
204.646
  0
VERTEX
  8
Layer2
 10
207.583
 20
204.634
  0
VERTEX
  8
Layer2
 10
207.498
 20
204.62
  0
VERTEX
  8
Layer2
 10
207.412
 20
204.604
  0
VERTEX
  8
Layer2
 10
207.328
 20
204.585
  0
VERTEX
  8
Layer2
 10
207.244
 20
204.565
  0
VERTEX
  8
Layer2
 10
207.161
 20
204.542
  0
VERTEX
  8
Layer2
 10
207.077
 20
204.517
  0
VERTEX
  8
Layer2
 10
206.994
 20
204.49
  0
VERTEX
  8
Layer2
 10
206.912
 20
204.461
  0
VERTEX
  8
Layer2
 10
206.833
 20
204.43
  0
VERTEX
  8
Layer2
 10
206.753
 20
204.396
  0
VERTEX
  8
Layer2
 10
206.673
 20
204.361
  0
VERTEX
  8
Layer2
 10
206.595
 20
204.324
  0
VERTEX
  8
Layer2
 10
206.518
 20
204.284
  0
VERTEX
  8
Layer2
 10
206.441
 20
204.243
  0
SEQEND
  0
POLYLINE
  8
Layer2
  6
CONTINUOUS
 62
7
 66
1
 10
0
 20
0
 30
0
  0
VERTEX
  8
Layer2
 10
214.671
 20
204.188
  0
VERTEX
  8
Layer2
 10
214.583
 20
204.223
  0
VERTEX
  8
Layer2
 10
214.494
 20
204.257
  0
VERTEX
  8
Layer2
 10
214.405
 20
204.289
  0
VERTEX
  8
Layer2
 10
214.316
 20
204.32
  0
VERTEX
  8
Layer2
 10
214.226
 20
204.348
  0
VERTEX
  8
Layer2
 10
214.136
 20
204.375
  0
VERTEX
  8
Layer2
 10
214.045
 20
204.4
  0
VERTEX
  8
Layer2
 10
213.952
 20
204.423
  0
VERTEX
  8
Layer2
 10
213.861
 20
204.444
  0
VERTEX
  8
Layer2
 10
213.768
 20
204.463
  0
VERTEX
  8
Layer2
 10
213.676
 20
204.481
  0
VERTEX
  8
Layer2
 10
213.583
 20
204.496
  0
VERTEX
  8
Layer2
 10
213.489
 20
204.51
  0
VERTEX
  8
Layer2
 10
213.396
 20
204.522
  0
VERTEX
  8
Layer2
 10
213.302
 20
204.532
  0
VERTEX
  8
Layer2
 10
213.208
 20
204.54
  0
VERTEX
  8
Layer2
 10
213.113
 20
204.546
  0
VERTEX
  8
Layer2
 10
213.018
 20
204.55
  0
VERTEX
  8
Layer2
 10
212.924
 20
204.553
  0
VERTEX
  8
Layer2
 10
212.831
 20
204.554
  0
VERTEX
  8
Layer2
 10
212.736
 20
204.552
  0
VERTEX
  8
Layer2
 10
212.642
 20
204.549
  0
VERTEX
  8
Layer2
 10
212.548
 20
204.544
  0
VERTEX
  8
Layer2
 10
212.452
 20
204.537
  0
VERTEX
  8
Layer2
 10
212.358
 20
204.528
  0
VERTEX
  8
Layer2
 10
212.265
 20
204.517
  0
VERTEX
  8
Layer2
 10
212.172
 20
204.505
  0
VERTEX
  8
Layer2
 10
212.078
 20
204.49
  0
VERTEX
  8
Layer2
 10
211.986
 20
204.474
  0
VERTEX
  8
Layer2
 10
211.893
 20
204.456
  0
VERTEX
  8
Layer2
 10
211.801
 20
204.436
  0
VERTEX
  8
Layer2
 10
211.708
 20
204.414
  0
VERTEX
  8
Layer2
 10
211.617
 20
204.39
  0
VERTEX
  8
Layer2
 10
211.525
 20
204.365
  0
VERTEX
  8
Layer2
 10
211.435
 20
204.337
  0
VERTEX
  8
Layer2
 10
211.345
 20
204.308
  0
VERTEX
  8
Layer2
 10
211.256
 20
204.277
  0
VERTEX
  8
Layer2
 10
211.167
 20
204.245
  0
VERTEX
  8
Layer2
 10
211.08
 20
204.21
  0
VERTEX
  8
Layer2
 10
210.993
 20
204.174
  0
VERTEX
  8
Layer2
 10
210.906
 20
204.136
  0
VERTEX
  8
Layer2
 10
210.821
 20
204.096
  0
VERTEX
  8
Layer2
 10
210.736
 20
204.055
  0
VERTEX
  8
Layer2
 10
210.652
 20
204.012
  0
VERTEX
  8
Layer2
 10
210.569
 20
203.967
  0
VERTEX
  8
Layer2
 10
210.487
 20
203.921
  0
VERTEX
  8
Layer2
 10
210.405
 20
203.873
  0
VERTEX
  8
Layer2
 10
210.325
 20
203.823
  0
SEQEND
  0
LINE
  8
Layer2
  6
CONTINUOUS
 62
7
 10
206.787
 20
204.411
 11
206.453
 21
204.221
  0
LINE
  8
Layer2
  6
CONTINUOUS
 62
7
 10
206.523
 20
206.602
 11
205.664
 21
205.018
  0
LINE
  8
Layer2
  6
CONTINUOUS
 62
7
 10
214.368
 20
206.602
 11
215.256
 21
204.787
  0
LINE
  8
Layer2
  6
CONTINUOUS
 62
7
 10
214.185
 20
204.332
 11
214.671
 21
204.188
  0
POLYLINE
  8
Layer2
  6
CONTINUOUS
 62
7
 66
1
 10
0
 20
0
 30
0
  0
VERTEX
  8
Layer2
 10
205.664
 20
205.018
  0
VERTEX
  8
Layer2
 10
205.649
 20
204.991
  0
VERTEX
  8
Layer2
 10
205.635
 20
204.962
  0
VERTEX
  8
Layer2
 10
205.623
 20
204.933
  0
VERTEX
  8
Layer2
 10
205.613
 20
204.903
  0
VERTEX
  8
Layer2
 10
205.604
 20
204.873
  0
VERTEX
  8
Layer2
 10
205.596
 20
204.842
  0
VERTEX
  8
Layer2
 10
205.592
 20
204.811
  0
VERTEX
  8
Layer2
 10
205.588
 20
204.779
  0
VERTEX
  8
Layer2
 10
205.586
 20
204.748
  0
VERTEX
  8
Layer2
 10
205.586
 20
204.716
  0
VERTEX
  8
Layer2
 10
205.587
 20
204.684
  0
VERTEX
  8
Layer2
 10
205.589
 20
204.653
  0
VERTEX
  8
Layer2
 10
205.595
 20
204.622
  0
VERTEX
  8
Layer2
 10
205.601
 20
204.591
  0
VERTEX
  8
Layer2
 10
205.61
 20
204.56
  0
VERTEX
  8
Layer2
 10
205.619
 20
204.53
  0
VERTEX
  8
Layer2
 10
205.631
 20
204.501
  0
VERTEX
  8
Layer2
 10
205.643
 20
204.472
  0
VERTEX
  8
Layer2
 10
205.659
 20
204.444
  0
VERTEX
  8
Layer2
 10
205.674
 20
204.417
  0
VERTEX
  8
Layer2
 10
205.693
 20
204.39
  0
VERTEX
  8
Layer2
 10
205.712
 20
204.365
  0
VERTEX
  8
Layer2
 10
205.732
 20
204.341
  0
VERTEX
  8
Layer2
 10
205.754
 20
204.318
  0
VERTEX
  8
Layer2
 10
205.777
 20
204.296
  0
VERTEX
  8
Layer2
 10
205.801
 20
204.275
  0
VERTEX
  8
Layer2
 10
205.826
 20
204.256
  0
VERTEX
  8
Layer2
 10
205.851
 20
204.238
  0
VERTEX
  8
Layer2
 10
205.879
 20
204.222
  0
VERTEX
  8
Layer2
 10
205.906
 20
204.207
  0
VERTEX
  8
Layer2
 10
205.935
 20
204.193
  0
VERTEX
  8
Layer2
 10
205.964
 20
204.182
  0
VERTEX
  8
Layer2
 10
205.994
 20
204.172
  0
VERTEX
  8
Layer2
 10
206.024
 20
204.163
  0
VERTEX
  8
Layer2
 10
206.055
 20
204.156
  0
VERTEX
  8
Layer2
 10
206.087
 20
204.151
  0
VERTEX
  8
Layer2
 10
206.119
 20
204.148
  0
VERTEX
  8
Layer2
 10
206.149
 20
204.146
  0
VERTEX
  8
Layer2
 10
206.182
 20
204.146
  0
VERTEX
  8
Layer2
 10
206.214
 20
204.147
  0
VERTEX
  8
Layer2
 10
206.244
 20
204.151
  0
VERTEX
  8
Layer2
 10
206.275
 20
204.156
  0
VERTEX
  8
Layer2
 10
206.307
 20
204.163
  0
VERTEX
  8
Layer2
 10
206.338
 20
204.171
  0
VERTEX
  8
Layer2
 10
206.368
 20
204.181
  0
VERTEX
  8
Layer2
 10
206.397
 20
204.193
  0
VERTEX
  8
Layer2
 10
206.426
 20
204.207
  0
VERTEX
  8
Layer2
 10
206.453
 20
204.221
  0
SEQEND
  0
POLYLINE
  8
Layer2
  6
CONTINUOUS
 62
7
 66
1
 10
0
 20
0
 30
0
  0
VERTEX
  8
Layer2
 10
214.671
 20
204.188
  0
VERTEX
  8
Layer2
 10
214.69
 20
204.182
  0
VERTEX
  8
Layer2
 10
214.712
 20
204.178
  0
VERTEX
  8
Layer2
 10
214.732
 20
204.174
  0
VERTEX
  8
Layer2
 10
214.755
 20
204.171
  0
VERTEX
  8
Layer2
 10
214.775
 20
204.169
  0
VERTEX
  8
Layer2
 10
214.797
 20
204.168
  0
VERTEX
  8
Layer2
 10
214.819
 20
204.169
  0
VERTEX
  8
Layer2
 10
214.839
 20
204.17
  0
VERTEX
  8
Layer2
 10
214.861
 20
204.172
  0
VERTEX
  8
Layer2
 10
214.882
 20
204.175
  0
VERTEX
  8
Layer2
 10
214.904
 20
204.179
  0
VERTEX
  8
Layer2
 10
214.923
 20
204.184
  0
VERTEX
  8
Layer2
 10
214.945
 20
204.189
  0
VERTEX
  8
Layer2
 10
214.964
 20
204.196
  0
VERTEX
  8
Layer2
 10
214.985
 20
204.204
  0
VERTEX
  8
Layer2
 10
215.005
 20
204.212
  0
VERTEX
  8
Layer2
 10
215.024
 20
204.222
  0
VERTEX
  8
Layer2
 10
215.042
 20
204.232
  0
VERTEX
  8
Layer2
 10
215.06
 20
204.243
  0
VERTEX
  8
Layer2
 10
215.078
 20
204.255
  0
VERTEX
  8
Layer2
 10
215.095
 20
204.268
  0
VERTEX
  8
Layer2
 10
215.113
 20
204.282
  0
VERTEX
  8
Layer2
 10
215.129
 20
204.296
  0
VERTEX
  8
Layer2
 10
215.143
 20
204.311
  0
VERTEX
  8
Layer2
 10
215.159
 20
204.326
  0
VERTEX
  8
Layer2
 10
215.172
 20
204.343
  0
VERTEX
  8
Layer2
 10
215.185
 20
204.36
  0
VERTEX
  8
Layer2
 10
215.197
 20
204.377
  0
VERTEX
  8
Layer2
 10
215.208
 20
204.395
  0
VERTEX
  8
Layer2
 10
215.22
 20
204.414
  0
VERTEX
  8
Layer2
 10
215.23
 20
204.433
  0
VERTEX
  8
Layer2
 10
215.238
 20
204.452
  0
VERTEX
  8
Layer2
 10
215.247
 20
204.472
  0
VERTEX
  8
Layer2
 10
215.254
 20
204.492
  0
VERTEX
  8
Layer2
 10
215.261
 20
204.512
  0
VERTEX
  8
Layer2
 10
215.266
 20
204.533
  0
VERTEX
  8
Layer2
 10
215.269
 20
204.554
  0
VERTEX
  8
Layer2
 10
215.274
 20
204.575
  0
VERTEX
  8
Layer2
 10
215.275
 20
204.596
  0
VERTEX
  8
Layer2
 10
215.278
 20
204.618
  0
VERTEX
  8
Layer2
 10
215.279
 20
204.639
  0
VERTEX
  8
Layer2
 10
215.278
 20
204.661
  0
VERTEX
  8
Layer2
 10
215.277
 20
204.682
  0
VERTEX
  8
Layer2
 10
215.274
 20
204.703
  0
VERTEX
  8
Layer2
 10
215.271
 20
204.724
  0
VERTEX
  8
Layer2
 10
215.267
 20
204.745
  0
VERTEX
  8
Layer2
 10
215.262
 20
204.766
  0
VERTEX
  8
Layer2
 10
215.256
 20
204.787
  0
SEQEND
  0
LINE
  8
Layer2
  6
CONTINUOUS
 62
7
 10
213.393
 20
204.522
 11
213.393
 21
202.619
  0
LINE
  8
Layer2
  6
CONTINUOUS
 62
7
 10
207.247
 20
204.566
 11
207.247
 21
202.619
  0
LINE
  8
Layer2
  6
CONTINUOUS
 62
7
 10
206.101
 20
202.619
 11
205.376
 21
201.895
  0
LINE
  8
Layer2
  6
CONTINUOUS
 62
7
 10
214.548
 20
202.619
 11
215.274
 21
201.895
  0
LINE
  8
Layer2
  6
DASHED1
 62
7
 10
223.312
 20
162.229
 11
233.312
 21
162.229
  0
LINE
  8
Layer2
  6
CONTINUOUS
 62
7
 10
221.312
 20
256.456
 11
199.312
 21
256.456
  0
LINE
  8
Layer2
  6
DASHED1
 62
7
 10
215.312
 20
148.826
 11
205.312
 21
148.826
  0
LINE
  8
Layer2
  6
DASHED1
 62
7
 10
216.312
 20
183.368
 11
204.301
 21
183.368
  0
LINE
  8
Layer2
  6
DASHED1
 62
7
 10
215.312
 20
172.515
 11
205.312
 21
172.515
  0
LINE
  8
Layer2
  6
CONTINUOUS
 62
7
 10
221.312
 20
242.454
 11
216.312
 21
242.454
  0
LINE
  8
Layer2
  6
CONTINUOUS
 62
7
 10
199.312
 20
256.456
 11
199.312
 21
242.454
  0
LINE
  8
Layer2
  6
CONTINUOUS
 62
7
 10
221.312
 20
256.456
 11
221.312
 21
242.454
  0
LINE
  8
Layer2
  6
CONTINUOUS
 62
7
 10
204.312
 20
242.454
 11
199.312
 21
242.454
  0
LINE
  8
Layer2
  6
DASHED1
 62
7
 10
221.312
 20
164.229
 11
221.312
 21
242.969
  0
LINE
  8
Layer2
  6
DASHED1
 62
7
 10
199.312
 20
164.229
 11
199.312
 21
242.969
  0
LINE
  8
Layer2
  6
DASHED1
 62
7
 10
204.312
 20
183.368
 11
204.312
 21
179.025
  0
LINE
  8
Layer2
  6
DASHED1
 62
7
 10
216.312
 20
183.368
 11
216.312
 21
179.025
  0
LINE
  8
Layer2
  6
DASHED1
 62
7
 10
204.312
 20
179.025
 11
205.312
 21
179.025
  0
LINE
  8
Layer2
  6
DASHED1
 62
7
 10
215.312
 20
148.826
 11
215.312
 21
166.812
  0
LINE
  8
Layer2
  6
DASHED1
 62
7
 10
205.312
 20
148.826
 11
205.312
 21
166.812
  0
LINE
  8
Layer2
  6
DASHED1
 62
7
 10
200.312
 20
183.368
 11
200.312
 21
155.804
  0
LINE
  8
Layer2
  6
DASHED1
 62
7
 10
220.312
 20
155.804
 11
220.312
 21
183.368
  0
LINE
  8
Layer2
  6
DASHED1
 62
7
 10
215.312
 20
167.159
 11
215.312
 21
179.025
  0
LINE
  8
Layer2
  6
DASHED1
 62
7
 10
205.312
 20
167.159
 11
205.312
 21
179.025
  0
LINE
  8
Layer2
  6
DASHED1
 62
7
 10
204.312
 20
174.909
 11
200.312
 21
174.909
  0
LINE
  8
Layer2
  6
DASHED1
 62
7
 10
200.312
 20
179.025
 11
204.312
 21
179.025
  0
LINE
  8
Layer2
  6
DASHED1
 62
7
 10
216.312
 20
179.025
 11
220.312
 21
179.025
  0
LINE
  8
Layer2
  6
DASHED1
 62
7
 10
216.312
 20
174.909
 11
220.312
 21
174.909
  0
ARC
  8
Layer2
  6
DASHED1
 62
7
 10
210.312
 20
168.63
 40
11
 50
123.134
 51
180
  0
ARC
  8
Layer2
  6
DASHED1
 62
7
 10
210.312
 20
168.63
 40
11
 50
0
 51
56.8664
  0
LINE
  8
Layer2
  6
DASHED1
 62
7
 10
216.312
 20
183.368
 11
220.312
 21
183.368
  0
LINE
  8
Layer2
  6
DASHED1
 62
7
 10
204.312
 20
183.368
 11
200.312
 21
183.368
  0
LINE
  8
Layer2
  6
DASHED1
 62
7
 10
220.312
 20
155.804
 11
215.312
 21
155.804
  0
LINE
  8
Layer2
  6
DASHED1
 62
7
 10
205.312
 20
155.804
 11
200.312
 21
155.804
  0
LINE
  8
Layer2
  6
DASHED1
 62
7
 10
215.312
 20
179.025
 11
216.324
 21
179.025
  0
LINE
  8
Layer2
  6
DASHED1
 62
7
 10
221.312
 20
164.229
 11
223.312
 21
162.229
  0
LINE
  8
Layer2
  6
DASHED1
 62
7
 10
197.312
 20
162.229
 11
199.312
 21
164.229
  0
LINE
  8
Layer2
  6
DASHED1
 62
7
 10
204.298
 20
177.841
 11
204.298
 21
200.129
  0
LINE
  8
Layer2
  6
DASHED1
 62
7
 10
216.32
 20
200.129
 11
216.32
 21
177.511
  0
LINE
  8
Layer2
  6
CENTER1
 62
7
 10
174.312
 20
207.906
 11
174.312
 21
178.445
  0
LINE
  8
Layer2
  6
CENTER1
 62
7
 10
246.312
 20
203.354
 11
246.312
 21
177.651
  0
LINE
  8
Layer2
  6
CONTINUOUS
 62
7
 10
235.312
 20
228.967
 11
216.315
 21
228.967
  0
LINE
  8
Layer2
  6
CONTINUOUS
 62
7
 10
204.309
 20
228.967
 11
185.312
 21
228.967
  0
LINE
  8
Layer2
  6
CENTER1
 62
7
 10
193.812
 20
165.546
 11
193.812
 21
159.794
  0
LINE
  8
Layer2
  6
CENTER1
 62
7
 10
191.541
 20
162.629
 11
196.732
 21
162.629
  0
CIRCLE
  8
Layer2
  6
CONTINUOUS
 62
7
 10
193.812
 20
162.629
 40
1.25
  0
LINE
  8
Layer2
  6
CONTINUOUS
 62
7
 10
216.312
 20
242.454
 11
216.312
 21
200.129
  0
LINE
  8
Layer2
  6
CONTINUOUS
 62
7
 10
204.312
 20
242.454
 11
204.312
 21
200.129
  0
TEXT
  8
Layer2
 62
7
 10
190.496
 20
427.828
 73
3
 11
190.496
 21
427.828
 40
10
 41
1
  1
EMCR-75-50-40
  0
LINE
  8
Layer2
  6
CONTINUOUS
 62
7
 10
185.136
 20
431.72
 11
185.136
 21
414.28
  0
LINE
  8
Layer2
  6
CONTINUOUS
 62
7
 10
185.136
 20
414.28
 11
258.114
 21
414.28
  0
LINE
  8
Layer2
  6
CONTINUOUS
 62
7
 10
258.114
 20
431.72
 11
258.114
 21
414.28
  0
LINE
  8
Layer2
  6
CONTINUOUS
 62
7
 10
185.136
 20
431.72
 11
258.114
 21
431.72
  0
LINE
  8
Layer2
  6
CONTINUOUS
 62
7
 10
449.764
 20
183.129
 11
449.764
 21
110.129
  0
LINE
  8
Layer2
  6
CONTINUOUS
 62
7
 10
449.764
 20
110.129
 11
448.764
 21
109.129
  0
LINE
  8
Layer2
  6
CONTINUOUS
 62
7
 10
448.764
 20
184.129
 11
449.764
 21
183.129
  0
LINE
  8
Layer2
  6
CONTINUOUS
 62
7
 10
449.764
 20
110.129
 11
450.764
 21
109.129
  0
LINE
  8
Layer2
  6
CONTINUOUS
 62
7
 10
450.764
 20
109.129
 11
451.764
 21
109.129
  0
LINE
  8
Layer2
  6
CONTINUOUS
 62
7
 10
450.764
 20
184.129
 11
449.764
 21
183.129
  0
LINE
  8
Layer2
  6
CONTINUOUS
 62
7
 10
450.764
 20
184.129
 11
452.264
 21
184.129
  0
LINE
  8
Layer2
  6
CONTINUOUS
 62
7
 10
449.764
 20
221.229
 11
467.626
 21
221.229
  0
POLYLINE
  8
Layer2
  6
CONTINUOUS
 62
7
 66
1
 10
0
 20
0
 30
0
  0
VERTEX
  8
Layer2
 10
452.661
 20
220.453
  0
VERTEX
  8
Layer2
 10
449.764
 20
221.229
  0
VERTEX
  8
Layer2
 10
452.661
 20
222.006
  0
SEQEND
  0
LINE
  8
Layer2
  6
CONTINUOUS
 62
7
 10
449.764
 20
414.674
 11
449.764
 21
462.674
  0
LINE
  8
Layer2
  6
CONTINUOUS
 62
7
 10
448.764
 20
463.674
 11
449.764
 21
462.674
  0
LINE
  8
Layer2
  6
CONTINUOUS
 62
7
 10
448.764
 20
413.674
 11
449.764
 21
414.674
  0
LINE
  8
Layer2
  6
CONTINUOUS
 62
7
 10
450.764
 20
413.674
 11
449.764
 21
414.674
  0
LINE
  8
Layer2
  6
CONTINUOUS
 62
7
 10
450.764
 20
463.674
 11
449.764
 21
462.674
  0
LINE
  8
Layer2
  6
CONTINUOUS
 62
7
 10
450.764
 20
463.674
 11
451.264
 21
463.674
  0
LINE
  8
Layer2
  6
CONTINUOUS
 62
7
 10
450.764
 20
413.674
 11
451.264
 21
413.674
  0
CIRCLE
  8
Layer2
  6
CONTINUOUS
 62
7
 10
226.812
 20
175.629
 40
5
  0
POLYLINE
  8
Layer2
  6
CONTINUOUS
 62
7
 66
1
 10
0
 20
0
 30
0
 70
1
  0
VERTEX
  8
Layer2
 10
224.312
 20
174.186
  0
VERTEX
  8
Layer2
 10
226.812
 20
172.743
  0
VERTEX
  8
Layer2
 10
229.312
 20
174.186
  0
VERTEX
  8
Layer2
 10
229.312
 20
177.073
  0
VERTEX
  8
Layer2
 10
226.812
 20
178.516
  0
VERTEX
  8
Layer2
 10
224.312
 20
177.073
  0
SEQEND
  0
CIRCLE
  8
Layer2
  6
CONTINUOUS
 62
7
 10
193.812
 20
175.629
 40
5
  0
POLYLINE
  8
Layer2
  6
CONTINUOUS
 62
7
 66
1
 10
0
 20
0
 30
0
 70
1
  0
VERTEX
  8
Layer2
 10
196.312
 20
174.186
  0
VERTEX
  8
Layer2
 10
193.812
 20
172.743
  0
VERTEX
  8
Layer2
 10
191.312
 20
174.186
  0
VERTEX
  8
Layer2
 10
191.312
 20
177.073
  0
VERTEX
  8
Layer2
 10
193.812
 20
178.516
  0
VERTEX
  8
Layer2
 10
196.312
 20
177.073
  0
SEQEND
  0
CIRCLE
  8
Layer2
  6
CONTINUOUS
 62
7
 10
193.812
 20
117.629
 40
5
  0
POLYLINE
  8
Layer2
  6
CONTINUOUS
 62
7
 66
1
 10
0
 20
0
 30
0
 70
1
  0
VERTEX
  8
Layer2
 10
196.312
 20
119.073
  0
VERTEX
  8
Layer2
 10
193.812
 20
120.516
  0
VERTEX
  8
Layer2
 10
191.312
 20
119.073
  0
VERTEX
  8
Layer2
 10
191.312
 20
116.186
  0
VERTEX
  8
Layer2
 10
193.812
 20
114.743
  0
VERTEX
  8
Layer2
 10
196.312
 20
116.186
  0
SEQEND
  0
CIRCLE
  8
Layer2
  6
CONTINUOUS
 62
7
 10
226.812
 20
117.629
 40
5
  0
POLYLINE
  8
Layer2
  6
CONTINUOUS
 62
7
 66
1
 10
0
 20
0
 30
0
 70
1
  0
VERTEX
  8
Layer2
 10
224.312
 20
119.073
  0
VERTEX
  8
Layer2
 10
226.812
 20
120.516
  0
VERTEX
  8
Layer2
 10
229.312
 20
119.073
  0
VERTEX
  8
Layer2
 10
229.312
 20
116.186
  0
VERTEX
  8
Layer2
 10
226.812
 20
114.743
  0
VERTEX
  8
Layer2
 10
224.312
 20
116.186
  0
SEQEND
  0
LINE
  8
Layer2
  6
CENTER1
 62
7
 10
419.654
 20
175.629
 11
467.734
 21
175.629
  0
LINE
  8
Layer2
  6
CONTINUOUS
 62
7
 10
430.264
 20
181.129
 11
430.264
 21
170.129
  0
LINE
  8
Layer2
  6
CONTINUOUS
 62
7
 10
422.264
 20
181.129
 11
430.264
 21
181.129
  0
LINE
  8
Layer2
  6
CONTINUOUS
 62
7
 10
422.264
 20
170.129
 11
430.264
 21
170.129
  0
LINE
  8
Layer2
  6
CONTINUOUS
 62
7
 10
424.764
 20
170.629
 11
430.264
 21
170.629
  0
LINE
  8
Layer2
  6
CONTINUOUS
 62
7
 10
424.764
 20
180.629
 11
430.264
 21
180.629
  0
LINE
  8
Layer2
  6
CONTINUOUS
 62
7
 10
424.264
 20
171.129
 11
424.764
 21
170.629
  0
LINE
  8
Layer2
  6
CONTINUOUS
 62
7
 10
424.264
 20
180.129
 11
424.764
 21
180.629
  0
LINE
  8
Layer2
  6
CONTINUOUS
 62
7
 10
424.764
 20
170.629
 11
424.764
 21
180.629
  0
LINE
  8
Layer2
  6
CONTINUOUS
 62
7
 10
430.264
 20
170.629
 11
430.264
 21
180.629
  0
LINE
  8
Layer2
  6
CONTINUOUS
 62
7
 10
446.46
 20
172.629
 11
430.263
 21
172.629
  0
LINE
  8
Layer2
  6
CONTINUOUS
 62
7
 10
448.057
 20
178.629
 11
430.261
 21
178.629
  0
LINE
  8
Layer2
  6
CONTINUOUS
 62
7
 10
448.068
 20
178.129
 11
431.13
 21
178.129
  0
LINE
  8
Layer2
  6
CONTINUOUS
 62
7
 10
446.821
 20
173.129
 11
431.13
 21
173.129
  0
LINE
  8
Layer2
  6
CONTINUOUS
 62
7
 10
430.264
 20
178.629
 11
431.13
 21
178.129
  0
LINE
  8
Layer2
  6
CONTINUOUS
 62
7
 10
430.264
 20
172.629
 11
431.13
 21
173.129
  0
LINE
  8
Layer2
  6
CONTINUOUS
 62
7
 10
431.13
 20
172.629
 11
431.13
 21
178.632
  0
LINE
  8
Layer2
  6
DASHED1
 62
7
 10
464.764
 20
172.629
 11
446.318
 21
172.629
  0
LINE
  8
Layer2
  6
DASHED1
 62
7
 10
465.264
 20
173.129
 11
447.095
 21
173.129
  0
LINE
  8
Layer2
  6
DASHED1
 62
7
 10
465.264
 20
178.129
 11
448.068
 21
178.129
  0
LINE
  8
Layer2
  6
DASHED1
 62
7
 10
464.764
 20
178.629
 11
448.053
 21
178.629
  0
LINE
  8
Layer2
  6
DASHED1
 62
7
 10
464.764
 20
178.629
 11
465.264
 21
178.129
  0
LINE
  8
Layer2
  6
DASHED1
 62
7
 10
465.264
 20
173.129
 11
465.264
 21
178.129
  0
LINE
  8
Layer2
  6
DASHED1
 62
7
 10
464.764
 20
172.629
 11
464.764
 21
178.629
  0
LINE
  8
Layer2
  6
DASHED1
 62
7
 10
465.264
 20
173.129
 11
464.764
 21
172.629
  0
LINE
  8
Layer2
  6
CONTINUOUS
 62
7
 10
424.264
 20
180.129
 11
424.264
 21
171.129
  0
TEXT
  8
Layer2
 62
7
 10
210.729
 20
62.3252
 72
1
 11
210.729
 21
62.3252
 40
6
 41
1
  1
 50 
  0
LINE
  8
Layer2
  6
CONTINUOUS
 62
7
 10
185.312
 20
107.129
 11
185.312
 21
60.1601
  0
LINE
  8
Layer2
  6
CONTINUOUS
 62
7
 10
235.312
 20
107.129
 11
235.312
 21
60.1601
  0
POLYLINE
  8
Layer2
  6
CONTINUOUS
 62
7
 66
1
 10
0
 20
0
 30
0
  0
VERTEX
  8
Layer2
 10
185.312
 20
62.1601
  0
VERTEX
  8
Layer2
 10
235.312
 20
62.1601
  0
SEQEND
  0
POLYLINE
  8
Layer2
  6
CONTINUOUS
 62
7
 66
1
 10
0
 20
0
 30
0
  0
VERTEX
  8
Layer2
 10
188.209
 20
61.3836
  0
VERTEX
  8
Layer2
 10
185.312
 20
62.1601
  0
VERTEX
  8
Layer2
 10
188.209
 20
62.9366
  0
SEQEND
  0
POLYLINE
  8
Layer2
  6
CONTINUOUS
 62
7
 66
1
 10
0
 20
0
 30
0
  0
VERTEX
  8
Layer2
 10
232.414
 20
62.9366
  0
VERTEX
  8
Layer2
 10
235.312
 20
62.1601
  0
VERTEX
  8
Layer2
 10
232.414
 20
61.3836
  0
SEQEND
  0
LINE
  8
Layer2
  6
CENTER1
 62
7
 10
200.094
 20
99.1292
 11
219.304
 21
99.1292
  0
ENDSEC
  0
EOF
