  0
SECTION
  2
HEADER
  9
$EXTMIN
 10
0
 20
0
  9
$EXTMAX
 10
841
 20
594
  9
$LTSCALE
 40
1
  9
$LIMMIN
 10
0
 20
0
  9
$LIMMAX
 10
841
 20
594
  9
$DIMSCALE
 40
1
  0
ENDSEC
  0
SECTION
  2
TABLES
  0
TABLE
  2
LTYPE
 70
9
  0
LTYPE
  2
CONTINUOUS
 70
64
  3
----------
 72
65
 73
0
 40
0
  0
LTYPE
  2
DASHED1
 70
64
  3
--  --  --  --  --  --  --  --  
 72
65
 73
2
 40
2.5
 49
1.25
 49
-1.25
  0
LTYPE
  2
DASHED2
 70
64
  3
----    ----    ----    ----    
 72
65
 73
2
 40
5
 49
2.5
 49
-2.5
  0
LTYPE
  2
DASHED3
 70
64
  3
------  ------  ------  ------  
 72
65
 73
2
 40
5
 49
3.75
 49
-1.25
  0
LTYPE
  2
CENTER1
 70
64
  3
----- - ----- - ----- - ----- - 
 72
65
 73
4
 40
7.5
 49
3.75
 49
-1.25
 49
1.25
 49
-1.25
  0
LTYPE
  2
CENTER2
 70
64
  3
----------  --  ----------  --  
 72
65
 73
4
 40
13.75
 49
6.25
 49
-2.5
 49
2.5
 49
-2.5
  0
LTYPE
  2
PHANTOM1
 70
64
  3
--- - - --- - - --- - - --- - - 
 72
65
 73
6
 40
9.5
 49
3.25
 49
-1.25
 49
1.25
 49
-1.25
 49
1.25
 49
-1.25
  0
LTYPE
  2
PHANTOM2
 70
64
  3
--------  -  -  --------  -  -  
 72
65
 73
6
 40
18
 49
8
 49
-2.5
 49
1.25
 49
-2.5
 49
1.25
 49
-2.5
  0
LTYPE
  2
DOT
 70
64
  3
-   -   -   -   -   -   -   -   
 72
65
 73
2
 40
2.5
 49
0.625
 49
-1.875
  0
LTYPE
  2
HOJO
 70
64
  3
-   -   -   -   -   -   -   -   
 72
65
 73
2
 40
2.5
 49
0.625
 49
-1.875
  0
ENDTAB
  0
TABLE
  2
STYLE
 70
2
  0
STYLE
  2
STANDARD
 70
64
 40
0
 41
1
 42
0
 50
0
 71
0
  3
TXT
  4
BIGFONT
  0
STYLE
  2
TATEGAKI
 70
68
 40
0
 41
1
 42
0
 50
0
 71
0
  3
TXT
  4
EXTFONT
  0
ENDTAB
  0
TABLE
  2
LAYER
 70
1
  0
LAYER
  2
Layer2
 70
64
 62
7
  6
CONTINUOUS
  0
ENDTAB
  0
ENDSEC
  0
SECTION
  2
ENTITIES
  0
LINE
  8
Layer2
  6
CONTINUOUS
 62
7
 10
94.1469
 20
56.5663
 11
282.147
 21
56.5663
  0
LINE
  8
Layer2
  6
CONTINUOUS
 62
7
 10
94.1469
 20
79.5663
 11
110.647
 21
79.5663
  0
LINE
  8
Layer2
  6
CENTER1
 62
7
 10
131.042
 20
116.566
 11
258.036
 21
116.566
  0
LINE
  8
Layer2
  6
CONTINUOUS
 62
7
 10
259.647
 20
154.066
 11
239.147
 21
154.066
  0
LINE
  8
Layer2
  6
CONTINUOUS
 62
7
 10
259.647
 20
171.066
 11
116.647
 21
171.066
  0
LINE
  8
Layer2
  6
CENTER1
 62
7
 10
188.147
 20
48.2639
 11
188.147
 21
251.997
  0
LINE
  8
Layer2
  6
CONTINUOUS
 62
7
 10
238.147
 20
79.0663
 11
138.147
 21
79.0663
  0
LINE
  8
Layer2
  6
CONTINUOUS
 62
7
 10
282.147
 20
79.5663
 11
265.647
 21
79.5663
  0
LINE
  8
Layer2
  6
CONTINUOUS
 62
7
 10
259.647
 20
247.166
 11
116.647
 21
247.166
  0
LINE
  8
Layer2
  6
CONTINUOUS
 62
7
 10
116.647
 20
231.166
 11
133.147
 21
231.166
  0
LINE
  8
Layer2
  6
DASHED1
 62
7
 10
140.147
 20
132.166
 11
179.147
 21
132.166
  0
LINE
  8
Layer2
  6
CONTINUOUS
 62
7
 10
259.647
 20
231.166
 11
243.147
 21
231.166
  0
LINE
  8
Layer2
  6
CONTINUOUS
 62
7
 10
474.322
 20
168.549
 11
465.866
 21
160.093
  0
LINE
  8
Layer2
  6
CONTINUOUS
 62
7
 10
479.822
 20
171.066
 11
479.822
 21
163.866
  0
LINE
  8
Layer2
  6
CONTINUOUS
 62
7
 10
474.822
 20
171.066
 11
474.822
 21
163.866
  0
LINE
  8
Layer2
  6
CONTINUOUS
 62
7
 10
474.281
 20
171.066
 11
474.281
 21
160.064
  0
LINE
  8
Layer2
  6
CONTINUOUS
 62
7
 10
480.322
 20
171.066
 11
480.322
 21
160.055
  0
LINE
  8
Layer2
  6
CONTINUOUS
 62
7
 10
184.204
 20
177.833
 11
192.049
 21
177.833
  0
LINE
  8
Layer2
  6
CONTINUOUS
 62
7
 10
183.876
 20
177.23
 11
192.35
 21
177.23
  0
LINE
  8
Layer2
  6
CONTINUOUS
 62
7
 10
183.781
 20
173.85
 11
192.23
 21
173.85
  0
LINE
  8
Layer2
  6
CONTINUOUS
 62
7
 10
192.954
 20
173.126
 11
183.057
 21
173.126
  0
LINE
  8
Layer2
  6
CONTINUOUS
 62
7
 10
192.954
 20
173.126
 11
192.954
 21
171.255
  0
LINE
  8
Layer2
  6
CONTINUOUS
 62
7
 10
183.057
 20
173.126
 11
183.057
 21
171.255
  0
POLYLINE
  8
Layer2
  6
CONTINUOUS
 62
7
 66
1
 10
0
 20
0
 30
0
  0
VERTEX
  8
Layer2
 10
187.999
 20
175.047
  0
VERTEX
  8
Layer2
 10
187.933
 20
175.104
  0
VERTEX
  8
Layer2
 10
187.867
 20
175.159
  0
VERTEX
  8
Layer2
 10
187.798
 20
175.212
  0
VERTEX
  8
Layer2
 10
187.729
 20
175.264
  0
VERTEX
  8
Layer2
 10
187.658
 20
175.314
  0
VERTEX
  8
Layer2
 10
187.586
 20
175.362
  0
VERTEX
  8
Layer2
 10
187.513
 20
175.409
  0
VERTEX
  8
Layer2
 10
187.438
 20
175.453
  0
VERTEX
  8
Layer2
 10
187.362
 20
175.495
  0
VERTEX
  8
Layer2
 10
187.286
 20
175.536
  0
VERTEX
  8
Layer2
 10
187.208
 20
175.574
  0
VERTEX
  8
Layer2
 10
187.129
 20
175.611
  0
VERTEX
  8
Layer2
 10
187.05
 20
175.645
  0
VERTEX
  8
Layer2
 10
186.969
 20
175.677
  0
VERTEX
  8
Layer2
 10
186.888
 20
175.707
  0
VERTEX
  8
Layer2
 10
186.806
 20
175.735
  0
VERTEX
  8
Layer2
 10
186.723
 20
175.761
  0
VERTEX
  8
Layer2
 10
186.64
 20
175.785
  0
VERTEX
  8
Layer2
 10
186.556
 20
175.807
  0
VERTEX
  8
Layer2
 10
186.471
 20
175.826
  0
VERTEX
  8
Layer2
 10
186.386
 20
175.844
  0
VERTEX
  8
Layer2
 10
186.301
 20
175.859
  0
VERTEX
  8
Layer2
 10
186.215
 20
175.871
  0
VERTEX
  8
Layer2
 10
186.129
 20
175.882
  0
VERTEX
  8
Layer2
 10
186.043
 20
175.89
  0
VERTEX
  8
Layer2
 10
185.956
 20
175.897
  0
VERTEX
  8
Layer2
 10
185.87
 20
175.9
  0
VERTEX
  8
Layer2
 10
185.783
 20
175.902
  0
VERTEX
  8
Layer2
 10
185.696
 20
175.902
  0
VERTEX
  8
Layer2
 10
185.609
 20
175.899
  0
VERTEX
  8
Layer2
 10
185.523
 20
175.894
  0
VERTEX
  8
Layer2
 10
185.436
 20
175.886
  0
VERTEX
  8
Layer2
 10
185.35
 20
175.877
  0
VERTEX
  8
Layer2
 10
185.264
 20
175.865
  0
VERTEX
  8
Layer2
 10
185.179
 20
175.851
  0
VERTEX
  8
Layer2
 10
185.094
 20
175.835
  0
VERTEX
  8
Layer2
 10
185.009
 20
175.817
  0
VERTEX
  8
Layer2
 10
184.925
 20
175.796
  0
VERTEX
  8
Layer2
 10
184.841
 20
175.773
  0
VERTEX
  8
Layer2
 10
184.758
 20
175.748
  0
VERTEX
  8
Layer2
 10
184.676
 20
175.721
  0
VERTEX
  8
Layer2
 10
184.594
 20
175.692
  0
VERTEX
  8
Layer2
 10
184.513
 20
175.661
  0
VERTEX
  8
Layer2
 10
184.433
 20
175.628
  0
VERTEX
  8
Layer2
 10
184.354
 20
175.592
  0
VERTEX
  8
Layer2
 10
184.276
 20
175.555
  0
VERTEX
  8
Layer2
 10
184.198
 20
175.515
  0
VERTEX
  8
Layer2
 10
184.122
 20
175.474
  0
SEQEND
  0
POLYLINE
  8
Layer2
  6
CONTINUOUS
 62
7
 66
1
 10
0
 20
0
 30
0
  0
VERTEX
  8
Layer2
 10
192.351
 20
175.419
  0
VERTEX
  8
Layer2
 10
192.264
 20
175.455
  0
VERTEX
  8
Layer2
 10
192.175
 20
175.488
  0
VERTEX
  8
Layer2
 10
192.087
 20
175.521
  0
VERTEX
  8
Layer2
 10
191.997
 20
175.551
  0
VERTEX
  8
Layer2
 10
191.907
 20
175.579
  0
VERTEX
  8
Layer2
 10
191.817
 20
175.606
  0
VERTEX
  8
Layer2
 10
191.725
 20
175.631
  0
VERTEX
  8
Layer2
 10
191.634
 20
175.654
  0
VERTEX
  8
Layer2
 10
191.542
 20
175.675
  0
VERTEX
  8
Layer2
 10
191.449
 20
175.694
  0
VERTEX
  8
Layer2
 10
191.357
 20
175.712
  0
VERTEX
  8
Layer2
 10
191.263
 20
175.727
  0
VERTEX
  8
Layer2
 10
191.17
 20
175.741
  0
VERTEX
  8
Layer2
 10
191.076
 20
175.753
  0
VERTEX
  8
Layer2
 10
190.982
 20
175.763
  0
VERTEX
  8
Layer2
 10
190.888
 20
175.771
  0
VERTEX
  8
Layer2
 10
190.794
 20
175.777
  0
VERTEX
  8
Layer2
 10
190.7
 20
175.782
  0
VERTEX
  8
Layer2
 10
190.605
 20
175.784
  0
VERTEX
  8
Layer2
 10
190.511
 20
175.785
  0
VERTEX
  8
Layer2
 10
190.417
 20
175.783
  0
VERTEX
  8
Layer2
 10
190.322
 20
175.78
  0
VERTEX
  8
Layer2
 10
190.228
 20
175.775
  0
VERTEX
  8
Layer2
 10
190.134
 20
175.768
  0
VERTEX
  8
Layer2
 10
190.04
 20
175.759
  0
VERTEX
  8
Layer2
 10
189.946
 20
175.749
  0
VERTEX
  8
Layer2
 10
189.852
 20
175.736
  0
VERTEX
  8
Layer2
 10
189.759
 20
175.722
  0
VERTEX
  8
Layer2
 10
189.666
 20
175.705
  0
VERTEX
  8
Layer2
 10
189.573
 20
175.687
  0
VERTEX
  8
Layer2
 10
189.481
 20
175.667
  0
VERTEX
  8
Layer2
 10
189.389
 20
175.645
  0
VERTEX
  8
Layer2
 10
189.298
 20
175.621
  0
VERTEX
  8
Layer2
 10
189.207
 20
175.596
  0
VERTEX
  8
Layer2
 10
189.116
 20
175.569
  0
VERTEX
  8
Layer2
 10
189.027
 20
175.539
  0
VERTEX
  8
Layer2
 10
188.937
 20
175.509
  0
VERTEX
  8
Layer2
 10
188.849
 20
175.476
  0
VERTEX
  8
Layer2
 10
188.761
 20
175.441
  0
VERTEX
  8
Layer2
 10
188.674
 20
175.405
  0
VERTEX
  8
Layer2
 10
188.587
 20
175.367
  0
VERTEX
  8
Layer2
 10
188.501
 20
175.327
  0
VERTEX
  8
Layer2
 10
188.417
 20
175.286
  0
VERTEX
  8
Layer2
 10
188.333
 20
175.243
  0
VERTEX
  8
Layer2
 10
188.249
 20
175.198
  0
VERTEX
  8
Layer2
 10
188.167
 20
175.152
  0
VERTEX
  8
Layer2
 10
188.086
 20
175.104
  0
VERTEX
  8
Layer2
 10
188.006
 20
175.054
  0
SEQEND
  0
LINE
  8
Layer2
  6
CONTINUOUS
 62
7
 10
184.468
 20
175.643
 11
184.134
 21
175.453
  0
LINE
  8
Layer2
  6
CONTINUOUS
 62
7
 10
184.204
 20
177.833
 11
183.344
 21
176.25
  0
LINE
  8
Layer2
  6
CONTINUOUS
 62
7
 10
192.049
 20
177.833
 11
192.936
 21
176.018
  0
LINE
  8
Layer2
  6
CONTINUOUS
 62
7
 10
191.867
 20
175.563
 11
192.351
 21
175.419
  0
POLYLINE
  8
Layer2
  6
CONTINUOUS
 62
7
 66
1
 10
0
 20
0
 30
0
  0
VERTEX
  8
Layer2
 10
183.344
 20
176.25
  0
VERTEX
  8
Layer2
 10
183.329
 20
176.222
  0
VERTEX
  8
Layer2
 10
183.316
 20
176.193
  0
VERTEX
  8
Layer2
 10
183.304
 20
176.164
  0
VERTEX
  8
Layer2
 10
183.293
 20
176.134
  0
VERTEX
  8
Layer2
 10
183.285
 20
176.104
  0
VERTEX
  8
Layer2
 10
183.277
 20
176.073
  0
VERTEX
  8
Layer2
 10
183.272
 20
176.042
  0
VERTEX
  8
Layer2
 10
183.268
 20
176.01
  0
VERTEX
  8
Layer2
 10
183.266
 20
175.979
  0
VERTEX
  8
Layer2
 10
183.266
 20
175.947
  0
VERTEX
  8
Layer2
 10
183.267
 20
175.916
  0
VERTEX
  8
Layer2
 10
183.271
 20
175.884
  0
VERTEX
  8
Layer2
 10
183.275
 20
175.853
  0
VERTEX
  8
Layer2
 10
183.282
 20
175.822
  0
VERTEX
  8
Layer2
 10
183.29
 20
175.791
  0
VERTEX
  8
Layer2
 10
183.3
 20
175.761
  0
VERTEX
  8
Layer2
 10
183.312
 20
175.732
  0
VERTEX
  8
Layer2
 10
183.325
 20
175.703
  0
VERTEX
  8
Layer2
 10
183.339
 20
175.675
  0
VERTEX
  8
Layer2
 10
183.356
 20
175.648
  0
VERTEX
  8
Layer2
 10
183.373
 20
175.621
  0
VERTEX
  8
Layer2
 10
183.392
 20
175.596
  0
VERTEX
  8
Layer2
 10
183.413
 20
175.572
  0
VERTEX
  8
Layer2
 10
183.434
 20
175.549
  0
VERTEX
  8
Layer2
 10
183.457
 20
175.527
  0
VERTEX
  8
Layer2
 10
183.481
 20
175.506
  0
VERTEX
  8
Layer2
 10
183.506
 20
175.487
  0
VERTEX
  8
Layer2
 10
183.532
 20
175.469
  0
VERTEX
  8
Layer2
 10
183.559
 20
175.453
  0
VERTEX
  8
Layer2
 10
183.587
 20
175.438
  0
VERTEX
  8
Layer2
 10
183.616
 20
175.425
  0
VERTEX
  8
Layer2
 10
183.645
 20
175.413
  0
VERTEX
  8
Layer2
 10
183.675
 20
175.403
  0
VERTEX
  8
Layer2
 10
183.706
 20
175.394
  0
VERTEX
  8
Layer2
 10
183.737
 20
175.387
  0
VERTEX
  8
Layer2
 10
183.768
 20
175.382
  0
VERTEX
  8
Layer2
 10
183.799
 20
175.379
  0
VERTEX
  8
Layer2
 10
183.831
 20
175.377
  0
VERTEX
  8
Layer2
 10
183.862
 20
175.377
  0
VERTEX
  8
Layer2
 10
183.894
 20
175.379
  0
VERTEX
  8
Layer2
 10
183.925
 20
175.382
  0
VERTEX
  8
Layer2
 10
183.957
 20
175.387
  0
VERTEX
  8
Layer2
 10
183.988
 20
175.394
  0
VERTEX
  8
Layer2
 10
184.018
 20
175.403
  0
VERTEX
  8
Layer2
 10
184.048
 20
175.413
  0
VERTEX
  8
Layer2
 10
184.077
 20
175.424
  0
VERTEX
  8
Layer2
 10
184.106
 20
175.438
  0
VERTEX
  8
Layer2
 10
184.134
 20
175.453
  0
SEQEND
  0
POLYLINE
  8
Layer2
  6
CONTINUOUS
 62
7
 66
1
 10
0
 20
0
 30
0
  0
VERTEX
  8
Layer2
 10
192.351
 20
175.419
  0
VERTEX
  8
Layer2
 10
192.372
 20
175.413
  0
VERTEX
  8
Layer2
 10
192.393
 20
175.409
  0
VERTEX
  8
Layer2
 10
192.414
 20
175.405
  0
VERTEX
  8
Layer2
 10
192.435
 20
175.402
  0
VERTEX
  8
Layer2
 10
192.456
 20
175.4
  0
VERTEX
  8
Layer2
 10
192.478
 20
175.4
  0
VERTEX
  8
Layer2
 10
192.499
 20
175.4
  0
VERTEX
  8
Layer2
 10
192.52
 20
175.401
  0
VERTEX
  8
Layer2
 10
192.542
 20
175.403
  0
VERTEX
  8
Layer2
 10
192.563
 20
175.406
  0
VERTEX
  8
Layer2
 10
192.584
 20
175.41
  0
VERTEX
  8
Layer2
 10
192.605
 20
175.415
  0
VERTEX
  8
Layer2
 10
192.625
 20
175.421
  0
VERTEX
  8
Layer2
 10
192.646
 20
175.427
  0
VERTEX
  8
Layer2
 10
192.666
 20
175.435
  0
VERTEX
  8
Layer2
 10
192.685
 20
175.444
  0
VERTEX
  8
Layer2
 10
192.704
 20
175.453
  0
VERTEX
  8
Layer2
 10
192.723
 20
175.463
  0
VERTEX
  8
Layer2
 10
192.741
 20
175.475
  0
VERTEX
  8
Layer2
 10
192.759
 20
175.486
  0
VERTEX
  8
Layer2
 10
192.776
 20
175.499
  0
VERTEX
  8
Layer2
 10
192.793
 20
175.513
  0
VERTEX
  8
Layer2
 10
192.809
 20
175.527
  0
VERTEX
  8
Layer2
 10
192.824
 20
175.542
  0
VERTEX
  8
Layer2
 10
192.839
 20
175.558
  0
VERTEX
  8
Layer2
 10
192.853
 20
175.574
  0
VERTEX
  8
Layer2
 10
192.866
 20
175.591
  0
VERTEX
  8
Layer2
 10
192.878
 20
175.608
  0
VERTEX
  8
Layer2
 10
192.89
 20
175.626
  0
VERTEX
  8
Layer2
 10
192.901
 20
175.645
  0
VERTEX
  8
Layer2
 10
192.91
 20
175.664
  0
VERTEX
  8
Layer2
 10
192.919
 20
175.683
  0
VERTEX
  8
Layer2
 10
192.928
 20
175.703
  0
VERTEX
  8
Layer2
 10
192.935
 20
175.723
  0
VERTEX
  8
Layer2
 10
192.941
 20
175.744
  0
VERTEX
  8
Layer2
 10
192.946
 20
175.764
  0
VERTEX
  8
Layer2
 10
192.951
 20
175.785
  0
VERTEX
  8
Layer2
 10
192.954
 20
175.806
  0
VERTEX
  8
Layer2
 10
192.957
 20
175.828
  0
VERTEX
  8
Layer2
 10
192.958
 20
175.849
  0
VERTEX
  8
Layer2
 10
192.959
 20
175.87
  0
VERTEX
  8
Layer2
 10
192.959
 20
175.892
  0
VERTEX
  8
Layer2
 10
192.957
 20
175.913
  0
VERTEX
  8
Layer2
 10
192.955
 20
175.934
  0
VERTEX
  8
Layer2
 10
192.952
 20
175.956
  0
VERTEX
  8
Layer2
 10
192.947
 20
175.977
  0
VERTEX
  8
Layer2
 10
192.942
 20
175.997
  0
VERTEX
  8
Layer2
 10
192.936
 20
176.018
  0
SEQEND
  0
LINE
  8
Layer2
  6
CONTINUOUS
 62
7
 10
191.073
 20
175.753
 11
191.073
 21
173.85
  0
LINE
  8
Layer2
  6
CONTINUOUS
 62
7
 10
184.928
 20
175.797
 11
184.928
 21
173.85
  0
LINE
  8
Layer2
  6
CONTINUOUS
 62
7
 10
183.781
 20
173.85
 11
183.057
 21
173.126
  0
LINE
  8
Layer2
  6
CONTINUOUS
 62
7
 10
192.23
 20
173.85
 11
192.954
 21
173.126
  0
LINE
  8
Layer2
  6
CONTINUOUS
 62
7
 10
472.96
 20
180.236
 11
481.863
 21
180.236
  0
LINE
  8
Layer2
  6
CONTINUOUS
 62
7
 10
472.96
 20
177.921
 11
480.794
 21
177.921
  0
LINE
  8
Layer2
  6
CONTINUOUS
 62
7
 10
481.863
 20
180.236
 11
483.287
 21
178.574
  0
LINE
  8
Layer2
  6
CONTINUOUS
 62
7
 10
483.287
 20
177.921
 11
483.287
 21
178.574
  0
POLYLINE
  8
Layer2
  6
CONTINUOUS
 62
7
 66
1
 10
0
 20
0
 30
0
  0
VERTEX
  8
Layer2
 10
480.794
 20
177.921
  0
VERTEX
  8
Layer2
 10
480.796
 20
177.839
  0
VERTEX
  8
Layer2
 10
480.803
 20
177.757
  0
VERTEX
  8
Layer2
 10
480.816
 20
177.676
  0
VERTEX
  8
Layer2
 10
480.834
 20
177.596
  0
VERTEX
  8
Layer2
 10
480.857
 20
177.517
  0
VERTEX
  8
Layer2
 10
480.886
 20
177.44
  0
VERTEX
  8
Layer2
 10
480.919
 20
177.365
  0
VERTEX
  8
Layer2
 10
480.957
 20
177.292
  0
VERTEX
  8
Layer2
 10
481
 20
177.222
  0
VERTEX
  8
Layer2
 10
481.047
 20
177.155
  0
VERTEX
  8
Layer2
 10
481.099
 20
177.091
  0
VERTEX
  8
Layer2
 10
481.155
 20
177.031
  0
VERTEX
  8
Layer2
 10
481.215
 20
176.975
  0
VERTEX
  8
Layer2
 10
481.278
 20
176.922
  0
VERTEX
  8
Layer2
 10
481.344
 20
176.874
  0
VERTEX
  8
Layer2
 10
481.414
 20
176.831
  0
VERTEX
  8
Layer2
 10
481.486
 20
176.792
  0
VERTEX
  8
Layer2
 10
481.561
 20
176.758
  0
VERTEX
  8
Layer2
 10
481.638
 20
176.729
  0
VERTEX
  8
Layer2
 10
481.716
 20
176.705
  0
VERTEX
  8
Layer2
 10
481.796
 20
176.686
  0
VERTEX
  8
Layer2
 10
481.877
 20
176.672
  0
VERTEX
  8
Layer2
 10
481.959
 20
176.664
  0
VERTEX
  8
Layer2
 10
482.041
 20
176.662
  0
VERTEX
  8
Layer2
 10
482.123
 20
176.664
  0
VERTEX
  8
Layer2
 10
482.204
 20
176.672
  0
VERTEX
  8
Layer2
 10
482.285
 20
176.686
  0
VERTEX
  8
Layer2
 10
482.365
 20
176.705
  0
VERTEX
  8
Layer2
 10
482.444
 20
176.729
  0
VERTEX
  8
Layer2
 10
482.521
 20
176.758
  0
VERTEX
  8
Layer2
 10
482.595
 20
176.792
  0
VERTEX
  8
Layer2
 10
482.668
 20
176.831
  0
VERTEX
  8
Layer2
 10
482.737
 20
176.874
  0
VERTEX
  8
Layer2
 10
482.804
 20
176.922
  0
VERTEX
  8
Layer2
 10
482.867
 20
176.975
  0
VERTEX
  8
Layer2
 10
482.927
 20
177.031
  0
VERTEX
  8
Layer2
 10
482.982
 20
177.091
  0
VERTEX
  8
Layer2
 10
483.034
 20
177.155
  0
VERTEX
  8
Layer2
 10
483.082
 20
177.222
  0
VERTEX
  8
Layer2
 10
483.124
 20
177.292
  0
VERTEX
  8
Layer2
 10
483.163
 20
177.365
  0
VERTEX
  8
Layer2
 10
483.196
 20
177.44
  0
VERTEX
  8
Layer2
 10
483.224
 20
177.517
  0
VERTEX
  8
Layer2
 10
483.247
 20
177.596
  0
VERTEX
  8
Layer2
 10
483.265
 20
177.676
  0
VERTEX
  8
Layer2
 10
483.278
 20
177.757
  0
VERTEX
  8
Layer2
 10
483.285
 20
177.839
  0
VERTEX
  8
Layer2
 10
483.287
 20
177.921
  0
SEQEND
  0
LINE
  8
Layer2
  6
CONTINUOUS
 62
7
 10
472.96
 20
180.236
 11
470.546
 21
177.707
  0
LINE
  8
Layer2
  6
CONTINUOUS
 62
7
 10
472.96
 20
177.921
 11
471.535
 21
176.674
  0
POLYLINE
  8
Layer2
  6
CONTINUOUS
 62
7
 66
1
 10
0
 20
0
 30
0
  0
VERTEX
  8
Layer2
 10
470.546
 20
177.707
  0
VERTEX
  8
Layer2
 10
470.516
 20
177.673
  0
VERTEX
  8
Layer2
 10
470.488
 20
177.638
  0
VERTEX
  8
Layer2
 10
470.462
 20
177.6
  0
VERTEX
  8
Layer2
 10
470.439
 20
177.561
  0
VERTEX
  8
Layer2
 10
470.418
 20
177.521
  0
VERTEX
  8
Layer2
 10
470.4
 20
177.479
  0
VERTEX
  8
Layer2
 10
470.384
 20
177.436
  0
VERTEX
  8
Layer2
 10
470.371
 20
177.393
  0
VERTEX
  8
Layer2
 10
470.361
 20
177.348
  0
VERTEX
  8
Layer2
 10
470.354
 20
177.303
  0
VERTEX
  8
Layer2
 10
470.35
 20
177.258
  0
VERTEX
  8
Layer2
 10
470.349
 20
177.212
  0
VERTEX
  8
Layer2
 10
470.35
 20
177.167
  0
VERTEX
  8
Layer2
 10
470.354
 20
177.122
  0
VERTEX
  8
Layer2
 10
470.362
 20
177.077
  0
VERTEX
  8
Layer2
 10
470.372
 20
177.032
  0
VERTEX
  8
Layer2
 10
470.385
 20
176.989
  0
VERTEX
  8
Layer2
 10
470.4
 20
176.946
  0
VERTEX
  8
Layer2
 10
470.418
 20
176.904
  0
VERTEX
  8
Layer2
 10
470.439
 20
176.864
  0
VERTEX
  8
Layer2
 10
470.463
 20
176.825
  0
VERTEX
  8
Layer2
 10
470.489
 20
176.788
  0
VERTEX
  8
Layer2
 10
470.517
 20
176.752
  0
VERTEX
  8
Layer2
 10
470.547
 20
176.718
  0
VERTEX
  8
Layer2
 10
470.58
 20
176.686
  0
VERTEX
  8
Layer2
 10
470.614
 20
176.657
  0
VERTEX
  8
Layer2
 10
470.65
 20
176.629
  0
VERTEX
  8
Layer2
 10
470.688
 20
176.604
  0
VERTEX
  8
Layer2
 10
470.728
 20
176.581
  0
VERTEX
  8
Layer2
 10
470.769
 20
176.561
  0
VERTEX
  8
Layer2
 10
470.811
 20
176.544
  0
VERTEX
  8
Layer2
 10
470.854
 20
176.529
  0
VERTEX
  8
Layer2
 10
470.898
 20
176.517
  0
VERTEX
  8
Layer2
 10
470.942
 20
176.508
  0
VERTEX
  8
Layer2
 10
470.987
 20
176.502
  0
VERTEX
  8
Layer2
 10
471.033
 20
176.498
  0
VERTEX
  8
Layer2
 10
471.078
 20
176.498
  0
VERTEX
  8
Layer2
 10
471.124
 20
176.5
  0
VERTEX
  8
Layer2
 10
471.169
 20
176.505
  0
VERTEX
  8
Layer2
 10
471.214
 20
176.513
  0
VERTEX
  8
Layer2
 10
471.258
 20
176.524
  0
VERTEX
  8
Layer2
 10
471.301
 20
176.538
  0
VERTEX
  8
Layer2
 10
471.344
 20
176.554
  0
VERTEX
  8
Layer2
 10
471.385
 20
176.573
  0
VERTEX
  8
Layer2
 10
471.425
 20
176.595
  0
VERTEX
  8
Layer2
 10
471.463
 20
176.619
  0
VERTEX
  8
Layer2
 10
471.5
 20
176.646
  0
VERTEX
  8
Layer2
 10
471.535
 20
176.674
  0
SEQEND
  0
LINE
  8
Layer2
  6
CONTINUOUS
 62
7
 10
474.281
 20
177.921
 11
474.281
 21
174.798
  0
LINE
  8
Layer2
  6
CONTINUOUS
 62
7
 10
480.191
 20
177.921
 11
480.191
 21
174.798
  0
LINE
  8
Layer2
  6
CONTINUOUS
 62
7
 10
475.087
 20
163.645
 11
479.475
 21
163.645
  0
LINE
  8
Layer2
  6
CONTINUOUS
 62
7
 10
474.281
 20
164.194
 11
480.281
 21
164.194
  0
LINE
  8
Layer2
  6
CONTINUOUS
 62
7
 10
475.087
 20
163.645
 11
474.281
 21
164.194
  0
LINE
  8
Layer2
  6
CONTINUOUS
 62
7
 10
479.475
 20
163.645
 11
480.281
 21
164.194
  0
LINE
  8
Layer2
  6
CONTINUOUS
 62
7
 10
482.392
 20
171.066
 11
482.392
 21
174.153
  0
LINE
  8
Layer2
  6
CONTINUOUS
 62
7
 10
482.392
 20
174.153
 11
481.273
 21
174.798
  0
LINE
  8
Layer2
  6
CONTINUOUS
 62
7
 10
481.273
 20
174.798
 11
473.371
 21
174.798
  0
LINE
  8
Layer2
  6
CONTINUOUS
 62
7
 10
473.371
 20
174.798
 11
472.253
 21
174.153
  0
LINE
  8
Layer2
  6
CONTINUOUS
 62
7
 10
472.253
 20
174.153
 11
472.253
 21
171.066
  0
LINE
  8
Layer2
  6
CONTINUOUS
 62
7
 10
479.857
 20
171.066
 11
479.857
 21
174.153
  0
LINE
  8
Layer2
  6
CONTINUOUS
 62
7
 10
474.788
 20
171.066
 11
474.788
 21
174.153
  0
POLYLINE
  8
Layer2
  6
CONTINUOUS
 62
7
 66
1
 10
0
 20
0
 30
0
  0
VERTEX
  8
Layer2
 10
479.857
 20
174.152
  0
VERTEX
  8
Layer2
 10
479.755
 20
174.184
  0
VERTEX
  8
Layer2
 10
479.652
 20
174.214
  0
VERTEX
  8
Layer2
 10
479.548
 20
174.244
  0
VERTEX
  8
Layer2
 10
479.445
 20
174.271
  0
VERTEX
  8
Layer2
 10
479.341
 20
174.298
  0
VERTEX
  8
Layer2
 10
479.237
 20
174.323
  0
VERTEX
  8
Layer2
 10
479.132
 20
174.347
  0
VERTEX
  8
Layer2
 10
479.027
 20
174.369
  0
VERTEX
  8
Layer2
 10
478.922
 20
174.39
  0
VERTEX
  8
Layer2
 10
478.816
 20
174.41
  0
VERTEX
  8
Layer2
 10
478.711
 20
174.429
  0
VERTEX
  8
Layer2
 10
478.605
 20
174.446
  0
VERTEX
  8
Layer2
 10
478.499
 20
174.461
  0
VERTEX
  8
Layer2
 10
478.392
 20
174.476
  0
VERTEX
  8
Layer2
 10
478.286
 20
174.489
  0
VERTEX
  8
Layer2
 10
478.179
 20
174.5
  0
VERTEX
  8
Layer2
 10
478.072
 20
174.511
  0
VERTEX
  8
Layer2
 10
477.965
 20
174.52
  0
VERTEX
  8
Layer2
 10
477.858
 20
174.527
  0
VERTEX
  8
Layer2
 10
477.751
 20
174.533
  0
VERTEX
  8
Layer2
 10
477.644
 20
174.538
  0
VERTEX
  8
Layer2
 10
477.537
 20
174.542
  0
VERTEX
  8
Layer2
 10
477.43
 20
174.544
  0
VERTEX
  8
Layer2
 10
477.322
 20
174.544
  0
VERTEX
  8
Layer2
 10
477.215
 20
174.544
  0
VERTEX
  8
Layer2
 10
477.108
 20
174.542
  0
VERTEX
  8
Layer2
 10
477
 20
174.538
  0
VERTEX
  8
Layer2
 10
476.893
 20
174.533
  0
VERTEX
  8
Layer2
 10
476.786
 20
174.527
  0
VERTEX
  8
Layer2
 10
476.679
 20
174.52
  0
VERTEX
  8
Layer2
 10
476.572
 20
174.511
  0
VERTEX
  8
Layer2
 10
476.465
 20
174.5
  0
VERTEX
  8
Layer2
 10
476.359
 20
174.489
  0
VERTEX
  8
Layer2
 10
476.252
 20
174.476
  0
VERTEX
  8
Layer2
 10
476.146
 20
174.461
  0
VERTEX
  8
Layer2
 10
476.04
 20
174.446
  0
VERTEX
  8
Layer2
 10
475.934
 20
174.429
  0
VERTEX
  8
Layer2
 10
475.828
 20
174.41
  0
VERTEX
  8
Layer2
 10
475.723
 20
174.39
  0
VERTEX
  8
Layer2
 10
475.618
 20
174.369
  0
VERTEX
  8
Layer2
 10
475.513
 20
174.347
  0
VERTEX
  8
Layer2
 10
475.408
 20
174.323
  0
VERTEX
  8
Layer2
 10
475.304
 20
174.298
  0
VERTEX
  8
Layer2
 10
475.2
 20
174.271
  0
VERTEX
  8
Layer2
 10
475.096
 20
174.244
  0
VERTEX
  8
Layer2
 10
474.993
 20
174.214
  0
VERTEX
  8
Layer2
 10
474.89
 20
174.184
  0
VERTEX
  8
Layer2
 10
474.787
 20
174.152
  0
SEQEND
  0
POLYLINE
  8
Layer2
  6
CONTINUOUS
 62
7
 66
1
 10
0
 20
0
 30
0
  0
VERTEX
  8
Layer2
 10
482.392
 20
174.152
  0
VERTEX
  8
Layer2
 10
482.345
 20
174.183
  0
VERTEX
  8
Layer2
 10
482.298
 20
174.213
  0
VERTEX
  8
Layer2
 10
482.249
 20
174.242
  0
VERTEX
  8
Layer2
 10
482.2
 20
174.27
  0
VERTEX
  8
Layer2
 10
482.151
 20
174.296
  0
VERTEX
  8
Layer2
 10
482.101
 20
174.321
  0
VERTEX
  8
Layer2
 10
482.05
 20
174.345
  0
VERTEX
  8
Layer2
 10
481.998
 20
174.367
  0
VERTEX
  8
Layer2
 10
481.946
 20
174.388
  0
VERTEX
  8
Layer2
 10
481.894
 20
174.408
  0
VERTEX
  8
Layer2
 10
481.841
 20
174.427
  0
VERTEX
  8
Layer2
 10
481.788
 20
174.444
  0
VERTEX
  8
Layer2
 10
481.734
 20
174.46
  0
VERTEX
  8
Layer2
 10
481.68
 20
174.475
  0
VERTEX
  8
Layer2
 10
481.625
 20
174.488
  0
VERTEX
  8
Layer2
 10
481.57
 20
174.5
  0
VERTEX
  8
Layer2
 10
481.515
 20
174.51
  0
VERTEX
  8
Layer2
 10
481.46
 20
174.519
  0
VERTEX
  8
Layer2
 10
481.404
 20
174.527
  0
VERTEX
  8
Layer2
 10
481.348
 20
174.533
  0
VERTEX
  8
Layer2
 10
481.292
 20
174.538
  0
VERTEX
  8
Layer2
 10
481.236
 20
174.542
  0
VERTEX
  8
Layer2
 10
481.18
 20
174.544
  0
VERTEX
  8
Layer2
 10
481.124
 20
174.544
  0
VERTEX
  8
Layer2
 10
481.068
 20
174.544
  0
VERTEX
  8
Layer2
 10
481.012
 20
174.542
  0
VERTEX
  8
Layer2
 10
480.956
 20
174.538
  0
VERTEX
  8
Layer2
 10
480.9
 20
174.533
  0
VERTEX
  8
Layer2
 10
480.844
 20
174.527
  0
VERTEX
  8
Layer2
 10
480.789
 20
174.519
  0
VERTEX
  8
Layer2
 10
480.733
 20
174.51
  0
VERTEX
  8
Layer2
 10
480.678
 20
174.5
  0
VERTEX
  8
Layer2
 10
480.623
 20
174.488
  0
VERTEX
  8
Layer2
 10
480.569
 20
174.475
  0
VERTEX
  8
Layer2
 10
480.515
 20
174.46
  0
VERTEX
  8
Layer2
 10
480.461
 20
174.444
  0
VERTEX
  8
Layer2
 10
480.407
 20
174.427
  0
VERTEX
  8
Layer2
 10
480.354
 20
174.408
  0
VERTEX
  8
Layer2
 10
480.302
 20
174.388
  0
VERTEX
  8
Layer2
 10
480.25
 20
174.367
  0
VERTEX
  8
Layer2
 10
480.199
 20
174.345
  0
VERTEX
  8
Layer2
 10
480.148
 20
174.321
  0
VERTEX
  8
Layer2
 10
480.098
 20
174.296
  0
VERTEX
  8
Layer2
 10
480.048
 20
174.27
  0
VERTEX
  8
Layer2
 10
479.999
 20
174.242
  0
VERTEX
  8
Layer2
 10
479.951
 20
174.213
  0
VERTEX
  8
Layer2
 10
479.903
 20
174.183
  0
VERTEX
  8
Layer2
 10
479.857
 20
174.152
  0
SEQEND
  0
POLYLINE
  8
Layer2
  6
CONTINUOUS
 62
7
 66
1
 10
0
 20
0
 30
0
  0
VERTEX
  8
Layer2
 10
474.788
 20
174.152
  0
VERTEX
  8
Layer2
 10
474.741
 20
174.183
  0
VERTEX
  8
Layer2
 10
474.694
 20
174.213
  0
VERTEX
  8
Layer2
 10
474.646
 20
174.242
  0
VERTEX
  8
Layer2
 10
474.597
 20
174.27
  0
VERTEX
  8
Layer2
 10
474.547
 20
174.296
  0
VERTEX
  8
Layer2
 10
474.497
 20
174.321
  0
VERTEX
  8
Layer2
 10
474.446
 20
174.345
  0
VERTEX
  8
Layer2
 10
474.395
 20
174.367
  0
VERTEX
  8
Layer2
 10
474.343
 20
174.388
  0
VERTEX
  8
Layer2
 10
474.29
 20
174.408
  0
VERTEX
  8
Layer2
 10
474.237
 20
174.427
  0
VERTEX
  8
Layer2
 10
474.184
 20
174.444
  0
VERTEX
  8
Layer2
 10
474.13
 20
174.46
  0
VERTEX
  8
Layer2
 10
474.076
 20
174.475
  0
VERTEX
  8
Layer2
 10
474.021
 20
174.488
  0
VERTEX
  8
Layer2
 10
473.966
 20
174.5
  0
VERTEX
  8
Layer2
 10
473.911
 20
174.51
  0
VERTEX
  8
Layer2
 10
473.856
 20
174.519
  0
VERTEX
  8
Layer2
 10
473.8
 20
174.527
  0
VERTEX
  8
Layer2
 10
473.744
 20
174.533
  0
VERTEX
  8
Layer2
 10
473.689
 20
174.538
  0
VERTEX
  8
Layer2
 10
473.633
 20
174.542
  0
VERTEX
  8
Layer2
 10
473.576
 20
174.544
  0
VERTEX
  8
Layer2
 10
473.52
 20
174.544
  0
VERTEX
  8
Layer2
 10
473.464
 20
174.544
  0
VERTEX
  8
Layer2
 10
473.408
 20
174.542
  0
VERTEX
  8
Layer2
 10
473.352
 20
174.538
  0
VERTEX
  8
Layer2
 10
473.296
 20
174.533
  0
VERTEX
  8
Layer2
 10
473.24
 20
174.527
  0
VERTEX
  8
Layer2
 10
473.185
 20
174.519
  0
VERTEX
  8
Layer2
 10
473.129
 20
174.51
  0
VERTEX
  8
Layer2
 10
473.074
 20
174.5
  0
VERTEX
  8
Layer2
 10
473.02
 20
174.488
  0
VERTEX
  8
Layer2
 10
472.965
 20
174.475
  0
VERTEX
  8
Layer2
 10
472.911
 20
174.46
  0
VERTEX
  8
Layer2
 10
472.857
 20
174.444
  0
VERTEX
  8
Layer2
 10
472.804
 20
174.427
  0
VERTEX
  8
Layer2
 10
472.751
 20
174.408
  0
VERTEX
  8
Layer2
 10
472.698
 20
174.388
  0
VERTEX
  8
Layer2
 10
472.646
 20
174.367
  0
VERTEX
  8
Layer2
 10
472.595
 20
174.345
  0
VERTEX
  8
Layer2
 10
472.544
 20
174.321
  0
VERTEX
  8
Layer2
 10
472.494
 20
174.296
  0
VERTEX
  8
Layer2
 10
472.444
 20
174.27
  0
VERTEX
  8
Layer2
 10
472.395
 20
174.242
  0
VERTEX
  8
Layer2
 10
472.347
 20
174.213
  0
VERTEX
  8
Layer2
 10
472.3
 20
174.183
  0
VERTEX
  8
Layer2
 10
472.253
 20
174.152
  0
SEQEND
  0
POLYLINE
  8
Layer2
  6
CONTINUOUS
 62
7
 66
1
 10
0
 20
0
 30
0
 70
1
  0
VERTEX
  8
Layer2
 10
482.587
 20
177.908
  0
VERTEX
  8
Layer2
 10
482.582
 20
177.979
  0
VERTEX
  8
Layer2
 10
482.568
 20
178.049
  0
VERTEX
  8
Layer2
 10
482.545
 20
178.117
  0
VERTEX
  8
Layer2
 10
482.514
 20
178.181
  0
VERTEX
  8
Layer2
 10
482.474
 20
178.241
  0
VERTEX
  8
Layer2
 10
482.427
 20
178.294
  0
VERTEX
  8
Layer2
 10
482.373
 20
178.341
  0
VERTEX
  8
Layer2
 10
482.314
 20
178.381
  0
VERTEX
  8
Layer2
 10
482.25
 20
178.413
  0
VERTEX
  8
Layer2
 10
482.182
 20
178.436
  0
VERTEX
  8
Layer2
 10
482.112
 20
178.449
  0
VERTEX
  8
Layer2
 10
482.041
 20
178.454
  0
VERTEX
  8
Layer2
 10
481.969
 20
178.449
  0
VERTEX
  8
Layer2
 10
481.899
 20
178.436
  0
VERTEX
  8
Layer2
 10
481.832
 20
178.413
  0
VERTEX
  8
Layer2
 10
481.768
 20
178.381
  0
VERTEX
  8
Layer2
 10
481.708
 20
178.341
  0
VERTEX
  8
Layer2
 10
481.655
 20
178.294
  0
VERTEX
  8
Layer2
 10
481.608
 20
178.241
  0
VERTEX
  8
Layer2
 10
481.568
 20
178.181
  0
VERTEX
  8
Layer2
 10
481.536
 20
178.117
  0
VERTEX
  8
Layer2
 10
481.513
 20
178.049
  0
VERTEX
  8
Layer2
 10
481.499
 20
177.979
  0
VERTEX
  8
Layer2
 10
481.495
 20
177.908
  0
VERTEX
  8
Layer2
 10
481.499
 20
177.837
  0
VERTEX
  8
Layer2
 10
481.513
 20
177.767
  0
VERTEX
  8
Layer2
 10
481.536
 20
177.699
  0
VERTEX
  8
Layer2
 10
481.568
 20
177.635
  0
VERTEX
  8
Layer2
 10
481.608
 20
177.576
  0
VERTEX
  8
Layer2
 10
481.655
 20
177.522
  0
VERTEX
  8
Layer2
 10
481.708
 20
177.475
  0
VERTEX
  8
Layer2
 10
481.768
 20
177.435
  0
VERTEX
  8
Layer2
 10
481.832
 20
177.404
  0
VERTEX
  8
Layer2
 10
481.899
 20
177.381
  0
VERTEX
  8
Layer2
 10
481.969
 20
177.367
  0
VERTEX
  8
Layer2
 10
482.041
 20
177.362
  0
VERTEX
  8
Layer2
 10
482.112
 20
177.367
  0
VERTEX
  8
Layer2
 10
482.182
 20
177.381
  0
VERTEX
  8
Layer2
 10
482.25
 20
177.404
  0
VERTEX
  8
Layer2
 10
482.314
 20
177.435
  0
VERTEX
  8
Layer2
 10
482.373
 20
177.475
  0
VERTEX
  8
Layer2
 10
482.427
 20
177.522
  0
VERTEX
  8
Layer2
 10
482.474
 20
177.576
  0
VERTEX
  8
Layer2
 10
482.514
 20
177.635
  0
VERTEX
  8
Layer2
 10
482.545
 20
177.699
  0
VERTEX
  8
Layer2
 10
482.568
 20
177.767
  0
VERTEX
  8
Layer2
 10
482.582
 20
177.837
  0
SEQEND
  0
LINE
  8
Layer2
  6
CONTINUOUS
 62
7
 10
472.253
 20
171.066
 11
482.392
 21
171.066
  0
LINE
  8
Layer2
  6
CONTINUOUS
 62
7
 10
492.839
 20
171.066
 11
481.836
 21
160.062
  0
LINE
  8
Layer2
  6
CONTINUOUS
 62
7
 10
496.839
 20
171.066
 11
485.879
 21
160.106
  0
LINE
  8
Layer2
  6
CONTINUOUS
 62
7
 10
488.839
 20
171.066
 11
480.322
 21
162.549
  0
LINE
  8
Layer2
  6
CONTINUOUS
 62
7
 10
490.822
 20
160.066
 11
463.822
 21
160.066
  0
LINE
  8
Layer2
  6
CONTINUOUS
 62
7
 10
472.839
 20
171.066
 11
458.544
 21
157.219
  0
LINE
  8
Layer2
  6
CONTINUOUS
 62
7
 10
462.322
 20
156.749
 11
459.639
 21
154.066
  0
LINE
  8
Layer2
  6
CONTINUOUS
 62
7
 10
468.839
 20
171.066
 11
467.072
 21
169.299
  0
LINE
  8
Layer2
  6
CONTINUOUS
 62
7
 10
464.402
 20
171.066
 11
458.577
 21
164.804
  0
LINE
  8
Layer2
  6
CONTINUOUS
 62
7
 10
460.839
 20
171.066
 11
457.545
 21
167.772
  0
LINE
  8
Layer2
  6
CONTINUOUS
 62
7
 10
492.322
 20
155.066
 11
492.322
 21
158.566
  0
LINE
  8
Layer2
  6
CONTINUOUS
 62
7
 10
462.322
 20
155.066
 11
462.322
 21
158.566
  0
LINE
  8
Layer2
  6
CONTINUOUS
 62
7
 10
484.839
 20
171.066
 11
480.322
 21
166.549
  0
ARC
  8
Layer2
  6
CONTINUOUS
 62
7
 10
490.822
 20
158.566
 40
1.5
 50
2.03555e-013
 51
90
  0
ARC
  8
Layer2
  6
CONTINUOUS
 62
7
 10
463.822
 20
158.566
 40
1.5
 50
90
 51
180
  0
LINE
  8
Layer2
  6
CONTINUOUS
 62
7
 10
493.322
 20
154.066
 11
498.192
 21
154.066
  0
LINE
  8
Layer2
  6
CONTINUOUS
 62
7
 10
461.322
 20
154.066
 11
458.611
 21
154.066
  0
ARC
  8
Layer2
  6
CONTINUOUS
 62
7
 10
493.322
 20
155.066
 40
1
 50
180
 51
270
  0
ARC
  8
Layer2
  6
CONTINUOUS
 62
7
 10
461.322
 20
155.066
 40
1
 50
270
 51
2.03555e-013
  0
LINE
  8
Layer2
  6
CONTINUOUS
 62
7
 10
467.072
 20
169.299
 11
458.413
 21
160.64
  0
LINE
  8
Layer2
  6
CONTINUOUS
 62
7
 10
479.822
 20
170.066
 11
479.822
 21
160.056
  0
LINE
  8
Layer2
  6
CONTINUOUS
 62
7
 10
474.822
 20
170.066
 11
474.822
 21
160.05
  0
LINE
  8
Layer2
  6
CONTINUOUS
 62
7
 10
474.322
 20
160.749
 11
473.639
 21
160.066
  0
LINE
  8
Layer2
  6
CONTINUOUS
 62
7
 10
480.322
 20
170.066
 11
474.322
 21
170.066
  0
LINE
  8
Layer2
  6
CONTINUOUS
 62
7
 10
474.322
 20
170.066
 11
473.322
 21
171.066
  0
LINE
  8
Layer2
  6
CONTINUOUS
 62
7
 10
471.322
 20
160.066
 11
474.281
 21
163.024
  0
LINE
  8
Layer2
  6
CONTINUOUS
 62
7
 10
477.322
 20
170.066
 11
477.322
 21
169.453
  0
LINE
  8
Layer2
  6
CONTINUOUS
 62
7
 10
492.541
 20
155.442
 11
508.379
 21
171.066
  0
LINE
  8
Layer2
  6
CONTINUOUS
 62
7
 10
500.839
 20
171.066
 11
489.839
 21
160.066
  0
POLYLINE
  8
Layer2
  6
CONTINUOUS
 62
7
 66
1
 10
0
 20
0
 30
0
  0
VERTEX
  8
Layer2
 10
456.803
 20
171.066
  0
VERTEX
  8
Layer2
 10
456.83
 20
170.851
  0
VERTEX
  8
Layer2
 10
456.856
 20
170.638
  0
VERTEX
  8
Layer2
 10
456.884
 20
170.424
  0
VERTEX
  8
Layer2
 10
456.912
 20
170.211
  0
VERTEX
  8
Layer2
 10
456.94
 20
169.997
  0
VERTEX
  8
Layer2
 10
456.97
 20
169.784
  0
VERTEX
  8
Layer2
 10
457.001
 20
169.57
  0
VERTEX
  8
Layer2
 10
457.033
 20
169.357
  0
VERTEX
  8
Layer2
 10
457.067
 20
169.144
  0
VERTEX
  8
Layer2
 10
457.102
 20
168.932
  0
VERTEX
  8
Layer2
 10
457.139
 20
168.719
  0
VERTEX
  8
Layer2
 10
457.177
 20
168.508
  0
VERTEX
  8
Layer2
 10
457.219
 20
168.295
  0
VERTEX
  8
Layer2
 10
457.262
 20
168.084
  0
VERTEX
  8
Layer2
 10
457.309
 20
167.873
  0
VERTEX
  8
Layer2
 10
457.358
 20
167.663
  0
VERTEX
  8
Layer2
 10
457.41
 20
167.453
  0
VERTEX
  8
Layer2
 10
457.465
 20
167.243
  0
VERTEX
  8
Layer2
 10
457.524
 20
167.034
  0
VERTEX
  8
Layer2
 10
457.585
 20
166.826
  0
VERTEX
  8
Layer2
 10
457.651
 20
166.617
  0
VERTEX
  8
Layer2
 10
457.719
 20
166.41
  0
VERTEX
  8
Layer2
 10
457.79
 20
166.203
  0
VERTEX
  8
Layer2
 10
457.863
 20
165.997
  0
VERTEX
  8
Layer2
 10
457.937
 20
165.791
  0
VERTEX
  8
Layer2
 10
458.01
 20
165.585
  0
VERTEX
  8
Layer2
 10
458.084
 20
165.379
  0
VERTEX
  8
Layer2
 10
458.156
 20
165.172
  0
VERTEX
  8
Layer2
 10
458.226
 20
164.966
  0
VERTEX
  8
Layer2
 10
458.294
 20
164.76
  0
VERTEX
  8
Layer2
 10
458.359
 20
164.553
  0
VERTEX
  8
Layer2
 10
458.42
 20
164.347
  0
VERTEX
  8
Layer2
 10
458.477
 20
164.14
  0
VERTEX
  8
Layer2
 10
458.528
 20
163.931
  0
VERTEX
  8
Layer2
 10
458.573
 20
163.723
  0
VERTEX
  8
Layer2
 10
458.613
 20
163.515
  0
VERTEX
  8
Layer2
 10
458.644
 20
163.306
  0
VERTEX
  8
Layer2
 10
458.668
 20
163.095
  0
VERTEX
  8
Layer2
 10
458.683
 20
162.885
  0
VERTEX
  8
Layer2
 10
458.689
 20
162.672
  0
VERTEX
  8
Layer2
 10
458.688
 20
162.46
  0
VERTEX
  8
Layer2
 10
458.681
 20
162.247
  0
VERTEX
  8
Layer2
 10
458.668
 20
162.033
  0
VERTEX
  8
Layer2
 10
458.65
 20
161.819
  0
VERTEX
  8
Layer2
 10
458.629
 20
161.603
  0
VERTEX
  8
Layer2
 10
458.603
 20
161.389
  0
VERTEX
  8
Layer2
 10
458.577
 20
161.173
  0
VERTEX
  8
Layer2
 10
458.549
 20
160.956
  0
VERTEX
  8
Layer2
 10
458.521
 20
160.741
  0
VERTEX
  8
Layer2
 10
458.495
 20
160.524
  0
VERTEX
  8
Layer2
 10
458.469
 20
160.308
  0
VERTEX
  8
Layer2
 10
458.446
 20
160.092
  0
VERTEX
  8
Layer2
 10
458.427
 20
159.876
  0
VERTEX
  8
Layer2
 10
458.412
 20
159.659
  0
VERTEX
  8
Layer2
 10
458.403
 20
159.443
  0
VERTEX
  8
Layer2
 10
458.399
 20
159.228
  0
VERTEX
  8
Layer2
 10
458.401
 20
159.012
  0
VERTEX
  8
Layer2
 10
458.409
 20
158.796
  0
VERTEX
  8
Layer2
 10
458.419
 20
158.582
  0
VERTEX
  8
Layer2
 10
458.435
 20
158.366
  0
VERTEX
  8
Layer2
 10
458.453
 20
158.151
  0
VERTEX
  8
Layer2
 10
458.475
 20
157.937
  0
VERTEX
  8
Layer2
 10
458.497
 20
157.722
  0
VERTEX
  8
Layer2
 10
458.521
 20
157.508
  0
VERTEX
  8
Layer2
 10
458.547
 20
157.293
  0
VERTEX
  8
Layer2
 10
458.572
 20
157.078
  0
VERTEX
  8
Layer2
 10
458.598
 20
156.864
  0
VERTEX
  8
Layer2
 10
458.622
 20
156.649
  0
VERTEX
  8
Layer2
 10
458.646
 20
156.434
  0
VERTEX
  8
Layer2
 10
458.666
 20
156.22
  0
VERTEX
  8
Layer2
 10
458.685
 20
156.005
  0
VERTEX
  8
Layer2
 10
458.7
 20
155.791
  0
VERTEX
  8
Layer2
 10
458.712
 20
155.575
  0
VERTEX
  8
Layer2
 10
458.719
 20
155.359
  0
VERTEX
  8
Layer2
 10
458.723
 20
155.145
  0
VERTEX
  8
Layer2
 10
458.724
 20
154.929
  0
VERTEX
  8
Layer2
 10
458.722
 20
154.713
  0
VERTEX
  8
Layer2
 10
458.719
 20
154.497
  0
VERTEX
  8
Layer2
 10
458.715
 20
154.282
  0
VERTEX
  8
Layer2
 10
458.71
 20
154.066
  0
SEQEND
  0
LINE
  8
Layer2
  6
CENTER1
 62
7
 10
135.118
 20
87.5663
 11
155.777
 21
87.5663
  0
CIRCLE
  8
Layer2
  6
CONTINUOUS
 62
7
 10
229.647
 20
145.566
 40
6.5
  0
CIRCLE
  8
Layer2
  6
CONTINUOUS
 62
7
 10
146.647
 20
145.566
 40
6.5
  0
CIRCLE
  8
Layer2
  6
CONTINUOUS
 62
7
 10
146.647
 20
87.5663
 40
6.5
  0
CIRCLE
  8
Layer2
  6
CONTINUOUS
 62
7
 10
229.647
 20
87.5663
 40
6.5
  0
POLYLINE
  8
Layer2
  6
CONTINUOUS
 62
7
 66
1
 10
0
 20
0
 30
0
 70
1
  0
VERTEX
  8
Layer2
 10
146.647
 20
148.996
  0
VERTEX
  8
Layer2
 10
143.676
 20
147.281
  0
VERTEX
  8
Layer2
 10
143.676
 20
143.851
  0
VERTEX
  8
Layer2
 10
146.647
 20
142.136
  0
VERTEX
  8
Layer2
 10
149.617
 20
143.851
  0
VERTEX
  8
Layer2
 10
149.617
 20
147.281
  0
SEQEND
  0
POLYLINE
  8
Layer2
  6
CONTINUOUS
 62
7
 66
1
 10
0
 20
0
 30
0
 70
1
  0
VERTEX
  8
Layer2
 10
229.647
 20
148.996
  0
VERTEX
  8
Layer2
 10
226.676
 20
147.281
  0
VERTEX
  8
Layer2
 10
226.676
 20
143.851
  0
VERTEX
  8
Layer2
 10
229.647
 20
142.136
  0
VERTEX
  8
Layer2
 10
232.617
 20
143.851
  0
VERTEX
  8
Layer2
 10
232.617
 20
147.281
  0
SEQEND
  0
POLYLINE
  8
Layer2
  6
CONTINUOUS
 62
7
 66
1
 10
0
 20
0
 30
0
 70
1
  0
VERTEX
  8
Layer2
 10
229.647
 20
90.9963
  0
VERTEX
  8
Layer2
 10
226.676
 20
89.2813
  0
VERTEX
  8
Layer2
 10
226.676
 20
85.8513
  0
VERTEX
  8
Layer2
 10
229.647
 20
84.1363
  0
VERTEX
  8
Layer2
 10
232.617
 20
85.8513
  0
VERTEX
  8
Layer2
 10
232.617
 20
89.2813
  0
SEQEND
  0
POLYLINE
  8
Layer2
  6
CONTINUOUS
 62
7
 66
1
 10
0
 20
0
 30
0
 70
1
  0
VERTEX
  8
Layer2
 10
146.647
 20
90.9963
  0
VERTEX
  8
Layer2
 10
143.676
 20
89.2813
  0
VERTEX
  8
Layer2
 10
143.676
 20
85.8513
  0
VERTEX
  8
Layer2
 10
146.647
 20
84.1363
  0
VERTEX
  8
Layer2
 10
149.617
 20
85.8513
  0
VERTEX
  8
Layer2
 10
149.617
 20
89.2813
  0
SEQEND
  0
LINE
  8
Layer2
  6
CENTER1
 62
7
 10
221.046
 20
145.566
 11
243.726
 21
145.566
  0
LINE
  8
Layer2
  6
CENTER1
 62
7
 10
220.597
 20
87.5663
 11
240.358
 21
87.5663
  0
LINE
  8
Layer2
  6
CENTER1
 62
7
 10
146.647
 20
96.1573
 11
146.647
 21
75.9473
  0
LINE
  8
Layer2
  6
CENTER1
 62
7
 10
229.647
 20
97.0552
 11
229.647
 21
75.9473
  0
LINE
  8
Layer2
  6
CENTER1
 62
7
 10
135.567
 20
145.566
 11
156.226
 21
145.566
  0
LINE
  8
Layer2
  6
CENTER1
 62
7
 10
146.647
 20
155.888
 11
146.647
 21
137.474
  0
LINE
  8
Layer2
  6
CENTER1
 62
7
 10
229.647
 20
155.888
 11
229.647
 21
137.474
  0
LINE
  8
Layer2
  6
CONTINUOUS
 62
7
 10
607.322
 20
247.166
 11
529.322
 21
247.166
  0
LINE
  8
Layer2
  6
CONTINUOUS
 62
7
 10
525.322
 20
171.066
 11
429.322
 21
171.066
  0
LINE
  8
Layer2
  6
CONTINUOUS
 62
7
 10
584.322
 20
132.166
 11
603.322
 21
132.166
  0
LINE
  8
Layer2
  6
CONTINUOUS
 62
7
 10
421.322
 20
79.0663
 11
400.322
 21
79.0663
  0
LINE
  8
Layer2
  6
CONTINUOUS
 62
7
 10
429.322
 20
56.5663
 11
607.322
 21
56.5663
  0
LINE
  8
Layer2
  6
CONTINUOUS
 62
7
 10
608.322
 20
163.566
 11
608.322
 21
77.5663
  0
LINE
  8
Layer2
  6
CONTINUOUS
 62
7
 10
626.322
 20
77.5663
 11
626.322
 21
163.566
  0
LINE
  8
Layer2
  6
CONTINUOUS
 62
7
 10
428.322
 20
153.066
 11
428.322
 21
57.5663
  0
LINE
  8
Layer2
  6
CONTINUOUS
 62
7
 10
422.322
 20
142.096
 11
422.322
 21
80.0663
  0
LINE
  8
Layer2
  6
CONTINUOUS
 62
7
 10
399.322
 20
80.0663
 11
399.322
 21
153.066
  0
LINE
  8
Layer2
  6
PHANTOM1
 62
7
 10
528.322
 20
199.566
 11
608.322
 21
199.566
  0
LINE
  8
Layer2
  6
CONTINUOUS
 62
7
 10
528.322
 20
232.166
 11
528.322
 21
246.166
  0
LINE
  8
Layer2
  6
CONTINUOUS
 62
7
 10
429.322
 20
154.066
 11
565.946
 21
154.066
  0
LINE
  8
Layer2
  6
CONTINUOUS
 62
7
 10
607.322
 20
231.166
 11
529.322
 21
231.166
  0
LINE
  8
Layer2
  6
PHANTOM1
 62
7
 10
528.322
 20
183.566
 11
608.322
 21
183.566
  0
LINE
  8
Layer2
  6
CONTINUOUS
 62
7
 10
428.322
 20
155.066
 11
428.322
 21
170.066
  0
LINE
  8
Layer2
  6
CONTINUOUS
 62
7
 10
428.322
 20
170.066
 11
429.322
 21
171.066
  0
LINE
  8
Layer2
  6
CONTINUOUS
 62
7
 10
429.322
 20
154.066
 11
428.322
 21
155.066
  0
LINE
  8
Layer2
  6
CONTINUOUS
 62
7
 10
425.822
 20
154.066
 11
423.322
 21
154.066
  0
LINE
  8
Layer2
  6
CONTINUOUS
 62
7
 10
400.322
 20
154.066
 11
421.322
 21
154.066
  0
LINE
  8
Layer2
  6
CONTINUOUS
 62
7
 10
422.322
 20
153.066
 11
421.322
 21
154.066
  0
LINE
  8
Layer2
  6
CONTINUOUS
 62
7
 10
399.322
 20
80.0663
 11
400.322
 21
79.0663
  0
LINE
  8
Layer2
  6
CONTINUOUS
 62
7
 10
425.822
 20
79.0663
 11
423.322
 21
79.0663
  0
LINE
  8
Layer2
  6
CONTINUOUS
 62
7
 10
422.322
 20
80.0663
 11
421.322
 21
79.0663
  0
LINE
  8
Layer2
  6
CONTINUOUS
 62
7
 10
422.322
 20
80.0663
 11
423.322
 21
79.0663
  0
LINE
  8
Layer2
  6
CONTINUOUS
 62
7
 10
429.322
 20
79.5663
 11
509.926
 21
79.5663
  0
LINE
  8
Layer2
  6
CONTINUOUS
 62
7
 10
607.322
 20
79.0663
 11
582.322
 21
79.0663
  0
LINE
  8
Layer2
  6
CONTINUOUS
 62
7
 10
528.322
 20
232.166
 11
528.322
 21
198.904
  0
LINE
  8
Layer2
  6
CONTINUOUS
 62
7
 10
608.322
 20
246.166
 11
608.322
 21
232.166
  0
LINE
  8
Layer2
  6
CONTINUOUS
 62
7
 10
528.322
 20
246.166
 11
529.322
 21
247.166
  0
LINE
  8
Layer2
  6
CONTINUOUS
 62
7
 10
528.322
 20
232.166
 11
529.322
 21
231.166
  0
LINE
  8
Layer2
  6
CONTINUOUS
 62
7
 10
607.322
 20
231.166
 11
608.322
 21
232.166
  0
LINE
  8
Layer2
  6
CONTINUOUS
 62
7
 10
608.322
 20
246.166
 11
607.322
 21
247.166
  0
LINE
  8
Layer2
  6
CONTINUOUS
 62
7
 10
608.322
 20
103.564
 11
528.322
 21
198.904
  0
LINE
  8
Layer2
  6
PHANTOM1
 62
7
 10
528.322
 20
198.904
 11
528.322
 21
183.566
  0
LINE
  8
Layer2
  6
CONTINUOUS
 62
7
 10
609.322
 20
76.5663
 11
625.322
 21
76.5663
  0
LINE
  8
Layer2
  6
CONTINUOUS
 62
7
 10
609.322
 20
164.566
 11
625.322
 21
164.566
  0
LINE
  8
Layer2
  6
CONTINUOUS
 62
7
 10
625.322
 20
164.566
 11
626.322
 21
163.566
  0
LINE
  8
Layer2
  6
CONTINUOUS
 62
7
 10
626.322
 20
77.5663
 11
625.322
 21
76.5663
  0
LINE
  8
Layer2
  6
CONTINUOUS
 62
7
 10
609.322
 20
76.5663
 11
608.322
 21
77.5663
  0
LINE
  8
Layer2
  6
CONTINUOUS
 62
7
 10
608.322
 20
163.566
 11
609.322
 21
164.566
  0
LINE
  8
Layer2
  6
CONTINUOUS
 62
7
 10
608.322
 20
78.0663
 11
608.322
 21
57.5663
  0
LINE
  8
Layer2
  6
CONTINUOUS
 62
7
 10
608.322
 20
57.5663
 11
607.322
 21
56.5663
  0
LINE
  8
Layer2
  6
CONTINUOUS
 62
7
 10
429.322
 20
79.5663
 11
428.322
 21
78.5663
  0
LINE
  8
Layer2
  6
CONTINUOUS
 62
7
 10
607.322
 20
79.0663
 11
608.322
 21
78.0663
  0
LINE
  8
Layer2
  6
CONTINUOUS
 62
7
 10
608.322
 20
137.166
 11
608.322
 21
232.166
  0
LINE
  8
Layer2
  6
PHANTOM1
 62
7
 10
568.322
 20
103.564
 11
525.946
 21
154.066
  0
LINE
  8
Layer2
  6
PHANTOM1
 62
7
 10
568.322
 20
103.564
 11
568.322
 21
79.0663
  0
LINE
  8
Layer2
  6
CENTER1
 62
7
 10
576.322
 20
89.4203
 11
576.322
 21
49.8993
  0
LINE
  8
Layer2
  6
CONTINUOUS
 62
7
 10
570.322
 20
79.0663
 11
570.322
 21
82.0663
  0
LINE
  8
Layer2
  6
CONTINUOUS
 62
7
 10
582.322
 20
82.0663
 11
582.322
 21
79.0663
  0
LINE
  8
Layer2
  6
CONTINUOUS
 62
7
 10
570.322
 20
82.0663
 11
582.322
 21
82.0663
  0
LINE
  8
Layer2
  6
CONTINUOUS
 62
7
 10
570.322
 20
79.0663
 11
514.111
 21
79.0663
  0
LINE
  8
Layer2
  6
CONTINUOUS
 62
7
 10
423.322
 20
154.066
 11
422.322
 21
153.066
  0
LINE
  8
Layer2
  6
CONTINUOUS
 62
7
 10
428.322
 20
153.066
 11
429.322
 21
154.066
  0
LINE
  8
Layer2
  6
CENTER1
 62
7
 10
395.056
 20
87.5663
 11
435.861
 21
87.5663
  0
LINE
  8
Layer2
  6
CENTER1
 62
7
 10
576.322
 20
56.0753
 11
576.322
 21
101.499
  0
LINE
  8
Layer2
  6
CONTINUOUS
 62
7
 10
582.322
 20
60.0663
 11
582.322
 21
82.0663
  0
LINE
  8
Layer2
  6
CONTINUOUS
 62
7
 10
570.322
 20
60.0663
 11
570.322
 21
82.0663
  0
LINE
  8
Layer2
  6
CONTINUOUS
 62
7
 10
570.322
 20
82.0663
 11
582.322
 21
82.0663
  0
LINE
  8
Layer2
  6
DASHED1
 62
7
 10
573.322
 20
72.6763
 11
573.322
 21
94.0663
  0
LINE
  8
Layer2
  6
DASHED1
 62
7
 10
579.322
 20
83.0663
 11
579.322
 21
94.0663
  0
LINE
  8
Layer2
  6
DASHED1
 62
7
 10
573.322
 20
94.0663
 11
579.322
 21
94.0663
  0
LINE
  8
Layer2
  6
DASHED1
 62
7
 10
573.822
 20
72.6923
 11
573.822
 21
97.6222
  0
LINE
  8
Layer2
  6
DASHED1
 62
7
 10
578.822
 20
73.0523
 11
578.822
 21
97.6222
  0
LINE
  8
Layer2
  6
CONTINUOUS
 62
7
 10
576.322
 20
99.0662
 11
578.822
 21
97.6222
  0
LINE
  8
Layer2
  6
CONTINUOUS
 62
7
 10
576.322
 20
99.0662
 11
573.822
 21
97.6222
  0
LINE
  8
Layer2
  6
DASHED1
 62
7
 10
573.822
 20
97.6222
 11
578.822
 21
97.6222
  0
LINE
  8
Layer2
  6
CONTINUOUS
 62
7
 10
578.822
 20
97.6222
 11
578.502
 21
97.6222
  0
LINE
  8
Layer2
  6
CONTINUOUS
 62
7
 10
579.322
 20
94.0663
 11
578.198
 21
94.0663
  0
LINE
  8
Layer2
  6
CONTINUOUS
 62
7
 10
573.322
 20
94.0663
 11
573.322
 21
93.1653
  0
LINE
  8
Layer2
  6
DASHED1
 62
7
 10
579.322
 20
94.0663
 11
579.322
 21
73.4473
  0
LINE
  8
Layer2
  6
CONTINUOUS
 62
7
 10
572.322
 20
82.0663
 11
580.322
 21
82.0663
  0
LINE
  8
Layer2
  6
CONTINUOUS
 62
7
 10
582.322
 20
60.0663
 11
570.322
 21
60.0663
  0
LINE
  8
Layer2
  6
PHANTOM1
 62
7
 10
570.322
 20
58.8893
 11
570.322
 21
63.3893
  0
LINE
  8
Layer2
  6
CONTINUOUS
 62
7
 10
580.322
 20
61.0663
 11
572.322
 21
61.0663
  0
LINE
  8
Layer2
  6
CONTINUOUS
 62
7
 10
571.322
 20
62.0663
 11
571.322
 21
67.0663
  0
LINE
  8
Layer2
  6
CONTINUOUS
 62
7
 10
581.322
 20
62.0663
 11
581.322
 21
67.0663
  0
LINE
  8
Layer2
  6
CONTINUOUS
 62
7
 10
570.822
 20
67.0663
 11
581.822
 21
67.0663
  0
LINE
  8
Layer2
  6
CONTINUOUS
 62
7
 10
572.322
 20
61.0663
 11
571.322
 21
62.0663
  0
LINE
  8
Layer2
  6
CONTINUOUS
 62
7
 10
580.322
 20
61.0663
 11
581.322
 21
62.0663
  0
LINE
  8
Layer2
  6
CONTINUOUS
 62
7
 10
571.322
 20
62.0663
 11
581.322
 21
62.0663
  0
LINE
  8
Layer2
  6
CONTINUOUS
 62
7
 10
579.322
 20
94.0663
 11
578.822
 21
94.9323
  0
LINE
  8
Layer2
  6
CONTINUOUS
 62
7
 10
573.322
 20
94.0663
 11
573.822
 21
94.9323
  0
LINE
  8
Layer2
  6
DASHED1
 62
7
 10
573.822
 20
94.9323
 11
578.822
 21
94.9323
  0
POLYLINE
  8
Layer2
  6
CONTINUOUS
 62
7
 66
1
 10
0
 20
0
 30
0
  0
VERTEX
  8
Layer2
 10
570.322
 20
71.0663
  0
VERTEX
  8
Layer2
 10
570.509
 20
71.2063
  0
VERTEX
  8
Layer2
 10
570.696
 20
71.3463
  0
VERTEX
  8
Layer2
 10
570.882
 20
71.4843
  0
VERTEX
  8
Layer2
 10
571.07
 20
71.6193
  0
VERTEX
  8
Layer2
 10
571.257
 20
71.7513
  0
VERTEX
  8
Layer2
 10
571.445
 20
71.8783
  0
VERTEX
  8
Layer2
 10
571.634
 20
71.9993
  0
VERTEX
  8
Layer2
 10
571.823
 20
72.1133
  0
VERTEX
  8
Layer2
 10
572.014
 20
72.2213
  0
VERTEX
  8
Layer2
 10
572.205
 20
72.3193
  0
VERTEX
  8
Layer2
 10
572.397
 20
72.4093
  0
VERTEX
  8
Layer2
 10
572.59
 20
72.4883
  0
VERTEX
  8
Layer2
 10
572.784
 20
72.5563
  0
VERTEX
  8
Layer2
 10
572.98
 20
72.6123
  0
VERTEX
  8
Layer2
 10
573.176
 20
72.6553
  0
VERTEX
  8
Layer2
 10
573.375
 20
72.6843
  0
VERTEX
  8
Layer2
 10
573.575
 20
72.6983
  0
VERTEX
  8
Layer2
 10
573.777
 20
72.6963
  0
VERTEX
  8
Layer2
 10
573.98
 20
72.6773
  0
VERTEX
  8
Layer2
 10
574.185
 20
72.6443
  0
VERTEX
  8
Layer2
 10
574.391
 20
72.5993
  0
VERTEX
  8
Layer2
 10
574.598
 20
72.5443
  0
VERTEX
  8
Layer2
 10
574.806
 20
72.4833
  0
VERTEX
  8
Layer2
 10
575.014
 20
72.4193
  0
VERTEX
  8
Layer2
 10
575.222
 20
72.3533
  0
VERTEX
  8
Layer2
 10
575.43
 20
72.2903
  0
VERTEX
  8
Layer2
 10
575.637
 20
72.2313
  0
VERTEX
  8
Layer2
 10
575.843
 20
72.1803
  0
VERTEX
  8
Layer2
 10
576.048
 20
72.1393
  0
VERTEX
  8
Layer2
 10
576.251
 20
72.1113
  0
VERTEX
  8
Layer2
 10
576.452
 20
72.0993
  0
VERTEX
  8
Layer2
 10
576.652
 20
72.1033
  0
VERTEX
  8
Layer2
 10
576.849
 20
72.1233
  0
VERTEX
  8
Layer2
 10
577.045
 20
72.1583
  0
VERTEX
  8
Layer2
 10
577.239
 20
72.2063
  0
VERTEX
  8
Layer2
 10
577.431
 20
72.2673
  0
VERTEX
  8
Layer2
 10
577.622
 20
72.3403
  0
VERTEX
  8
Layer2
 10
577.811
 20
72.4253
  0
VERTEX
  8
Layer2
 10
577.998
 20
72.5193
  0
VERTEX
  8
Layer2
 10
578.184
 20
72.6243
  0
VERTEX
  8
Layer2
 10
578.368
 20
72.7373
  0
VERTEX
  8
Layer2
 10
578.551
 20
72.8583
  0
VERTEX
  8
Layer2
 10
578.732
 20
72.9853
  0
VERTEX
  8
Layer2
 10
578.912
 20
73.1193
  0
VERTEX
  8
Layer2
 10
579.091
 20
73.2583
  0
VERTEX
  8
Layer2
 10
579.269
 20
73.4023
  0
VERTEX
  8
Layer2
 10
579.445
 20
73.5493
  0
VERTEX
  8
Layer2
 10
579.62
 20
73.6993
  0
VERTEX
  8
Layer2
 10
579.795
 20
73.8513
  0
VERTEX
  8
Layer2
 10
579.968
 20
74.0033
  0
VERTEX
  8
Layer2
 10
580.14
 20
74.1563
  0
VERTEX
  8
Layer2
 10
580.312
 20
74.3083
  0
VERTEX
  8
Layer2
 10
580.483
 20
74.4593
  0
VERTEX
  8
Layer2
 10
580.652
 20
74.6073
  0
VERTEX
  8
Layer2
 10
580.822
 20
74.7513
  0
VERTEX
  8
Layer2
 10
580.99
 20
74.8923
  0
VERTEX
  8
Layer2
 10
581.158
 20
75.0303
  0
VERTEX
  8
Layer2
 10
581.325
 20
75.1643
  0
VERTEX
  8
Layer2
 10
581.492
 20
75.2953
  0
VERTEX
  8
Layer2
 10
581.659
 20
75.4243
  0
VERTEX
  8
Layer2
 10
581.825
 20
75.5513
  0
VERTEX
  8
Layer2
 10
581.991
 20
75.6773
  0
VERTEX
  8
Layer2
 10
582.157
 20
75.8023
  0
VERTEX
  8
Layer2
 10
582.322
 20
75.9263
  0
SEQEND
  0
LINE
  8
Layer2
  6
CONTINUOUS
 62
7
 10
579.322
 20
73.4473
 11
579.322
 21
67.0663
  0
LINE
  8
Layer2
  6
CONTINUOUS
 62
7
 10
578.822
 20
73.0523
 11
578.822
 21
67.0663
  0
LINE
  8
Layer2
  6
CONTINUOUS
 62
7
 10
573.822
 20
72.6933
 11
573.822
 21
67.0663
  0
LINE
  8
Layer2
  6
CONTINUOUS
 62
7
 10
573.322
 20
72.6763
 11
573.322
 21
67.0663
  0
LINE
  8
Layer2
  6
CONTINUOUS
 62
7
 10
571.322
 20
67.0663
 11
571.322
 21
62.0663
  0
LINE
  8
Layer2
  6
CONTINUOUS
 62
7
 10
581.322
 20
67.0663
 11
581.322
 21
62.0663
  0
LINE
  8
Layer2
  6
CONTINUOUS
 62
7
 10
570.822
 20
60.0663
 11
570.822
 21
67.0663
  0
LINE
  8
Layer2
  6
CONTINUOUS
 62
7
 10
581.822
 20
60.0663
 11
581.822
 21
67.0663
  0
LINE
  8
Layer2
  6
CONTINUOUS
 62
7
 10
571.822
 20
66.8163
 11
571.822
 21
62.3163
  0
LINE
  8
Layer2
  6
CONTINUOUS
 62
7
 10
572.822
 20
66.3163
 11
572.822
 21
62.8163
  0
LINE
  8
Layer2
  6
CONTINUOUS
 62
7
 10
573.822
 20
65.8163
 11
573.822
 21
63.3163
  0
LINE
  8
Layer2
  6
CONTINUOUS
 62
7
 10
576.322
 20
67.0663
 11
576.322
 21
62.0663
  0
LINE
  8
Layer2
  6
CONTINUOUS
 62
7
 10
570.322
 20
76.8893
 11
570.322
 21
58.8893
  0
LINE
  8
Layer2
  6
DASHED1
 62
7
 10
554.469
 20
58.8893
 11
557.047
 21
58.8893
  0
LINE
  8
Layer2
  6
CONTINUOUS
 62
7
 10
570.322
 20
76.8893
 11
568.39
 21
76.8893
  0
LINE
  8
Layer2
  6
DASHED1
 62
7
 10
552.75
 20
73.9083
 11
555.328
 21
73.9083
  0
LINE
  8
Layer2
  6
DASHED1
 62
7
 10
554.469
 20
63.9133
 11
557.047
 21
63.9133
  0
LINE
  8
Layer2
  6
DASHED1
 62
7
 10
555.328
 20
78.9053
 11
555.328
 21
73.9083
  0
LINE
  8
Layer2
  6
DASHED1
 62
7
 10
552.75
 20
78.9053
 11
552.75
 21
73.9083
  0
LINE
  8
Layer2
  6
DASHED1
 62
7
 10
554.469
 20
63.9133
 11
554.469
 21
58.8893
  0
LINE
  8
Layer2
  6
DASHED1
 62
7
 10
557.047
 20
63.9133
 11
557.047
 21
58.8893
  0
LINE
  8
Layer2
  6
DASHED1
 62
7
 10
552.75
 20
73.9083
 11
554.469
 21
63.9133
  0
LINE
  8
Layer2
  6
DASHED1
 62
7
 10
555.328
 20
73.9083
 11
557.047
 21
63.9133
  0
LINE
  8
Layer2
  6
DASHED1
 62
7
 10
553.61
 20
68.9103
 11
554.469
 21
58.8893
  0
LINE
  8
Layer2
  6
DASHED1
 62
7
 10
555.543
 20
78.9053
 11
556.187
 21
68.9103
  0
LINE
  8
Layer2
  6
CONTINUOUS
 62
7
 10
559.625
 20
58.8893
 11
562.202
 21
58.8893
  0
LINE
  8
Layer2
  6
CONTINUOUS
 62
7
 10
560.484
 20
78.9053
 11
557.906
 21
78.9053
  0
LINE
  8
Layer2
  6
CONTINUOUS
 62
7
 10
557.906
 20
73.9083
 11
560.484
 21
73.9083
  0
LINE
  8
Layer2
  6
CONTINUOUS
 62
7
 10
559.625
 20
63.9133
 11
562.202
 21
63.9133
  0
LINE
  8
Layer2
  6
CONTINUOUS
 62
7
 10
560.484
 20
78.9053
 11
560.484
 21
73.9083
  0
LINE
  8
Layer2
  6
CONTINUOUS
 62
7
 10
557.906
 20
78.9053
 11
557.906
 21
73.9083
  0
LINE
  8
Layer2
  6
CONTINUOUS
 62
7
 10
559.625
 20
63.9133
 11
559.625
 21
58.8893
  0
LINE
  8
Layer2
  6
CONTINUOUS
 62
7
 10
562.202
 20
63.9133
 11
562.202
 21
58.8893
  0
LINE
  8
Layer2
  6
CONTINUOUS
 62
7
 10
557.906
 20
73.9083
 11
559.625
 21
63.9133
  0
LINE
  8
Layer2
  6
CONTINUOUS
 62
7
 10
560.484
 20
73.9083
 11
562.202
 21
63.9133
  0
LINE
  8
Layer2
  6
CONTINUOUS
 62
7
 10
558.765
 20
68.9103
 11
559.625
 21
58.8893
  0
LINE
  8
Layer2
  6
CONTINUOUS
 62
7
 10
560.699
 20
78.9053
 11
561.343
 21
68.9103
  0
LINE
  8
Layer2
  6
CONTINUOUS
 62
7
 10
564.78
 20
58.8893
 11
567.358
 21
58.8893
  0
LINE
  8
Layer2
  6
CONTINUOUS
 62
7
 10
565.64
 20
78.9053
 11
563.062
 21
78.9053
  0
LINE
  8
Layer2
  6
CONTINUOUS
 62
7
 10
563.062
 20
73.9083
 11
565.64
 21
73.9083
  0
LINE
  8
Layer2
  6
CONTINUOUS
 62
7
 10
564.78
 20
63.9133
 11
567.358
 21
63.9133
  0
LINE
  8
Layer2
  6
CONTINUOUS
 62
7
 10
565.64
 20
78.9053
 11
565.64
 21
73.9083
  0
LINE
  8
Layer2
  6
CONTINUOUS
 62
7
 10
563.062
 20
78.9053
 11
563.062
 21
73.9083
  0
LINE
  8
Layer2
  6
CONTINUOUS
 62
7
 10
564.78
 20
63.9133
 11
564.78
 21
58.8893
  0
LINE
  8
Layer2
  6
CONTINUOUS
 62
7
 10
567.358
 20
63.9133
 11
567.358
 21
58.8893
  0
LINE
  8
Layer2
  6
CONTINUOUS
 62
7
 10
563.062
 20
73.9083
 11
564.78
 21
63.9133
  0
LINE
  8
Layer2
  6
CONTINUOUS
 62
7
 10
565.64
 20
73.9083
 11
567.358
 21
63.9133
  0
LINE
  8
Layer2
  6
CONTINUOUS
 62
7
 10
563.921
 20
68.9103
 11
564.78
 21
58.8893
  0
LINE
  8
Layer2
  6
CONTINUOUS
 62
7
 10
565.854
 20
78.9053
 11
566.499
 21
68.9103
  0
LINE
  8
Layer2
  6
CONTINUOUS
 62
7
 10
569.936
 20
58.8893
 11
570.322
 21
58.8893
  0
LINE
  8
Layer2
  6
CONTINUOUS
 62
7
 10
568.39
 20
72.3953
 11
570.322
 21
72.3893
  0
LINE
  8
Layer2
  6
CONTINUOUS
 62
7
 10
569.936
 20
63.4073
 11
570.322
 21
63.3893
  0
LINE
  8
Layer2
  6
CONTINUOUS
 62
7
 10
568.217
 20
78.9053
 11
568.217
 21
73.9083
  0
LINE
  8
Layer2
  6
CONTINUOUS
 62
7
 10
569.936
 20
63.9133
 11
569.936
 21
58.8893
  0
LINE
  8
Layer2
  6
CONTINUOUS
 62
7
 10
568.217
 20
73.9083
 11
569.936
 21
63.9133
  0
LINE
  8
Layer2
  6
CONTINUOUS
 62
7
 10
569.077
 20
68.9103
 11
569.936
 21
58.8893
  0
LINE
  8
Layer2
  6
DASHED1
 62
7
 10
555.328
 20
78.9053
 11
552.75
 21
78.9053
  0
LINE
  8
Layer2
  6
DASHED1
 62
7
 10
550.173
 20
78.9053
 11
547.595
 21
78.9053
  0
LINE
  8
Layer2
  6
DASHED1
 62
7
 10
545.017
 20
78.9053
 11
542.439
 21
78.9053
  0
LINE
  8
Layer2
  6
DASHED1
 62
7
 10
544.158
 20
58.8893
 11
546.735
 21
58.8893
  0
LINE
  8
Layer2
  6
CONTINUOUS
 62
7
 10
545.017
 20
78.9053
 11
542.439
 21
78.9053
  0
LINE
  8
Layer2
  6
CONTINUOUS
 62
7
 10
542.439
 20
73.9083
 11
545.017
 21
73.9083
  0
LINE
  8
Layer2
  6
CONTINUOUS
 62
7
 10
544.158
 20
63.9133
 11
546.735
 21
63.9133
  0
LINE
  8
Layer2
  6
CONTINUOUS
 62
7
 10
545.017
 20
78.9053
 11
545.017
 21
73.9083
  0
LINE
  8
Layer2
  6
CONTINUOUS
 62
7
 10
542.439
 20
78.9053
 11
542.439
 21
73.9083
  0
LINE
  8
Layer2
  6
DASHED1
 62
7
 10
544.158
 20
63.9133
 11
544.158
 21
58.8893
  0
LINE
  8
Layer2
  6
DASHED1
 62
7
 10
546.735
 20
62.2623
 11
546.735
 21
58.8893
  0
LINE
  8
Layer2
  6
CONTINUOUS
 62
7
 10
542.439
 20
73.9083
 11
543.903
 21
65.3943
  0
LINE
  8
Layer2
  6
CONTINUOUS
 62
7
 10
545.017
 20
73.9083
 11
546.735
 21
63.9133
  0
LINE
  8
Layer2
  6
DASHED1
 62
7
 10
543.54
 20
66.0973
 11
544.158
 21
58.8893
  0
LINE
  8
Layer2
  6
CONTINUOUS
 62
7
 10
545.232
 20
78.9053
 11
545.876
 21
68.9103
  0
LINE
  8
Layer2
  6
DASHED1
 62
7
 10
549.313
 20
58.8893
 11
551.891
 21
58.8893
  0
LINE
  8
Layer2
  6
CONTINUOUS
 62
7
 10
554.469
 20
58.8893
 11
557.047
 21
58.8893
  0
LINE
  8
Layer2
  6
CONTINUOUS
 62
7
 10
555.328
 20
78.9053
 11
552.75
 21
78.9053
  0
LINE
  8
Layer2
  6
CONTINUOUS
 62
7
 10
552.75
 20
73.9083
 11
555.328
 21
73.9083
  0
LINE
  8
Layer2
  6
CONTINUOUS
 62
7
 10
554.469
 20
63.9133
 11
557.047
 21
63.9133
  0
LINE
  8
Layer2
  6
CONTINUOUS
 62
7
 10
555.328
 20
78.9053
 11
555.328
 21
73.9083
  0
LINE
  8
Layer2
  6
CONTINUOUS
 62
7
 10
552.75
 20
78.9053
 11
552.75
 21
73.9083
  0
LINE
  8
Layer2
  6
CONTINUOUS
 62
7
 10
554.469
 20
63.9133
 11
554.469
 21
58.8893
  0
LINE
  8
Layer2
  6
CONTINUOUS
 62
7
 10
557.047
 20
63.9133
 11
557.047
 21
58.8893
  0
LINE
  8
Layer2
  6
CONTINUOUS
 62
7
 10
552.75
 20
73.9083
 11
554.469
 21
63.9133
  0
LINE
  8
Layer2
  6
CONTINUOUS
 62
7
 10
555.328
 20
73.9083
 11
557.047
 21
63.9133
  0
LINE
  8
Layer2
  6
CONTINUOUS
 62
7
 10
553.61
 20
68.9103
 11
554.469
 21
58.8893
  0
LINE
  8
Layer2
  6
CONTINUOUS
 62
7
 10
555.543
 20
78.9053
 11
556.187
 21
68.9103
  0
LINE
  8
Layer2
  6
CONTINUOUS
 62
7
 10
546.735
 20
62.2623
 11
546.735
 21
63.9133
  0
LINE
  8
Layer2
  6
CONTINUOUS
 62
7
 10
543.54
 20
66.0973
 11
543.298
 21
68.9103
  0
LINE
  8
Layer2
  6
CONTINUOUS
 62
7
 10
543.903
 20
65.3943
 11
544.158
 21
63.9133
  0
LINE
  8
Layer2
  6
CONTINUOUS
 62
7
 10
550.173
 20
78.9053
 11
547.595
 21
78.9053
  0
LINE
  8
Layer2
  6
CONTINUOUS
 62
7
 10
547.595
 20
73.9083
 11
550.173
 21
73.9083
  0
LINE
  8
Layer2
  6
CONTINUOUS
 62
7
 10
549.313
 20
63.9133
 11
551.891
 21
63.9133
  0
LINE
  8
Layer2
  6
CONTINUOUS
 62
7
 10
550.173
 20
78.9053
 11
550.173
 21
73.9083
  0
LINE
  8
Layer2
  6
CONTINUOUS
 62
7
 10
547.595
 20
78.9053
 11
547.595
 21
73.9083
  0
LINE
  8
Layer2
  6
CONTINUOUS
 62
7
 10
549.313
 20
63.9133
 11
549.313
 21
60.6663
  0
LINE
  8
Layer2
  6
CONTINUOUS
 62
7
 10
551.891
 20
63.9133
 11
551.891
 21
59.5143
  0
LINE
  8
Layer2
  6
CONTINUOUS
 62
7
 10
547.595
 20
73.9083
 11
549.313
 21
63.9133
  0
LINE
  8
Layer2
  6
CONTINUOUS
 62
7
 10
550.173
 20
73.9083
 11
551.891
 21
63.9133
  0
LINE
  8
Layer2
  6
CONTINUOUS
 62
7
 10
548.454
 20
68.9103
 11
549.154
 21
60.7523
  0
LINE
  8
Layer2
  6
CONTINUOUS
 62
7
 10
550.387
 20
78.9053
 11
551.032
 21
68.9103
  0
LINE
  8
Layer2
  6
DASHED1
 62
7
 10
549.313
 20
58.8893
 11
549.122
 21
61.1243
  0
LINE
  8
Layer2
  6
DASHED1
 62
7
 10
549.313
 20
60.6663
 11
549.313
 21
58.8893
  0
LINE
  8
Layer2
  6
CONTINUOUS
 62
7
 10
551.891
 20
59.5143
 11
551.891
 21
58.8893
  0
LINE
  8
Layer2
  6
CONTINUOUS
 62
7
 10
567.54
 20
152.166
 11
608.322
 21
152.166
  0
LINE
  8
Layer2
  6
CONTINUOUS
 62
7
 10
422.322
 20
153.066
 11
422.322
 21
149.566
  0
LINE
  8
Layer2
  6
CONTINUOUS
 62
7
 10
399.322
 20
153.066
 11
400.322
 21
154.066
  0
POLYLINE
  8
Layer2
  6
CONTINUOUS
 62
7
 66
1
 10
0
 20
0
 30
0
  0
VERTEX
  8
Layer2
 10
424.942
 20
154.066
  0
VERTEX
  8
Layer2
 10
424.95
 20
153.746
  0
VERTEX
  8
Layer2
 10
424.958
 20
153.425
  0
VERTEX
  8
Layer2
 10
424.966
 20
153.104
  0
VERTEX
  8
Layer2
 10
424.974
 20
152.781
  0
VERTEX
  8
Layer2
 10
424.982
 20
152.457
  0
VERTEX
  8
Layer2
 10
424.991
 20
152.13
  0
VERTEX
  8
Layer2
 10
425
 20
151.801
  0
VERTEX
  8
Layer2
 10
425.01
 20
151.468
  0
VERTEX
  8
Layer2
 10
425.02
 20
151.132
  0
VERTEX
  8
Layer2
 10
425.03
 20
150.791
  0
VERTEX
  8
Layer2
 10
425.042
 20
150.446
  0
VERTEX
  8
Layer2
 10
425.054
 20
150.096
  0
VERTEX
  8
Layer2
 10
425.067
 20
149.741
  0
VERTEX
  8
Layer2
 10
425.08
 20
149.38
  0
VERTEX
  8
Layer2
 10
425.095
 20
149.012
  0
VERTEX
  8
Layer2
 10
425.109
 20
148.639
  0
VERTEX
  8
Layer2
 10
425.122
 20
148.263
  0
VERTEX
  8
Layer2
 10
425.131
 20
147.885
  0
VERTEX
  8
Layer2
 10
425.137
 20
147.506
  0
VERTEX
  8
Layer2
 10
425.136
 20
147.128
  0
VERTEX
  8
Layer2
 10
425.129
 20
146.753
  0
VERTEX
  8
Layer2
 10
425.113
 20
146.382
  0
VERTEX
  8
Layer2
 10
425.087
 20
146.017
  0
VERTEX
  8
Layer2
 10
425.051
 20
145.659
  0
VERTEX
  8
Layer2
 10
425.001
 20
145.31
  0
VERTEX
  8
Layer2
 10
424.938
 20
144.972
  0
VERTEX
  8
Layer2
 10
424.859
 20
144.645
  0
VERTEX
  8
Layer2
 10
424.764
 20
144.332
  0
VERTEX
  8
Layer2
 10
424.651
 20
144.034
  0
VERTEX
  8
Layer2
 10
424.518
 20
143.753
  0
VERTEX
  8
Layer2
 10
424.365
 20
143.49
  0
VERTEX
  8
Layer2
 10
424.189
 20
143.246
  0
VERTEX
  8
Layer2
 10
423.991
 20
143.024
  0
VERTEX
  8
Layer2
 10
423.767
 20
142.825
  0
VERTEX
  8
Layer2
 10
423.518
 20
142.648
  0
VERTEX
  8
Layer2
 10
423.248
 20
142.491
  0
VERTEX
  8
Layer2
 10
422.959
 20
142.349
  0
VERTEX
  8
Layer2
 10
422.655
 20
142.219
  0
VERTEX
  8
Layer2
 10
422.339
 20
142.096
  0
VERTEX
  8
Layer2
 10
422.015
 20
141.976
  0
VERTEX
  8
Layer2
 10
421.686
 20
141.857
  0
VERTEX
  8
Layer2
 10
421.356
 20
141.733
  0
VERTEX
  8
Layer2
 10
421.027
 20
141.601
  0
VERTEX
  8
Layer2
 10
420.703
 20
141.457
  0
VERTEX
  8
Layer2
 10
420.388
 20
141.297
  0
VERTEX
  8
Layer2
 10
420.082
 20
141.121
  0
VERTEX
  8
Layer2
 10
419.784
 20
140.932
  0
VERTEX
  8
Layer2
 10
419.493
 20
140.732
  0
VERTEX
  8
Layer2
 10
419.209
 20
140.524
  0
VERTEX
  8
Layer2
 10
418.929
 20
140.31
  0
VERTEX
  8
Layer2
 10
418.654
 20
140.092
  0
VERTEX
  8
Layer2
 10
418.382
 20
139.873
  0
VERTEX
  8
Layer2
 10
418.112
 20
139.657
  0
VERTEX
  8
Layer2
 10
417.843
 20
139.444
  0
VERTEX
  8
Layer2
 10
417.574
 20
139.238
  0
VERTEX
  8
Layer2
 10
417.304
 20
139.041
  0
VERTEX
  8
Layer2
 10
417.032
 20
138.856
  0
VERTEX
  8
Layer2
 10
416.757
 20
138.685
  0
VERTEX
  8
Layer2
 10
416.478
 20
138.53
  0
VERTEX
  8
Layer2
 10
416.194
 20
138.395
  0
VERTEX
  8
Layer2
 10
415.904
 20
138.282
  0
VERTEX
  8
Layer2
 10
415.608
 20
138.192
  0
VERTEX
  8
Layer2
 10
415.303
 20
138.129
  0
VERTEX
  8
Layer2
 10
414.991
 20
138.091
  0
VERTEX
  8
Layer2
 10
414.671
 20
138.076
  0
VERTEX
  8
Layer2
 10
414.346
 20
138.079
  0
VERTEX
  8
Layer2
 10
414.015
 20
138.098
  0
VERTEX
  8
Layer2
 10
413.68
 20
138.13
  0
VERTEX
  8
Layer2
 10
413.341
 20
138.171
  0
VERTEX
  8
Layer2
 10
413
 20
138.219
  0
VERTEX
  8
Layer2
 10
412.656
 20
138.27
  0
VERTEX
  8
Layer2
 10
412.311
 20
138.321
  0
VERTEX
  8
Layer2
 10
411.966
 20
138.37
  0
VERTEX
  8
Layer2
 10
411.621
 20
138.413
  0
VERTEX
  8
Layer2
 10
411.277
 20
138.446
  0
VERTEX
  8
Layer2
 10
410.936
 20
138.468
  0
VERTEX
  8
Layer2
 10
410.597
 20
138.474
  0
VERTEX
  8
Layer2
 10
410.262
 20
138.462
  0
VERTEX
  8
Layer2
 10
409.931
 20
138.429
  0
VERTEX
  8
Layer2
 10
409.604
 20
138.378
  0
VERTEX
  8
Layer2
 10
409.281
 20
138.309
  0
VERTEX
  8
Layer2
 10
408.961
 20
138.224
  0
VERTEX
  8
Layer2
 10
408.643
 20
138.126
  0
VERTEX
  8
Layer2
 10
408.328
 20
138.015
  0
VERTEX
  8
Layer2
 10
408.016
 20
137.894
  0
VERTEX
  8
Layer2
 10
407.705
 20
137.764
  0
VERTEX
  8
Layer2
 10
407.395
 20
137.626
  0
VERTEX
  8
Layer2
 10
407.087
 20
137.483
  0
VERTEX
  8
Layer2
 10
406.779
 20
137.336
  0
VERTEX
  8
Layer2
 10
406.471
 20
137.187
  0
VERTEX
  8
Layer2
 10
406.164
 20
137.037
  0
VERTEX
  8
Layer2
 10
405.856
 20
136.888
  0
VERTEX
  8
Layer2
 10
405.547
 20
136.742
  0
VERTEX
  8
Layer2
 10
405.237
 20
136.601
  0
VERTEX
  8
Layer2
 10
404.926
 20
136.466
  0
VERTEX
  8
Layer2
 10
404.613
 20
136.338
  0
VERTEX
  8
Layer2
 10
404.297
 20
136.22
  0
VERTEX
  8
Layer2
 10
403.98
 20
136.113
  0
VERTEX
  8
Layer2
 10
403.659
 20
136.019
  0
VERTEX
  8
Layer2
 10
403.336
 20
135.936
  0
VERTEX
  8
Layer2
 10
403.01
 20
135.864
  0
VERTEX
  8
Layer2
 10
402.682
 20
135.802
  0
VERTEX
  8
Layer2
 10
402.352
 20
135.749
  0
VERTEX
  8
Layer2
 10
402.02
 20
135.704
  0
VERTEX
  8
Layer2
 10
401.686
 20
135.667
  0
VERTEX
  8
Layer2
 10
401.351
 20
135.636
  0
VERTEX
  8
Layer2
 10
401.015
 20
135.61
  0
VERTEX
  8
Layer2
 10
400.678
 20
135.589
  0
VERTEX
  8
Layer2
 10
400.339
 20
135.571
  0
VERTEX
  8
Layer2
 10
400.001
 20
135.557
  0
VERTEX
  8
Layer2
 10
399.662
 20
135.544
  0
VERTEX
  8
Layer2
 10
399.322
 20
135.532
  0
SEQEND
  0
LINE
  8
Layer2
  6
CENTER1
 62
7
 10
477.322
 20
152.538
 11
477.322
 21
180.768
  0
LINE
  8
Layer2
  6
CENTER1
 62
7
 10
515.322
 20
179.509
 11
515.322
 21
147.718
  0
LINE
  8
Layer2
  6
CONTINUOUS
 62
7
 10
526.322
 20
155.066
 11
526.322
 21
170.066
  0
LINE
  8
Layer2
  6
CONTINUOUS
 62
7
 10
525.322
 20
171.066
 11
526.322
 21
170.066
  0
LINE
  8
Layer2
  6
CONTINUOUS
 62
7
 10
525.322
 20
154.066
 11
526.322
 21
155.066
  0
LINE
  8
Layer2
  6
CENTER1
 62
7
 10
543.322
 20
255.388
 11
543.322
 21
223.241
  0
LINE
  8
Layer2
  6
CENTER1
 62
7
 10
593.322
 20
255.239
 11
593.322
 21
223.092
  0
ARC
  8
Layer2
  6
CONTINUOUS
 62
7
 10
603.322
 20
137.166
 40
5
 50
270
 51
2.03555e-013
  0
LINE
  8
Layer2
  6
CONTINUOUS
 62
7
 10
626.322
 20
369.922
 11
626.322
 21
512.922
  0
LINE
  8
Layer2
  6
CONTINUOUS
 62
7
 10
608.322
 20
374.422
 11
608.322
 21
508.422
  0
LINE
  8
Layer2
  6
CONTINUOUS
 62
7
 10
528.322
 20
369.922
 11
528.322
 21
512.922
  0
LINE
  8
Layer2
  6
CONTINUOUS
 62
7
 10
428.322
 20
534.422
 11
428.322
 21
348.422
  0
LINE
  8
Layer2
  6
CONTINUOUS
 62
7
 10
422.322
 20
392.422
 11
422.322
 21
490.422
  0
LINE
  8
Layer2
  6
CONTINUOUS
 62
7
 10
399.322
 20
392.422
 11
399.322
 21
490.422
  0
LINE
  8
Layer2
  6
CONTINUOUS
 62
7
 10
526.322
 20
369.922
 11
526.322
 21
512.922
  0
LINE
  8
Layer2
  6
CONTINUOUS
 62
7
 10
626.322
 20
510.422
 11
635.722
 21
510.422
  0
LINE
  8
Layer2
  6
CONTINUOUS
 62
7
 10
626.322
 20
494.422
 11
635.722
 21
494.422
  0
LINE
  8
Layer2
  6
CONTINUOUS
 62
7
 10
635.722
 20
510.422
 11
635.722
 21
494.422
  0
LINE
  8
Layer2
  6
CONTINUOUS
 62
7
 10
636.322
 20
509.822
 11
636.322
 21
495.022
  0
LINE
  8
Layer2
  6
CONTINUOUS
 62
7
 10
635.722
 20
510.422
 11
636.322
 21
509.822
  0
LINE
  8
Layer2
  6
CONTINUOUS
 62
7
 10
635.722
 20
494.422
 11
636.322
 21
495.022
  0
LINE
  8
Layer2
  6
CONTINUOUS
 62
7
 10
626.322
 20
494.422
 11
626.322
 21
510.422
  0
LINE
  8
Layer2
  6
CONTINUOUS
 62
7
 10
635.135
 20
509.422
 11
626.91
 21
509.422
  0
LINE
  8
Layer2
  6
CONTINUOUS
 62
7
 10
634.547
 20
508.422
 11
627.497
 21
508.422
  0
LINE
  8
Layer2
  6
CONTINUOUS
 62
7
 10
633.96
 20
507.422
 11
628.085
 21
507.422
  0
LINE
  8
Layer2
  6
CONTINUOUS
 62
7
 10
633.372
 20
506.422
 11
628.672
 21
506.422
  0
LINE
  8
Layer2
  6
CONTINUOUS
 62
7
 10
632.785
 20
505.422
 11
629.26
 21
505.422
  0
LINE
  8
Layer2
  6
CONTINUOUS
 62
7
 10
632.197
 20
504.422
 11
629.847
 21
504.422
  0
LINE
  8
Layer2
  6
CENTER1
 62
7
 10
391.86
 20
441.422
 11
633.661
 21
441.422
  0
LINE
  8
Layer2
  6
CONTINUOUS
 62
7
 10
608.322
 20
534.422
 11
608.322
 21
348.422
  0
LINE
  8
Layer2
  6
CENTER1
 62
7
 10
593.322
 20
491.422
 11
593.322
 21
514.015
  0
LINE
  8
Layer2
  6
CENTER1
 62
7
 10
515.322
 20
373.053
 11
515.322
 21
389.39
  0
LINE
  8
Layer2
  6
CENTER1
 62
7
 10
515.322
 20
495.024
 11
515.322
 21
513.922
  0
LINE
  8
Layer2
  6
CENTER1
 62
7
 10
477.322
 20
495.024
 11
477.322
 21
511.329
  0
LINE
  8
Layer2
  6
CENTER1
 62
7
 10
439.322
 20
495.024
 11
439.322
 21
511.412
  0
LINE
  8
Layer2
  6
CENTER1
 62
7
 10
477.322
 20
373.053
 11
477.322
 21
389.39
  0
LINE
  8
Layer2
  6
CENTER1
 62
7
 10
439.322
 20
373.053
 11
439.322
 21
389.39
  0
LINE
  8
Layer2
  6
CENTER1
 62
7
 10
430.947
 20
502.422
 11
447.725
 21
502.422
  0
LINE
  8
Layer2
  6
CENTER1
 62
7
 10
468.477
 20
502.422
 11
487.464
 21
502.422
  0
LINE
  8
Layer2
  6
CENTER1
 62
7
 10
505.125
 20
502.422
 11
523.228
 21
502.422
  0
LINE
  8
Layer2
  6
CENTER1
 62
7
 10
530.574
 20
502.422
 11
556.07
 21
502.422
  0
LINE
  8
Layer2
  6
CENTER1
 62
7
 10
428.322
 20
380.422
 11
447.725
 21
380.422
  0
LINE
  8
Layer2
  6
CENTER1
 62
7
 10
469.802
 20
380.422
 11
487.022
 21
380.422
  0
LINE
  8
Layer2
  6
CENTER1
 62
7
 10
508.658
 20
380.422
 11
521.462
 21
380.422
  0
LINE
  8
Layer2
  6
CENTER1
 62
7
 10
531.317
 20
380.422
 11
555.332
 21
380.422
  0
CIRCLE
  8
Layer2
  6
CONTINUOUS
 62
7
 10
439.336
 20
502.422
 40
6.5
  0
POLYLINE
  8
Layer2
  6
CONTINUOUS
 62
7
 66
1
 10
0
 20
0
 30
0
 70
1
  0
VERTEX
  8
Layer2
 10
436.365
 20
500.707
  0
VERTEX
  8
Layer2
 10
439.336
 20
498.992
  0
VERTEX
  8
Layer2
 10
442.306
 20
500.707
  0
VERTEX
  8
Layer2
 10
442.306
 20
504.137
  0
VERTEX
  8
Layer2
 10
439.336
 20
505.852
  0
VERTEX
  8
Layer2
 10
436.365
 20
504.137
  0
SEQEND
  0
CIRCLE
  8
Layer2
  6
CONTINUOUS
 62
7
 10
477.322
 20
502.422
 40
6.5
  0
POLYLINE
  8
Layer2
  6
CONTINUOUS
 62
7
 66
1
 10
0
 20
0
 30
0
 70
1
  0
VERTEX
  8
Layer2
 10
474.352
 20
500.707
  0
VERTEX
  8
Layer2
 10
477.322
 20
498.992
  0
VERTEX
  8
Layer2
 10
480.293
 20
500.707
  0
VERTEX
  8
Layer2
 10
480.293
 20
504.137
  0
VERTEX
  8
Layer2
 10
477.322
 20
505.852
  0
VERTEX
  8
Layer2
 10
474.352
 20
504.137
  0
SEQEND
  0
CIRCLE
  8
Layer2
  6
CONTINUOUS
 62
7
 10
515.322
 20
502.422
 40
6.5
  0
POLYLINE
  8
Layer2
  6
CONTINUOUS
 62
7
 66
1
 10
0
 20
0
 30
0
 70
1
  0
VERTEX
  8
Layer2
 10
512.352
 20
500.707
  0
VERTEX
  8
Layer2
 10
515.322
 20
498.992
  0
VERTEX
  8
Layer2
 10
518.293
 20
500.707
  0
VERTEX
  8
Layer2
 10
518.293
 20
504.137
  0
VERTEX
  8
Layer2
 10
515.322
 20
505.852
  0
VERTEX
  8
Layer2
 10
512.352
 20
504.137
  0
SEQEND
  0
CIRCLE
  8
Layer2
  6
CONTINUOUS
 62
7
 10
439.322
 20
380.422
 40
6.5
  0
POLYLINE
  8
Layer2
  6
CONTINUOUS
 62
7
 66
1
 10
0
 20
0
 30
0
 70
1
  0
VERTEX
  8
Layer2
 10
436.352
 20
378.707
  0
VERTEX
  8
Layer2
 10
439.322
 20
376.992
  0
VERTEX
  8
Layer2
 10
442.293
 20
378.707
  0
VERTEX
  8
Layer2
 10
442.293
 20
382.137
  0
VERTEX
  8
Layer2
 10
439.322
 20
383.852
  0
VERTEX
  8
Layer2
 10
436.352
 20
382.137
  0
SEQEND
  0
CIRCLE
  8
Layer2
  6
CONTINUOUS
 62
7
 10
477.322
 20
380.422
 40
6.5
  0
POLYLINE
  8
Layer2
  6
CONTINUOUS
 62
7
 66
1
 10
0
 20
0
 30
0
 70
1
  0
VERTEX
  8
Layer2
 10
474.352
 20
378.707
  0
VERTEX
  8
Layer2
 10
477.322
 20
376.992
  0
VERTEX
  8
Layer2
 10
480.293
 20
378.707
  0
VERTEX
  8
Layer2
 10
480.293
 20
382.137
  0
VERTEX
  8
Layer2
 10
477.322
 20
383.852
  0
VERTEX
  8
Layer2
 10
474.352
 20
382.137
  0
SEQEND
  0
CIRCLE
  8
Layer2
  6
CONTINUOUS
 62
7
 10
515.322
 20
380.422
 40
6.5
  0
POLYLINE
  8
Layer2
  6
CONTINUOUS
 62
7
 66
1
 10
0
 20
0
 30
0
 70
1
  0
VERTEX
  8
Layer2
 10
512.352
 20
378.707
  0
VERTEX
  8
Layer2
 10
515.322
 20
376.992
  0
VERTEX
  8
Layer2
 10
518.293
 20
378.707
  0
VERTEX
  8
Layer2
 10
518.293
 20
382.137
  0
VERTEX
  8
Layer2
 10
515.322
 20
383.852
  0
VERTEX
  8
Layer2
 10
512.352
 20
382.137
  0
SEQEND
  0
LINE
  8
Layer2
  6
CENTER1
 62
7
 10
448.322
 20
544.995
 11
448.322
 21
513.266
  0
LINE
  8
Layer2
  6
CENTER1
 62
7
 10
518.322
 20
544.202
 11
518.322
 21
512.869
  0
LINE
  8
Layer2
  6
CENTER1
 62
7
 10
448.322
 20
367.922
 11
448.322
 21
343.627
  0
LINE
  8
Layer2
  6
CENTER1
 62
7
 10
518.322
 20
369.256
 11
518.322
 21
343.512
  0
LINE
  8
Layer2
  6
CENTER1
 62
7
 10
593.322
 20
371.848
 11
593.322
 21
388.997
  0
LINE
  8
Layer2
  6
CENTER1
 62
7
 10
579.23
 20
525.422
 11
599.048
 21
525.422
  0
LINE
  8
Layer2
  6
CENTER1
 62
7
 10
577.62
 20
357.422
 11
599.024
 21
357.422
  0
LINE
  8
Layer2
  6
CENTER1
 62
7
 10
508.81
 20
357.422
 11
527.835
 21
357.422
  0
LINE
  8
Layer2
  6
CENTER1
 62
7
 10
439.908
 20
357.422
 11
456.555
 21
357.422
  0
LINE
  8
Layer2
  6
CENTER1
 62
7
 10
437.53
 20
525.422
 11
460.519
 21
525.422
  0
LINE
  8
Layer2
  6
CENTER1
 62
7
 10
588.322
 20
541.804
 11
588.322
 21
514.922
  0
LINE
  8
Layer2
  6
CENTER1
 62
7
 10
588.322
 20
368.922
 11
588.322
 21
343.512
  0
LINE
  8
Layer2
  6
CENTER1
 62
7
 10
543.322
 20
373.142
 11
543.322
 21
390.291
  0
LINE
  8
Layer2
  6
CENTER1
 62
7
 10
543.322
 20
492.577
 11
543.322
 21
515.17
  0
CIRCLE
  8
Layer2
  6
CONTINUOUS
 62
7
 10
448.322
 20
525.422
 40
5.5
  0
CIRCLE
  8
Layer2
  6
CONTINUOUS
 62
7
 10
448.322
 20
525.422
 40
8.5
  0
CIRCLE
  8
Layer2
  6
CONTINUOUS
 62
7
 10
518.322
 20
525.422
 40
5.5
  0
CIRCLE
  8
Layer2
  6
CONTINUOUS
 62
7
 10
518.322
 20
525.422
 40
8.5
  0
CIRCLE
  8
Layer2
  6
CONTINUOUS
 62
7
 10
588.322
 20
525.422
 40
5.5
  0
CIRCLE
  8
Layer2
  6
CONTINUOUS
 62
7
 10
588.322
 20
525.422
 40
8.5
  0
CIRCLE
  8
Layer2
  6
CONTINUOUS
 62
7
 10
588.322
 20
357.422
 40
5.5
  0
CIRCLE
  8
Layer2
  6
CONTINUOUS
 62
7
 10
588.322
 20
357.422
 40
8.5
  0
CIRCLE
  8
Layer2
  6
CONTINUOUS
 62
7
 10
518.322
 20
357.422
 40
5.5
  0
CIRCLE
  8
Layer2
  6
CONTINUOUS
 62
7
 10
518.322
 20
357.422
 40
8.5
  0
CIRCLE
  8
Layer2
  6
CONTINUOUS
 62
7
 10
448.322
 20
357.422
 40
5.5
  0
CIRCLE
  8
Layer2
  6
CONTINUOUS
 62
7
 10
448.322
 20
357.422
 40
8.5
  0
CIRCLE
  8
Layer2
  6
CONTINUOUS
 62
7
 10
593.322
 20
502.422
 40
5.5
  0
CIRCLE
  8
Layer2
  6
DASHED1
 62
7
 10
593.322
 20
502.422
 40
8.5
  0
CIRCLE
  8
Layer2
  6
CONTINUOUS
 62
7
 10
543.322
 20
502.422
 40
5.5
  0
CIRCLE
  8
Layer2
  6
DASHED1
 62
7
 10
543.322
 20
502.422
 40
8.5
  0
CIRCLE
  8
Layer2
  6
CONTINUOUS
 62
7
 10
593.322
 20
380.422
 40
5.5
  0
CIRCLE
  8
Layer2
  6
DASHED1
 62
7
 10
593.322
 20
380.422
 40
8.5
  0
CIRCLE
  8
Layer2
  6
CONTINUOUS
 62
7
 10
543.322
 20
380.422
 40
5.5
  0
CIRCLE
  8
Layer2
  6
DASHED1
 62
7
 10
543.322
 20
380.422
 40
8.5
  0
LINE
  8
Layer2
  6
CENTER1
 62
7
 10
580.381
 20
380.422
 11
605.434
 21
380.422
  0
LINE
  8
Layer2
  6
CENTER1
 62
7
 10
579.291
 20
502.422
 11
605.797
 21
502.422
  0
LINE
  8
Layer2
  6
CENTER1
 62
7
 10
602.964
 20
502.422
 11
636.732
 21
502.422
  0
LINE
  8
Layer2
  6
CENTER1
 62
7
 10
605.518
 20
380.422
 11
638.922
 21
380.422
  0
LINE
  8
Layer2
  6
CONTINUOUS
 62
7
 10
626.322
 20
388.422
 11
635.722
 21
388.422
  0
LINE
  8
Layer2
  6
CONTINUOUS
 62
7
 10
626.322
 20
372.422
 11
635.722
 21
372.422
  0
LINE
  8
Layer2
  6
CONTINUOUS
 62
7
 10
635.722
 20
388.422
 11
635.722
 21
372.422
  0
LINE
  8
Layer2
  6
CONTINUOUS
 62
7
 10
636.322
 20
387.822
 11
636.322
 21
373.022
  0
LINE
  8
Layer2
  6
CONTINUOUS
 62
7
 10
635.722
 20
388.422
 11
636.322
 21
387.822
  0
LINE
  8
Layer2
  6
CONTINUOUS
 62
7
 10
635.722
 20
372.422
 11
636.322
 21
373.022
  0
LINE
  8
Layer2
  6
CONTINUOUS
 62
7
 10
626.322
 20
372.422
 11
626.322
 21
388.422
  0
LINE
  8
Layer2
  6
CONTINUOUS
 62
7
 10
635.135
 20
387.422
 11
626.91
 21
387.422
  0
LINE
  8
Layer2
  6
CONTINUOUS
 62
7
 10
634.547
 20
386.422
 11
627.497
 21
386.422
  0
LINE
  8
Layer2
  6
CONTINUOUS
 62
7
 10
633.96
 20
385.422
 11
628.085
 21
385.422
  0
LINE
  8
Layer2
  6
CONTINUOUS
 62
7
 10
633.372
 20
384.422
 11
628.672
 21
384.422
  0
LINE
  8
Layer2
  6
CONTINUOUS
 62
7
 10
632.785
 20
383.422
 11
629.26
 21
383.422
  0
LINE
  8
Layer2
  6
CONTINUOUS
 62
7
 10
632.197
 20
382.422
 11
629.847
 21
382.422
  0
LINE
  8
Layer2
  6
CENTER1
 62
7
 10
477.322
 20
451.306
 11
477.322
 21
431.432
  0
CIRCLE
  8
Layer2
  6
CONTINUOUS
 62
7
 10
477.322
 20
441.422
 40
3.76681
  0
ARC
  8
Layer2
  6
CONTINUOUS
 62
7
 10
472.849
 20
441.457
 40
1
 50
140.711
 51
225
  0
LINE
  8
Layer2
  6
CONTINUOUS
 62
7
 10
481.832
 20
443.066
 11
484.096
 21
443.066
  0
LINE
  8
Layer2
  6
CONTINUOUS
 62
7
 10
481.832
 20
439.581
 11
484.096
 21
439.581
  0
LINE
  8
Layer2
  6
CONTINUOUS
 62
7
 10
484.096
 20
443.066
 11
484.096
 21
439.581
  0
ARC
  8
Layer2
  6
CONTINUOUS
 62
7
 10
477.322
 20
441.422
 40
4.80058
 50
20.031
 51
140.098
  0
ARC
  8
Layer2
  6
CONTINUOUS
 62
7
 10
477.322
 20
441.422
 40
4.80058
 50
218.056
 51
337.793
  0
ARC
  8
Layer2
  6
CONTINUOUS
 62
7
 10
464.43
 20
434.172
 40
10.1292
 50
24.1178
 51
40.4581
  0
ARC
  8
Layer2
  6
CONTINUOUS
 62
7
 10
464.368
 20
448.663
 40
10.1292
 50
319.542
 51
335.882
  0
ARC
  8
Layer2
  6
CONTINUOUS
 62
7
 10
482.964
 20
443.066
 40
0.542282
 50
0
 51
180
  0
ARC
  8
Layer2
  6
CONTINUOUS
 62
7
 10
482.964
 20
439.581
 40
0.657613
 50
180
 51
2.03555e-013
  0
LINE
  8
Layer2
  6
CONTINUOUS
 62
7
 10
480.322
 20
170.066
 11
481.322
 21
171.066
  0
LINE
  8
Layer2
  6
CENTER1
 62
7
 10
608.16
 20
106.566
 11
634.442
 21
106.566
  0
LINE
  8
Layer2
  6
DASHED1
 62
7
 10
608.304
 20
94.5663
 11
626.322
 21
94.5663
  0
LINE
  8
Layer2
  6
DASHED1
 62
7
 10
608.23
 20
95.0663
 11
626.322
 21
95.0663
  0
LINE
  8
Layer2
  6
DASHED1
 62
7
 10
608.288
 20
86.0663
 11
626.322
 21
86.0663
  0
LINE
  8
Layer2
  6
DASHED1
 62
7
 10
608.295
 20
86.5663
 11
626.322
 21
86.5663
  0
LINE
  8
Layer2
  6
CENTER1
 62
7
 10
603.165
 20
89.5663
 11
642.715
 21
89.5663
  0
LINE
  8
Layer2
  6
CENTER1
 62
7
 10
632.931
 20
117.566
 11
606.952
 21
117.566
  0
LINE
  8
Layer2
  6
CENTER1
 62
7
 10
605.442
 20
145.566
 11
635.348
 21
145.566
  0
TEXT
  8
Layer2
 62
7
 10
433.789
 20
191.825
 72
1
 11
433.789
 21
191.825
 40
6
 41
1
  1
4.5
  0
LINE
  8
Layer2
  6
CONTINUOUS
 62
7
 10
422.322
 20
153.316
 11
422.322
 21
193.166
  0
LINE
  8
Layer2
  6
CONTINUOUS
 62
7
 10
426.822
 20
153.066
 11
426.822
 21
193.443
  0
POLYLINE
  8
Layer2
  6
CONTINUOUS
 62
7
 66
1
 10
0
 20
0
 30
0
  0
VERTEX
  8
Layer2
 10
422.322
 20
191.166
  0
VERTEX
  8
Layer2
 10
426.822
 20
191.166
  0
SEQEND
  0
TEXT
  8
Layer2
 62
7
 10
410.822
 20
192.166
 72
1
 11
410.822
 21
192.166
 40
6
 41
1
  1
 23 
  0
LINE
  8
Layer2
  6
CONTINUOUS
 62
7
 10
399.322
 20
151.478
 11
399.322
 21
193.166
  0
POLYLINE
  8
Layer2
  6
CONTINUOUS
 62
7
 66
1
 10
0
 20
0
 30
0
  0
VERTEX
  8
Layer2
 10
399.322
 20
191.166
  0
VERTEX
  8
Layer2
 10
422.322
 20
191.166
  0
SEQEND
  0
POLYLINE
  8
Layer2
  6
CONTINUOUS
 62
7
 66
1
 10
0
 20
0
 30
0
  0
VERTEX
  8
Layer2
 10
402.22
 20
190.389
  0
VERTEX
  8
Layer2
 10
399.322
 20
191.166
  0
VERTEX
  8
Layer2
 10
402.22
 20
191.942
  0
SEQEND
  0
POLYLINE
  8
Layer2
  6
CONTINUOUS
 62
7
 66
1
 10
0
 20
0
 30
0
  0
VERTEX
  8
Layer2
 10
419.424
 20
191.942
  0
VERTEX
  8
Layer2
 10
422.322
 20
191.166
  0
VERTEX
  8
Layer2
 10
419.424
 20
190.389
  0
SEQEND
  0
LINE
  8
Layer2
  6
DASHED1
 62
7
 10
196.147
 20
133.166
 11
196.147
 21
144.166
  0
LINE
  8
Layer2
  6
DASHED1
 62
7
 10
180.147
 20
133.166
 11
180.147
 21
144.166
  0
ARC
  8
Layer2
  6
DASHED1
 62
7
 10
188.147
 20
144.166
 40
8
 50
0
 51
180
  0
LINE
  8
Layer2
  6
DASHED1
 62
7
 10
236.147
 20
132.166
 11
197.147
 21
132.166
  0
LINE
  8
Layer2
  6
DASHED1
 62
7
 10
180.147
 20
133.166
 11
179.147
 21
132.166
  0
LINE
  8
Layer2
  6
DASHED1
 62
7
 10
196.147
 20
133.166
 11
197.147
 21
132.166
  0
LINE
  8
Layer2
  6
CONTINUOUS
 62
7
 10
93.1469
 20
57.5663
 11
93.1469
 21
78.5663
  0
LINE
  8
Layer2
  6
CONTINUOUS
 62
7
 10
283.147
 20
57.5663
 11
283.147
 21
78.5663
  0
LINE
  8
Layer2
  6
CONTINUOUS
 62
7
 10
260.647
 20
153.066
 11
260.647
 21
84.5663
  0
LINE
  8
Layer2
  6
CONTINUOUS
 62
7
 10
115.647
 20
153.066
 11
115.647
 21
84.5663
  0
LINE
  8
Layer2
  6
CONTINUOUS
 62
7
 10
238.147
 20
79.0663
 11
238.147
 21
153.066
  0
LINE
  8
Layer2
  6
CONTINUOUS
 62
7
 10
138.147
 20
79.0663
 11
138.147
 21
153.066
  0
LINE
  8
Layer2
  6
CONTINUOUS
 62
7
 10
115.647
 20
155.066
 11
115.647
 21
170.066
  0
LINE
  8
Layer2
  6
CONTINUOUS
 62
7
 10
260.647
 20
155.066
 11
260.647
 21
170.066
  0
LINE
  8
Layer2
  6
CONTINUOUS
 62
7
 10
116.647
 20
171.066
 11
115.647
 21
170.066
  0
LINE
  8
Layer2
  6
CONTINUOUS
 62
7
 10
116.647
 20
154.066
 11
115.647
 21
155.066
  0
LINE
  8
Layer2
  6
CONTINUOUS
 62
7
 10
259.647
 20
171.066
 11
260.647
 21
170.066
  0
LINE
  8
Layer2
  6
CONTINUOUS
 62
7
 10
260.647
 20
155.066
 11
259.647
 21
154.066
  0
LINE
  8
Layer2
  6
CONTINUOUS
 62
7
 10
137.147
 20
154.066
 11
116.647
 21
154.066
  0
LINE
  8
Layer2
  6
CONTINUOUS
 62
7
 10
237.147
 20
154.066
 11
139.147
 21
154.066
  0
LINE
  8
Layer2
  6
CONTINUOUS
 62
7
 10
115.647
 20
153.066
 11
116.647
 21
154.066
  0
LINE
  8
Layer2
  6
CONTINUOUS
 62
7
 10
137.147
 20
154.066
 11
138.147
 21
153.066
  0
LINE
  8
Layer2
  6
CONTINUOUS
 62
7
 10
138.147
 20
153.066
 11
139.147
 21
154.066
  0
LINE
  8
Layer2
  6
CONTINUOUS
 62
7
 10
237.147
 20
154.066
 11
238.147
 21
153.066
  0
LINE
  8
Layer2
  6
CONTINUOUS
 62
7
 10
238.147
 20
153.066
 11
239.147
 21
154.066
  0
LINE
  8
Layer2
  6
CONTINUOUS
 62
7
 10
259.647
 20
154.066
 11
260.647
 21
153.066
  0
LINE
  8
Layer2
  6
CENTER1
 62
7
 10
249.147
 20
180.912
 11
249.147
 21
139.631
  0
LINE
  8
Layer2
  6
CENTER1
 62
7
 10
127.147
 20
178.16
 11
127.147
 21
141.282
  0
LINE
  8
Layer2
  6
CONTINUOUS
 62
7
 10
139.147
 20
79.0663
 11
138.147
 21
80.0663
  0
LINE
  8
Layer2
  6
CONTINUOUS
 62
7
 10
238.147
 20
80.0663
 11
237.147
 21
79.0663
  0
ARC
  8
Layer2
  6
CONTINUOUS
 62
7
 10
110.647
 20
84.5663
 40
5
 50
270
 51
2.03555e-013
  0
ARC
  8
Layer2
  6
CONTINUOUS
 62
7
 10
265.647
 20
84.5663
 40
5
 50
180
 51
270
  0
LINE
  8
Layer2
  6
CONTINUOUS
 62
7
 10
282.147
 20
79.5663
 11
283.147
 21
78.5663
  0
LINE
  8
Layer2
  6
CONTINUOUS
 62
7
 10
283.147
 20
57.5663
 11
282.147
 21
56.5663
  0
LINE
  8
Layer2
  6
CONTINUOUS
 62
7
 10
93.1469
 20
78.5663
 11
94.1469
 21
79.5663
  0
LINE
  8
Layer2
  6
CONTINUOUS
 62
7
 10
93.1469
 20
57.5663
 11
94.1469
 21
56.5663
  0
LINE
  8
Layer2
  6
CENTER1
 62
7
 10
272.147
 20
90.7453
 11
272.147
 21
45.6103
  0
LINE
  8
Layer2
  6
CENTER1
 62
7
 10
104.147
 20
86.3413
 11
104.147
 21
43.4093
  0
LINE
  8
Layer2
  6
DASHED1
 62
7
 10
238.147
 20
134.166
 11
238.147
 21
170.066
  0
LINE
  8
Layer2
  6
DASHED1
 62
7
 10
138.147
 20
134.166
 11
138.147
 21
170.066
  0
LINE
  8
Layer2
  6
CONTINUOUS
 62
7
 10
260.647
 20
246.166
 11
260.647
 21
232.166
  0
LINE
  8
Layer2
  6
CONTINUOUS
 62
7
 10
115.647
 20
232.166
 11
115.647
 21
246.166
  0
ARC
  8
Layer2
  6
CONTINUOUS
 62
7
 10
133.147
 20
226.166
 40
5
 50
0
 51
90
  0
ARC
  8
Layer2
  6
CONTINUOUS
 62
7
 10
243.147
 20
226.166
 40
5
 50
90
 51
180
  0
LINE
  8
Layer2
  6
CENTER1
 62
7
 10
249.147
 20
224.585
 11
249.147
 21
251.26
  0
LINE
  8
Layer2
  6
CENTER1
 62
7
 10
127.147
 20
222.493
 11
127.147
 21
253.352
  0
LINE
  8
Layer2
  6
CONTINUOUS
 62
7
 10
115.647
 20
246.166
 11
116.647
 21
247.166
  0
LINE
  8
Layer2
  6
CONTINUOUS
 62
7
 10
115.647
 20
232.166
 11
116.647
 21
231.166
  0
LINE
  8
Layer2
  6
CONTINUOUS
 62
7
 10
259.647
 20
231.166
 11
260.647
 21
232.166
  0
LINE
  8
Layer2
  6
CONTINUOUS
 62
7
 10
260.647
 20
246.166
 11
259.647
 21
247.166
  0
LINE
  8
Layer2
  6
CONTINUOUS
 62
7
 10
138.147
 20
170.066
 11
138.147
 21
226.166
  0
LINE
  8
Layer2
  6
CONTINUOUS
 62
7
 10
238.147
 20
170.066
 11
238.147
 21
226.166
  0
LINE
  8
Layer2
  6
DASHED1
 62
7
 10
140.147
 20
132.166
 11
138.147
 21
134.166
  0
LINE
  8
Layer2
  6
DASHED1
 62
7
 10
236.147
 20
132.166
 11
238.147
 21
134.166
  0
LINE
  8
Layer2
  6
CONTINUOUS
 62
7
 10
430.322
 20
536.422
 11
606.322
 21
536.422
  0
LINE
  8
Layer2
  6
CONTINUOUS
 62
7
 10
430.322
 20
346.422
 11
606.322
 21
346.422
  0
LINE
  8
Layer2
  6
DASHED1
 62
7
 10
428.322
 20
491.422
 11
608.322
 21
491.422
  0
LINE
  8
Layer2
  6
DASHED1
 62
7
 10
428.322
 20
391.422
 11
608.322
 21
391.422
  0
LINE
  8
Layer2
  6
CONTINUOUS
 62
7
 10
525.322
 20
513.922
 11
428.322
 21
513.922
  0
LINE
  8
Layer2
  6
CONTINUOUS
 62
7
 10
429.322
 20
368.922
 11
525.322
 21
368.922
  0
LINE
  8
Layer2
  6
CONTINUOUS
 62
7
 10
425.822
 20
491.422
 11
423.322
 21
491.422
  0
LINE
  8
Layer2
  6
CONTINUOUS
 62
7
 10
425.822
 20
391.422
 11
423.322
 21
391.422
  0
LINE
  8
Layer2
  6
CONTINUOUS
 62
7
 10
421.322
 20
391.422
 11
400.322
 21
391.422
  0
LINE
  8
Layer2
  6
CONTINUOUS
 62
7
 10
421.322
 20
491.422
 11
400.322
 21
491.422
  0
LINE
  8
Layer2
  6
CONTINUOUS
 62
7
 10
400.322
 20
491.422
 11
399.322
 21
490.422
  0
LINE
  8
Layer2
  6
CONTINUOUS
 62
7
 10
399.322
 20
392.422
 11
400.322
 21
391.422
  0
LINE
  8
Layer2
  6
CONTINUOUS
 62
7
 10
421.322
 20
391.422
 11
422.322
 21
392.422
  0
LINE
  8
Layer2
  6
CONTINUOUS
 62
7
 10
422.322
 20
490.422
 11
421.322
 21
491.422
  0
LINE
  8
Layer2
  6
CONTINUOUS
 62
7
 10
423.322
 20
491.422
 11
422.322
 21
490.422
  0
LINE
  8
Layer2
  6
CONTINUOUS
 62
7
 10
422.322
 20
392.422
 11
423.322
 21
391.422
  0
LINE
  8
Layer2
  6
CONTINUOUS
 62
7
 10
525.322
 20
513.922
 11
526.322
 21
512.922
  0
LINE
  8
Layer2
  6
CONTINUOUS
 62
7
 10
526.322
 20
369.922
 11
525.322
 21
368.922
  0
LINE
  8
Layer2
  6
CONTINUOUS
 62
7
 10
429.322
 20
368.922
 11
428.322
 21
369.922
  0
LINE
  8
Layer2
  6
CONTINUOUS
 62
7
 10
606.322
 20
536.422
 11
608.322
 21
534.422
  0
LINE
  8
Layer2
  6
CONTINUOUS
 62
7
 10
608.322
 20
348.422
 11
606.322
 21
346.422
  0
LINE
  8
Layer2
  6
CONTINUOUS
 62
7
 10
430.322
 20
346.422
 11
428.322
 21
348.422
  0
LINE
  8
Layer2
  6
CONTINUOUS
 62
7
 10
428.322
 20
534.422
 11
430.322
 21
536.422
  0
LINE
  8
Layer2
  6
CONTINUOUS
 62
7
 10
607.322
 20
513.922
 11
529.322
 21
513.922
  0
LINE
  8
Layer2
  6
CONTINUOUS
 62
7
 10
607.322
 20
368.922
 11
529.322
 21
368.922
  0
LINE
  8
Layer2
  6
CONTINUOUS
 62
7
 10
529.322
 20
513.922
 11
528.322
 21
512.922
  0
LINE
  8
Layer2
  6
CONTINUOUS
 62
7
 10
528.322
 20
369.922
 11
529.322
 21
368.922
  0
LINE
  8
Layer2
  6
CONTINUOUS
 62
7
 10
607.322
 20
368.922
 11
608.322
 21
369.922
  0
LINE
  8
Layer2
  6
CONTINUOUS
 62
7
 10
608.322
 20
512.922
 11
607.322
 21
513.922
  0
LINE
  8
Layer2
  6
CONTINUOUS
 62
7
 10
609.322
 20
513.922
 11
625.322
 21
513.922
  0
LINE
  8
Layer2
  6
CONTINUOUS
 62
7
 10
609.322
 20
368.922
 11
625.322
 21
368.922
  0
LINE
  8
Layer2
  6
CONTINUOUS
 62
7
 10
625.322
 20
513.922
 11
626.322
 21
512.922
  0
LINE
  8
Layer2
  6
CONTINUOUS
 62
7
 10
626.322
 20
369.922
 11
625.322
 21
368.922
  0
LINE
  8
Layer2
  6
CONTINUOUS
 62
7
 10
609.322
 20
368.922
 11
608.322
 21
369.922
  0
LINE
  8
Layer2
  6
CONTINUOUS
 62
7
 10
609.322
 20
513.922
 11
608.322
 21
512.922
  0
LINE
  8
Layer2
  6
CENTER1
 62
7
 10
507.956
 20
525.422
 11
528.499
 21
525.422
  0
LINE
  8
Layer2
  6
CENTER1
 62
7
 10
388.86
 20
482.922
 11
438.252
 21
482.922
  0
LINE
  8
Layer2
  6
CENTER1
 62
7
 10
388.86
 20
399.922
 11
434.518
 21
399.922
  0
TEXT
  8
Layer2
 62
7
 10
664.04
 20
441.422
 72
1
 11
664.04
 21
441.422
 40
6
 41
1
 50
90
  1
 122 
  0
LINE
  8
Layer2
  6
CONTINUOUS
 62
7
 10
638.732
 20
502.422
 11
667.04
 21
502.422
  0
LINE
  8
Layer2
  6
CONTINUOUS
 62
7
 10
640.922
 20
380.422
 11
667.04
 21
380.422
  0
POLYLINE
  8
Layer2
  6
CONTINUOUS
 62
7
 66
1
 10
0
 20
0
 30
0
  0
VERTEX
  8
Layer2
 10
665.04
 20
502.422
  0
VERTEX
  8
Layer2
 10
665.04
 20
380.422
  0
SEQEND
  0
POLYLINE
  8
Layer2
  6
CONTINUOUS
 62
7
 66
1
 10
0
 20
0
 30
0
  0
VERTEX
  8
Layer2
 10
664.263
 20
499.525
  0
VERTEX
  8
Layer2
 10
665.04
 20
502.422
  0
VERTEX
  8
Layer2
 10
665.816
 20
499.525
  0
SEQEND
  0
POLYLINE
  8
Layer2
  6
CONTINUOUS
 62
7
 66
1
 10
0
 20
0
 30
0
  0
VERTEX
  8
Layer2
 10
665.816
 20
383.32
  0
VERTEX
  8
Layer2
 10
665.04
 20
380.422
  0
VERTEX
  8
Layer2
 10
664.263
 20
383.32
  0
SEQEND
  0
TEXT
  8
Layer2
 62
7
 10
692.089
 20
441.422
 72
1
 11
692.089
 21
441.422
 40
6
 41
1
 50
90
  1
 168 
  0
LINE
  8
Layer2
  6
CONTINUOUS
 62
7
 10
601.822
 20
525.422
 11
695.089
 21
525.422
  0
LINE
  8
Layer2
  6
CONTINUOUS
 62
7
 10
601.798
 20
357.422
 11
695.089
 21
357.422
  0
POLYLINE
  8
Layer2
  6
CONTINUOUS
 62
7
 66
1
 10
0
 20
0
 30
0
  0
VERTEX
  8
Layer2
 10
693.089
 20
525.422
  0
VERTEX
  8
Layer2
 10
693.089
 20
357.422
  0
SEQEND
  0
POLYLINE
  8
Layer2
  6
CONTINUOUS
 62
7
 66
1
 10
0
 20
0
 30
0
  0
VERTEX
  8
Layer2
 10
692.313
 20
522.525
  0
VERTEX
  8
Layer2
 10
693.089
 20
525.422
  0
VERTEX
  8
Layer2
 10
693.866
 20
522.525
  0
SEQEND
  0
POLYLINE
  8
Layer2
  6
CONTINUOUS
 62
7
 66
1
 10
0
 20
0
 30
0
  0
VERTEX
  8
Layer2
 10
693.866
 20
360.32
  0
VERTEX
  8
Layer2
 10
693.089
 20
357.422
  0
VERTEX
  8
Layer2
 10
692.313
 20
360.32
  0
SEQEND
  0
TEXT
  8
Layer2
 62
7
 10
709.163
 20
441.422
 72
1
 11
709.163
 21
441.422
 40
6
 41
1
 50
90
  1
 190 
  0
LINE
  8
Layer2
  6
CONTINUOUS
 62
7
 10
604.843
 20
536.422
 11
712.163
 21
536.422
  0
LINE
  8
Layer2
  6
CONTINUOUS
 62
7
 10
606.062
 20
346.422
 11
712.163
 21
346.422
  0
POLYLINE
  8
Layer2
  6
CONTINUOUS
 62
7
 66
1
 10
0
 20
0
 30
0
  0
VERTEX
  8
Layer2
 10
710.163
 20
536.422
  0
VERTEX
  8
Layer2
 10
710.163
 20
346.422
  0
SEQEND
  0
POLYLINE
  8
Layer2
  6
CONTINUOUS
 62
7
 66
1
 10
0
 20
0
 30
0
  0
VERTEX
  8
Layer2
 10
709.387
 20
533.525
  0
VERTEX
  8
Layer2
 10
710.163
 20
536.422
  0
VERTEX
  8
Layer2
 10
710.94
 20
533.525
  0
SEQEND
  0
POLYLINE
  8
Layer2
  6
CONTINUOUS
 62
7
 66
1
 10
0
 20
0
 30
0
  0
VERTEX
  8
Layer2
 10
710.94
 20
349.32
  0
VERTEX
  8
Layer2
 10
710.163
 20
346.422
  0
VERTEX
  8
Layer2
 10
709.387
 20
349.32
  0
SEQEND
  0
TEXT
  8
Layer2
 62
7
 10
568.322
 20
277.256
 72
1
 11
568.322
 21
277.256
 40
6
 41
1
  1
 80 
  0
LINE
  8
Layer2
  6
CONTINUOUS
 62
7
 10
608.322
 20
372.422
 11
608.322
 21
274.256
  0
LINE
  8
Layer2
  6
CONTINUOUS
 62
7
 10
528.322
 20
367.922
 11
528.322
 21
274.256
  0
POLYLINE
  8
Layer2
  6
CONTINUOUS
 62
7
 66
1
 10
0
 20
0
 30
0
  0
VERTEX
  8
Layer2
 10
608.322
 20
276.256
  0
VERTEX
  8
Layer2
 10
528.322
 20
276.256
  0
SEQEND
  0
POLYLINE
  8
Layer2
  6
CONTINUOUS
 62
7
 66
1
 10
0
 20
0
 30
0
  0
VERTEX
  8
Layer2
 10
605.424
 20
277.032
  0
VERTEX
  8
Layer2
 10
608.322
 20
276.256
  0
VERTEX
  8
Layer2
 10
605.424
 20
275.479
  0
SEQEND
  0
POLYLINE
  8
Layer2
  6
CONTINUOUS
 62
7
 66
1
 10
0
 20
0
 30
0
  0
VERTEX
  8
Layer2
 10
531.22
 20
275.479
  0
VERTEX
  8
Layer2
 10
528.322
 20
276.256
  0
VERTEX
  8
Layer2
 10
531.22
 20
277.032
  0
SEQEND
  0
LINE
  8
Layer2
  6
CONTINUOUS
 62
7
 10
543.322
 20
373.142
 11
543.322
 21
305.599
  0
LINE
  8
Layer2
  6
CONTINUOUS
 62
7
 10
528.322
 20
313.281
 11
528.322
 21
302.305
  0
TEXT
  8
Layer2
 62
7
 10
565.881
 20
308.916
 72
1
 11
565.881
 21
308.916
 40
6
 41
1
  1
 50 
  0
LINE
  8
Layer2
  6
CONTINUOUS
 62
7
 10
593.322
 20
371.848
 11
593.322
 21
305.919
  0
LINE
  8
Layer2
  6
CENTER1
 62
7
 10
205.147
 20
75.0845
 11
205.147
 21
59.9582
  0
LINE
  8
Layer2
  6
CENTER1
 62
7
 10
171.147
 20
75.5137
 11
171.147
 21
59.7352
  0
LINE
  8
Layer2
  6
CENTER1
 62
7
 10
214.841
 20
67.8663
 11
161.747
 21
67.8663
  0
TEXT
  8
Layer2
 62
7
 10
188.147
 20
40.5693
 72
1
 11
188.147
 21
40.5693
 40
6
 41
1
  1
 83 
  0
LINE
  8
Layer2
  6
CONTINUOUS
 62
7
 10
229.647
 20
75.9473
 11
229.647
 21
34.5693
  0
LINE
  8
Layer2
  6
CONTINUOUS
 62
7
 10
146.647
 20
75.9473
 11
146.647
 21
34.5693
  0
POLYLINE
  8
Layer2
  6
CONTINUOUS
 62
7
 66
1
 10
0
 20
0
 30
0
  0
VERTEX
  8
Layer2
 10
229.647
 20
38.5693
  0
VERTEX
  8
Layer2
 10
146.647
 20
38.5693
  0
SEQEND
  0
POLYLINE
  8
Layer2
  6
CONTINUOUS
 62
7
 66
1
 10
0
 20
0
 30
0
 70
1
  0
VERTEX
  8
Layer2
 10
225.784
 20
39.6046
  0
VERTEX
  8
Layer2
 10
229.647
 20
38.5693
  0
VERTEX
  8
Layer2
 10
225.784
 20
37.5341
  0
SEQEND
  0
POLYLINE
  8
Layer2
  6
CONTINUOUS
 62
7
 66
1
 10
0
 20
0
 30
0
 70
1
  0
VERTEX
  8
Layer2
 10
150.511
 20
37.5341
  0
VERTEX
  8
Layer2
 10
146.647
 20
38.5693
  0
VERTEX
  8
Layer2
 10
150.511
 20
39.6046
  0
SEQEND
  0
TEXT
  8
Layer2
 62
7
 10
188.147
 20
24.2963
 72
1
 11
188.147
 21
24.2963
 40
6
 41
1
  1
 100 
  0
LINE
  8
Layer2
  6
CONTINUOUS
 62
7
 10
138.147
 20
79.0663
 11
138.147
 21
18.2963
  0
LINE
  8
Layer2
  6
CONTINUOUS
 62
7
 10
238.147
 20
79.0663
 11
238.147
 21
18.2963
  0
POLYLINE
  8
Layer2
  6
CONTINUOUS
 62
7
 66
1
 10
0
 20
0
 30
0
  0
VERTEX
  8
Layer2
 10
138.147
 20
22.2963
  0
VERTEX
  8
Layer2
 10
238.147
 20
22.2963
  0
SEQEND
  0
POLYLINE
  8
Layer2
  6
CONTINUOUS
 62
7
 66
1
 10
0
 20
0
 30
0
 70
1
  0
VERTEX
  8
Layer2
 10
142.011
 20
21.261
  0
VERTEX
  8
Layer2
 10
138.147
 20
22.2963
  0
VERTEX
  8
Layer2
 10
142.011
 20
23.3315
  0
SEQEND
  0
POLYLINE
  8
Layer2
  6
CONTINUOUS
 62
7
 66
1
 10
0
 20
0
 30
0
 70
1
  0
VERTEX
  8
Layer2
 10
234.284
 20
23.3315
  0
VERTEX
  8
Layer2
 10
238.147
 20
22.2963
  0
VERTEX
  8
Layer2
 10
234.284
 20
21.261
  0
SEQEND
  0
TEXT
  8
Layer2
 62
7
 10
297.42
 20
69.0317
 72
1
 11
297.42
 21
69.0317
 40
6
 41
1
 50
90
  1
 60 
  0
LINE
  8
Layer2
  6
CONTINUOUS
 62
7
 10
252.837
 20
116.566
 11
303.42
 21
116.566
  0
LINE
  8
Layer2
  6
CONTINUOUS
 62
7
 10
282.147
 20
56.5663
 11
303.42
 21
56.5663
  0
POLYLINE
  8
Layer2
  6
CONTINUOUS
 62
7
 66
1
 10
0
 20
0
 30
0
  0
VERTEX
  8
Layer2
 10
299.42
 20
116.566
  0
VERTEX
  8
Layer2
 10
299.42
 20
56.5663
  0
SEQEND
  0
POLYLINE
  8
Layer2
  6
CONTINUOUS
 62
7
 66
1
 10
0
 20
0
 30
0
 70
1
  0
VERTEX
  8
Layer2
 10
298.384
 20
112.702
  0
VERTEX
  8
Layer2
 10
299.42
 20
116.566
  0
VERTEX
  8
Layer2
 10
300.455
 20
112.702
  0
SEQEND
  0
POLYLINE
  8
Layer2
  6
CONTINUOUS
 62
7
 66
1
 10
0
 20
0
 30
0
 70
1
  0
VERTEX
  8
Layer2
 10
300.455
 20
60.43
  0
VERTEX
  8
Layer2
 10
299.42
 20
56.5663
  0
VERTEX
  8
Layer2
 10
298.384
 20
60.43
  0
SEQEND
  0
TEXT
  8
Layer2
 62
7
 10
317.501
 20
116.566
 72
1
 11
317.501
 21
116.566
 40
6
 41
1
 50
90
  1
 58 
  0
LINE
  8
Layer2
  6
CONTINUOUS
 62
7
 10
240.358
 20
87.5663
 11
323.501
 21
87.5663
  0
LINE
  8
Layer2
  6
CONTINUOUS
 62
7
 10
243.726
 20
145.566
 11
323.501
 21
145.566
  0
POLYLINE
  8
Layer2
  6
CONTINUOUS
 62
7
 66
1
 10
0
 20
0
 30
0
  0
VERTEX
  8
Layer2
 10
319.501
 20
87.5663
  0
VERTEX
  8
Layer2
 10
319.501
 20
145.566
  0
SEQEND
  0
POLYLINE
  8
Layer2
  6
CONTINUOUS
 62
7
 66
1
 10
0
 20
0
 30
0
 70
1
  0
VERTEX
  8
Layer2
 10
320.537
 20
91.43
  0
VERTEX
  8
Layer2
 10
319.501
 20
87.5663
  0
VERTEX
  8
Layer2
 10
318.466
 20
91.43
  0
SEQEND
  0
POLYLINE
  8
Layer2
  6
CONTINUOUS
 62
7
 66
1
 10
0
 20
0
 30
0
 70
1
  0
VERTEX
  8
Layer2
 10
318.466
 20
141.702
  0
VERTEX
  8
Layer2
 10
319.501
 20
145.566
  0
VERTEX
  8
Layer2
 10
320.537
 20
141.702
  0
SEQEND
  0
TEXT
  8
Layer2
 62
7
 10
332.736
 20
116.566
 72
1
 11
332.736
 21
116.566
 40
6
 41
1
 50
90
  1
 75 
  0
LINE
  8
Layer2
  6
CONTINUOUS
 62
7
 10
237.147
 20
79.0663
 11
338.736
 21
79.0663
  0
LINE
  8
Layer2
  6
CONTINUOUS
 62
7
 10
237.147
 20
154.066
 11
338.736
 21
154.066
  0
POLYLINE
  8
Layer2
  6
CONTINUOUS
 62
7
 66
1
 10
0
 20
0
 30
0
  0
VERTEX
  8
Layer2
 10
334.736
 20
79.0663
  0
VERTEX
  8
Layer2
 10
334.736
 20
154.066
  0
SEQEND
  0
POLYLINE
  8
Layer2
  6
CONTINUOUS
 62
7
 66
1
 10
0
 20
0
 30
0
 70
1
  0
VERTEX
  8
Layer2
 10
335.771
 20
82.93
  0
VERTEX
  8
Layer2
 10
334.736
 20
79.0663
  0
VERTEX
  8
Layer2
 10
333.701
 20
82.93
  0
SEQEND
  0
POLYLINE
  8
Layer2
  6
CONTINUOUS
 62
7
 66
1
 10
0
 20
0
 30
0
 70
1
  0
VERTEX
  8
Layer2
 10
333.701
 20
150.202
  0
VERTEX
  8
Layer2
 10
334.736
 20
154.066
  0
VERTEX
  8
Layer2
 10
335.771
 20
150.202
  0
SEQEND
  0
LINE
  8
Layer2
  6
CONTINUOUS
 62
7
 10
626.322
 20
153.566
 11
626.322
 21
137.566
  0
LINE
  8
Layer2
  6
CONTINUOUS
 62
7
 10
626.322
 20
153.566
 11
635.722
 21
153.566
  0
LINE
  8
Layer2
  6
CONTINUOUS
 62
7
 10
626.322
 20
137.566
 11
635.722
 21
137.566
  0
LINE
  8
Layer2
  6
CONTINUOUS
 62
7
 10
635.722
 20
153.566
 11
635.722
 21
137.566
  0
LINE
  8
Layer2
  6
CONTINUOUS
 62
7
 10
636.322
 20
152.966
 11
636.322
 21
138.166
  0
LINE
  8
Layer2
  6
CONTINUOUS
 62
7
 10
635.722
 20
153.566
 11
636.322
 21
152.966
  0
LINE
  8
Layer2
  6
CONTINUOUS
 62
7
 10
635.722
 20
137.566
 11
636.322
 21
138.166
  0
LINE
  8
Layer2
  6
CONTINUOUS
 62
7
 10
626.91
 20
152.566
 11
635.135
 21
152.566
  0
LINE
  8
Layer2
  6
CONTINUOUS
 62
7
 10
627.497
 20
151.566
 11
634.547
 21
151.566
  0
LINE
  8
Layer2
  6
CONTINUOUS
 62
7
 10
628.085
 20
150.566
 11
633.96
 21
150.566
  0
LINE
  8
Layer2
  6
CONTINUOUS
 62
7
 10
628.672
 20
149.566
 11
633.372
 21
149.566
  0
LINE
  8
Layer2
  6
CONTINUOUS
 62
7
 10
629.26
 20
148.566
 11
632.785
 21
148.566
  0
LINE
  8
Layer2
  6
CONTINUOUS
 62
7
 10
629.847
 20
147.566
 11
632.197
 21
147.566
  0
LINE
  8
Layer2
  6
CONTINUOUS
 62
7
 10
626.322
 20
125.566
 11
626.322
 21
109.566
  0
LINE
  8
Layer2
  6
CONTINUOUS
 62
7
 10
626.322
 20
125.566
 11
635.722
 21
125.566
  0
LINE
  8
Layer2
  6
CONTINUOUS
 62
7
 10
626.322
 20
109.566
 11
635.722
 21
109.566
  0
LINE
  8
Layer2
  6
CONTINUOUS
 62
7
 10
635.722
 20
125.566
 11
635.722
 21
109.566
  0
LINE
  8
Layer2
  6
CONTINUOUS
 62
7
 10
636.322
 20
124.966
 11
636.322
 21
110.166
  0
LINE
  8
Layer2
  6
CONTINUOUS
 62
7
 10
635.722
 20
125.566
 11
636.322
 21
124.966
  0
LINE
  8
Layer2
  6
CONTINUOUS
 62
7
 10
635.722
 20
109.566
 11
636.322
 21
110.166
  0
LINE
  8
Layer2
  6
CONTINUOUS
 62
7
 10
626.91
 20
124.566
 11
635.135
 21
124.566
  0
LINE
  8
Layer2
  6
CONTINUOUS
 62
7
 10
627.497
 20
123.566
 11
634.547
 21
123.566
  0
LINE
  8
Layer2
  6
CONTINUOUS
 62
7
 10
628.085
 20
122.566
 11
633.96
 21
122.566
  0
LINE
  8
Layer2
  6
CONTINUOUS
 62
7
 10
628.672
 20
121.566
 11
633.372
 21
121.566
  0
LINE
  8
Layer2
  6
CONTINUOUS
 62
7
 10
629.26
 20
120.566
 11
632.785
 21
120.566
  0
LINE
  8
Layer2
  6
CONTINUOUS
 62
7
 10
629.847
 20
119.566
 11
632.197
 21
119.566
  0
LINE
  8
Layer2
  6
PHANTOM1
 62
7
 10
626.322
 20
97.5662
 11
626.322
 21
81.5663
  0
LINE
  8
Layer2
  6
PHANTOM1
 62
7
 10
626.322
 20
97.5662
 11
635.722
 21
97.5662
  0
LINE
  8
Layer2
  6
PHANTOM1
 62
7
 10
626.322
 20
81.5663
 11
635.722
 21
81.5663
  0
LINE
  8
Layer2
  6
PHANTOM1
 62
7
 10
635.722
 20
97.5662
 11
635.722
 21
81.5663
  0
LINE
  8
Layer2
  6
PHANTOM1
 62
7
 10
636.322
 20
96.9662
 11
636.322
 21
82.1663
  0
LINE
  8
Layer2
  6
PHANTOM1
 62
7
 10
635.722
 20
97.5662
 11
636.322
 21
96.9662
  0
LINE
  8
Layer2
  6
PHANTOM1
 62
7
 10
635.722
 20
81.5663
 11
636.322
 21
82.1663
  0
LINE
  8
Layer2
  6
PHANTOM1
 62
7
 10
626.91
 20
96.5663
 11
635.135
 21
96.5663
  0
LINE
  8
Layer2
  6
PHANTOM1
 62
7
 10
627.497
 20
95.5663
 11
634.547
 21
95.5663
  0
LINE
  8
Layer2
  6
PHANTOM1
 62
7
 10
628.085
 20
94.5663
 11
633.96
 21
94.5663
  0
LINE
  8
Layer2
  6
PHANTOM1
 62
7
 10
628.672
 20
93.5663
 11
633.372
 21
93.5663
  0
LINE
  8
Layer2
  6
PHANTOM1
 62
7
 10
629.26
 20
92.5663
 11
632.785
 21
92.5663
  0
LINE
  8
Layer2
  6
PHANTOM1
 62
7
 10
629.847
 20
91.5663
 11
632.197
 21
91.5663
  0
TEXT
  8
Layer2
 62
7
 10
722.75
 20
175.27
 72
1
 11
722.75
 21
175.27
 40
6
 41
1
 50
90
  1
(オープンハイト）
  0
TEXT
  8
Layer2
 62
7
 10
700.937
 20
148.899
 72
1
 11
700.937
 21
148.899
 40
6
 41
1
 50
90
  1
(シャットハイト） 
  0
LINE
  8
Layer2
  6
CONTINUOUS
 62
7
 10
610.322
 20
56.5663
 11
662.696
 21
56.5663
  0
TEXT
  8
Layer2
 62
7
 10
724.212
 20
139.069
 72
1
 11
724.212
 21
139.069
 40
6
 41
1
 50
90
  1
 190.6 
  0
LINE
  8
Layer2
  6
CONTINUOUS
 62
7
 10
610.322
 20
247.166
 11
730.212
 21
247.166
  0
LINE
  8
Layer2
  6
CONTINUOUS
 62
7
 10
610.322
 20
56.5663
 11
730.212
 21
56.5663
  0
POLYLINE
  8
Layer2
  6
CONTINUOUS
 62
7
 66
1
 10
0
 20
0
 30
0
  0
VERTEX
  8
Layer2
 10
726.212
 20
247.166
  0
VERTEX
  8
Layer2
 10
726.212
 20
56.5663
  0
SEQEND
  0
POLYLINE
  8
Layer2
  6
CONTINUOUS
 62
7
 66
1
 10
0
 20
0
 30
0
 70
1
  0
VERTEX
  8
Layer2
 10
725.177
 20
243.302
  0
VERTEX
  8
Layer2
 10
726.212
 20
247.166
  0
VERTEX
  8
Layer2
 10
727.248
 20
243.302
  0
SEQEND
  0
POLYLINE
  8
Layer2
  6
CONTINUOUS
 62
7
 66
1
 10
0
 20
0
 30
0
 70
1
  0
VERTEX
  8
Layer2
 10
727.248
 20
60.43
  0
VERTEX
  8
Layer2
 10
726.212
 20
56.5663
  0
VERTEX
  8
Layer2
 10
725.177
 20
60.43
  0
SEQEND
  0
TEXT
  8
Layer2
 62
7
 10
703.438
 20
115.594
 72
1
 11
703.438
 21
115.594
 40
6
 41
1
 50
90
  1
143
  0
LINE
  8
Layer2
  6
CONTINUOUS
 62
7
 10
611.322
 20
199.566
 11
709.438
 21
199.566
  0
LINE
  8
Layer2
  6
CONTINUOUS
 62
7
 10
704.053
 20
56.5663
 11
709.438
 21
56.5663
  0
POLYLINE
  8
Layer2
  6
CONTINUOUS
 62
7
 66
1
 10
0
 20
0
 30
0
  0
VERTEX
  8
Layer2
 10
705.438
 20
199.566
  0
VERTEX
  8
Layer2
 10
705.438
 20
56.5663
  0
SEQEND
  0
POLYLINE
  8
Layer2
  6
CONTINUOUS
 62
7
 66
1
 10
0
 20
0
 30
0
 70
1
  0
VERTEX
  8
Layer2
 10
704.403
 20
195.702
  0
VERTEX
  8
Layer2
 10
705.438
 20
199.566
  0
VERTEX
  8
Layer2
 10
706.473
 20
195.702
  0
SEQEND
  0
POLYLINE
  8
Layer2
  6
CONTINUOUS
 62
7
 66
1
 10
0
 20
0
 30
0
 70
1
  0
VERTEX
  8
Layer2
 10
706.473
 20
60.43
  0
VERTEX
  8
Layer2
 10
705.438
 20
56.5663
  0
VERTEX
  8
Layer2
 10
704.403
 20
60.43
  0
SEQEND
  0
TEXT
  8
Layer2
 62
7
 10
583.392
 20
172.058
 72
1
 11
583.392
 21
172.058
 40
6
 41
1
 50
20
  1
 40°
  0
ARC
  8
Layer2
  6
CONTINUOUS
 62
7
 10
608.322
 20
103.564
 40
70.8898
 50
90
 51
130
  0
LINE
  8
Layer2
  6
CONTINUOUS
 62
7
 10
548.322
 20
468.922
 11
548.322
 21
413.922
  0
LINE
  8
Layer2
  6
CONTINUOUS
 62
7
 10
588.322
 20
468.922
 11
588.322
 21
413.922
  0
LINE
  8
Layer2
  6
CONTINUOUS
 62
7
 10
548.322
 20
468.922
 11
588.322
 21
468.922
  0
LINE
  8
Layer2
  6
CONTINUOUS
 62
7
 10
548.322
 20
413.922
 11
588.322
 21
413.922
  0
LINE
  8
Layer2
  6
DASHED1
 62
7
 10
548.322
 20
247.166
 11
548.322
 21
205.69
  0
LINE
  8
Layer2
  6
DASHED1
 62
7
 10
588.322
 20
247.166
 11
588.322
 21
187.166
  0
LINE
  8
Layer2
  6
DASHED1
 62
7
 10
588.322
 20
187.166
 11
563.865
 21
187.166
  0
LINE
  8
Layer2
  6
DASHED1
 62
7
 10
563.865
 20
187.166
 11
548.322
 21
205.69
  0
TEXT
  8
Layer2
 62
7
 10
535.822
 20
311.089
 72
1
 11
535.822
 21
311.089
 40
6
 41
1
  1
 15 
  0
LINE
  8
Layer2
  6
CONTINUOUS
 62
7
 10
528.322
 20
308.099
 11
528.322
 21
313.089
  0
LINE
  8
Layer2
  6
CONTINUOUS
 62
7
 10
543.322
 20
308.916
 11
543.322
 21
313.089
  0
POLYLINE
  8
Layer2
  6
CONTINUOUS
 62
7
 66
1
 10
0
 20
0
 30
0
  0
VERTEX
  8
Layer2
 10
528.322
 20
309.089
  0
VERTEX
  8
Layer2
 10
543.322
 20
309.089
  0
SEQEND
  0
POLYLINE
  8
Layer2
  6
CONTINUOUS
 62
7
 66
1
 10
0
 20
0
 30
0
 70
1
  0
VERTEX
  8
Layer2
 10
532.186
 20
308.054
  0
VERTEX
  8
Layer2
 10
528.322
 20
309.089
  0
VERTEX
  8
Layer2
 10
532.186
 20
310.124
  0
SEQEND
  0
POLYLINE
  8
Layer2
  6
CONTINUOUS
 62
7
 66
1
 10
0
 20
0
 30
0
 70
1
  0
VERTEX
  8
Layer2
 10
539.459
 20
310.124
  0
VERTEX
  8
Layer2
 10
543.322
 20
309.089
  0
VERTEX
  8
Layer2
 10
539.459
 20
308.054
  0
SEQEND
  0
TEXT
  8
Layer2
 62
7
 10
518.322
 20
574.702
 72
1
 11
518.322
 21
574.702
 40
6
 41
1
  1
 180 
  0
LINE
  8
Layer2
  6
CONTINUOUS
 62
7
 10
608.322
 20
534.422
 11
608.322
 21
576.702
  0
LINE
  8
Layer2
  6
CONTINUOUS
 62
7
 10
428.322
 20
534.422
 11
428.322
 21
576.702
  0
POLYLINE
  8
Layer2
  6
CONTINUOUS
 62
7
 66
1
 10
0
 20
0
 30
0
  0
VERTEX
  8
Layer2
 10
608.322
 20
572.702
  0
VERTEX
  8
Layer2
 10
428.322
 20
572.702
  0
SEQEND
  0
POLYLINE
  8
Layer2
  6
CONTINUOUS
 62
7
 66
1
 10
0
 20
0
 30
0
 70
1
  0
VERTEX
  8
Layer2
 10
604.459
 20
573.737
  0
VERTEX
  8
Layer2
 10
608.322
 20
572.702
  0
VERTEX
  8
Layer2
 10
604.459
 20
571.667
  0
SEQEND
  0
POLYLINE
  8
Layer2
  6
CONTINUOUS
 62
7
 66
1
 10
0
 20
0
 30
0
 70
1
  0
VERTEX
  8
Layer2
 10
432.186
 20
571.667
  0
VERTEX
  8
Layer2
 10
428.322
 20
572.702
  0
VERTEX
  8
Layer2
 10
432.186
 20
573.737
  0
SEQEND
  0
TEXT
  8
Layer2
 62
7
 10
483.322
 20
552.444
 72
1
 11
483.322
 21
552.444
 40
6
 41
1
  1
 70 
  0
LINE
  8
Layer2
  6
CONTINUOUS
 62
7
 10
448.322
 20
544.995
 11
448.322
 21
554.444
  0
LINE
  8
Layer2
  6
CONTINUOUS
 62
7
 10
518.322
 20
544.202
 11
518.322
 21
554.444
  0
POLYLINE
  8
Layer2
  6
CONTINUOUS
 62
7
 66
1
 10
0
 20
0
 30
0
  0
VERTEX
  8
Layer2
 10
448.322
 20
550.444
  0
VERTEX
  8
Layer2
 10
518.322
 20
550.444
  0
SEQEND
  0
POLYLINE
  8
Layer2
  6
CONTINUOUS
 62
7
 66
1
 10
0
 20
0
 30
0
 70
1
  0
VERTEX
  8
Layer2
 10
452.186
 20
549.409
  0
VERTEX
  8
Layer2
 10
448.322
 20
550.444
  0
VERTEX
  8
Layer2
 10
452.186
 20
551.479
  0
SEQEND
  0
POLYLINE
  8
Layer2
  6
CONTINUOUS
 62
7
 66
1
 10
0
 20
0
 30
0
 70
1
  0
VERTEX
  8
Layer2
 10
514.459
 20
551.479
  0
VERTEX
  8
Layer2
 10
518.322
 20
550.444
  0
VERTEX
  8
Layer2
 10
514.459
 20
549.409
  0
SEQEND
  0
TEXT
  8
Layer2
 62
7
 10
553.322
 20
552.444
 72
1
 11
553.322
 21
552.444
 40
6
 41
1
  1
 70 
  0
LINE
  8
Layer2
  6
CONTINUOUS
 62
7
 10
588.322
 20
541.804
 11
588.322
 21
554.444
  0
POLYLINE
  8
Layer2
  6
CONTINUOUS
 62
7
 66
1
 10
0
 20
0
 30
0
  0
VERTEX
  8
Layer2
 10
588.322
 20
550.444
  0
VERTEX
  8
Layer2
 10
518.322
 20
550.444
  0
SEQEND
  0
POLYLINE
  8
Layer2
  6
CONTINUOUS
 62
7
 66
1
 10
0
 20
0
 30
0
 70
1
  0
VERTEX
  8
Layer2
 10
584.459
 20
551.479
  0
VERTEX
  8
Layer2
 10
588.322
 20
550.444
  0
VERTEX
  8
Layer2
 10
584.459
 20
549.409
  0
SEQEND
  0
POLYLINE
  8
Layer2
  6
CONTINUOUS
 62
7
 66
1
 10
0
 20
0
 30
0
 70
1
  0
VERTEX
  8
Layer2
 10
522.186
 20
549.409
  0
VERTEX
  8
Layer2
 10
518.322
 20
550.444
  0
VERTEX
  8
Layer2
 10
522.186
 20
551.479
  0
SEQEND
  0
TEXT
  8
Layer2
 62
7
 10
438.322
 20
552.444
 72
1
 11
438.322
 21
552.444
 40
6
 41
1
  1
 20 
  0
POLYLINE
  8
Layer2
  6
CONTINUOUS
 62
7
 66
1
 10
0
 20
0
 30
0
  0
VERTEX
  8
Layer2
 10
448.322
 20
550.444
  0
VERTEX
  8
Layer2
 10
428.322
 20
550.444
  0
SEQEND
  0
POLYLINE
  8
Layer2
  6
CONTINUOUS
 62
7
 66
1
 10
0
 20
0
 30
0
 70
1
  0
VERTEX
  8
Layer2
 10
444.459
 20
551.479
  0
VERTEX
  8
Layer2
 10
448.322
 20
550.444
  0
VERTEX
  8
Layer2
 10
444.459
 20
549.409
  0
SEQEND
  0
POLYLINE
  8
Layer2
  6
CONTINUOUS
 62
7
 66
1
 10
0
 20
0
 30
0
 70
1
  0
VERTEX
  8
Layer2
 10
432.186
 20
549.409
  0
VERTEX
  8
Layer2
 10
428.322
 20
550.444
  0
VERTEX
  8
Layer2
 10
432.186
 20
551.479
  0
SEQEND
  0
LINE
  8
Layer2
  6
PHANTOM1
 62
7
 10
381.322
 20
79.0663
 11
360.322
 21
79.0663
  0
LINE
  8
Layer2
  6
PHANTOM1
 62
7
 10
382.322
 20
153.066
 11
382.322
 21
80.0663
  0
LINE
  8
Layer2
  6
PHANTOM1
 62
7
 10
359.322
 20
80.0663
 11
359.322
 21
153.066
  0
LINE
  8
Layer2
  6
PHANTOM1
 62
7
 10
360.322
 20
154.066
 11
381.322
 21
154.066
  0
LINE
  8
Layer2
  6
PHANTOM1
 62
7
 10
382.322
 20
153.066
 11
381.322
 21
154.066
  0
LINE
  8
Layer2
  6
PHANTOM1
 62
7
 10
359.322
 20
80.0663
 11
360.322
 21
79.0663
  0
LINE
  8
Layer2
  6
PHANTOM1
 62
7
 10
382.322
 20
80.0663
 11
381.322
 21
79.0663
  0
LINE
  8
Layer2
  6
PHANTOM1
 62
7
 10
359.322
 20
153.066
 11
360.322
 21
154.066
  0
TEXT
  8
Layer2
 62
7
 10
378.759
 20
44.2029
 72
1
 11
378.759
 21
44.2029
 40
6
 41
1
  1
 40ストローク 
  0
LINE
  8
Layer2
  6
CONTINUOUS
 62
7
 10
359.322
 20
80.0663
 11
359.322
 21
52.5663
  0
LINE
  8
Layer2
  6
CONTINUOUS
 62
7
 10
399.322
 20
80.0663
 11
399.322
 21
52.5663
  0
POLYLINE
  8
Layer2
  6
CONTINUOUS
 62
7
 66
1
 10
0
 20
0
 30
0
  0
VERTEX
  8
Layer2
 10
359.322
 20
56.5663
  0
VERTEX
  8
Layer2
 10
399.322
 20
56.5663
  0
SEQEND
  0
POLYLINE
  8
Layer2
  6
CONTINUOUS
 62
7
 66
1
 10
0
 20
0
 30
0
 70
1
  0
VERTEX
  8
Layer2
 10
363.186
 20
55.531
  0
VERTEX
  8
Layer2
 10
359.322
 20
56.5663
  0
VERTEX
  8
Layer2
 10
363.186
 20
57.6016
  0
SEQEND
  0
POLYLINE
  8
Layer2
  6
CONTINUOUS
 62
7
 66
1
 10
0
 20
0
 30
0
 70
1
  0
VERTEX
  8
Layer2
 10
395.459
 20
57.6016
  0
VERTEX
  8
Layer2
 10
399.322
 20
56.5663
  0
VERTEX
  8
Layer2
 10
395.459
 20
55.531
  0
SEQEND
  0
POLYLINE
  8
Layer2
  6
CONTINUOUS
 62
7
 66
1
 10
0
 20
0
 30
0
  0
VERTEX
  8
Layer2
 10
458.598
 20
154.066
  0
VERTEX
  8
Layer2
 10
459.132
 20
152.376
  0
VERTEX
  8
Layer2
 10
459.698
 20
150.731
  0
VERTEX
  8
Layer2
 10
460.326
 20
149.173
  0
VERTEX
  8
Layer2
 10
461.048
 20
147.748
  0
VERTEX
  8
Layer2
 10
461.896
 20
146.499
  0
VERTEX
  8
Layer2
 10
462.899
 20
145.471
  0
VERTEX
  8
Layer2
 10
464.089
 20
144.704
  0
VERTEX
  8
Layer2
 10
465.456
 20
144.181
  0
VERTEX
  8
Layer2
 10
466.967
 20
143.841
  0
VERTEX
  8
Layer2
 10
468.586
 20
143.621
  0
VERTEX
  8
Layer2
 10
470.276
 20
143.461
  0
VERTEX
  8
Layer2
 10
472.003
 20
143.297
  0
VERTEX
  8
Layer2
 10
473.734
 20
143.076
  0
VERTEX
  8
Layer2
 10
475.46
 20
142.786
  0
VERTEX
  8
Layer2
 10
477.178
 20
142.429
  0
VERTEX
  8
Layer2
 10
478.884
 20
142.007
  0
VERTEX
  8
Layer2
 10
480.575
 20
141.522
  0
VERTEX
  8
Layer2
 10
482.249
 20
140.975
  0
VERTEX
  8
Layer2
 10
483.901
 20
140.367
  0
VERTEX
  8
Layer2
 10
485.53
 20
139.701
  0
VERTEX
  8
Layer2
 10
487.131
 20
138.979
  0
VERTEX
  8
Layer2
 10
488.701
 20
138.201
  0
VERTEX
  8
Layer2
 10
490.238
 20
137.371
  0
VERTEX
  8
Layer2
 10
491.738
 20
136.489
  0
VERTEX
  8
Layer2
 10
493.198
 20
135.557
  0
VERTEX
  8
Layer2
 10
494.614
 20
134.577
  0
VERTEX
  8
Layer2
 10
495.985
 20
133.551
  0
VERTEX
  8
Layer2
 10
497.306
 20
132.48
  0
VERTEX
  8
Layer2
 10
498.574
 20
131.367
  0
VERTEX
  8
Layer2
 10
499.787
 20
130.212
  0
VERTEX
  8
Layer2
 10
500.941
 20
129.018
  0
VERTEX
  8
Layer2
 10
502.032
 20
127.787
  0
VERTEX
  8
Layer2
 10
503.058
 20
126.519
  0
VERTEX
  8
Layer2
 10
504.016
 20
125.217
  0
VERTEX
  8
Layer2
 10
504.903
 20
123.883
  0
VERTEX
  8
Layer2
 10
505.714
 20
122.518
  0
VERTEX
  8
Layer2
 10
506.448
 20
121.124
  0
VERTEX
  8
Layer2
 10
507.1
 20
119.702
  0
VERTEX
  8
Layer2
 10
507.669
 20
118.255
  0
VERTEX
  8
Layer2
 10
508.149
 20
116.785
  0
VERTEX
  8
Layer2
 10
508.54
 20
115.292
  0
VERTEX
  8
Layer2
 10
508.837
 20
113.778
  0
VERTEX
  8
Layer2
 10
509.044
 20
112.247
  0
VERTEX
  8
Layer2
 10
509.172
 20
110.698
  0
VERTEX
  8
Layer2
 10
509.23
 20
109.136
  0
VERTEX
  8
Layer2
 10
509.229
 20
107.561
  0
VERTEX
  8
Layer2
 10
509.178
 20
105.975
  0
VERTEX
  8
Layer2
 10
509.087
 20
104.382
  0
VERTEX
  8
Layer2
 10
508.967
 20
102.782
  0
VERTEX
  8
Layer2
 10
508.827
 20
101.178
  0
VERTEX
  8
Layer2
 10
508.678
 20
99.5722
  0
VERTEX
  8
Layer2
 10
508.529
 20
97.9662
  0
VERTEX
  8
Layer2
 10
508.391
 20
96.3623
  0
VERTEX
  8
Layer2
 10
508.274
 20
94.7623
  0
VERTEX
  8
Layer2
 10
508.187
 20
93.1684
  0
VERTEX
  8
Layer2
 10
508.141
 20
91.5826
  0
VERTEX
  8
Layer2
 10
508.146
 20
90.0071
  0
VERTEX
  8
Layer2
 10
508.211
 20
88.4437
  0
VERTEX
  8
Layer2
 10
508.346
 20
86.8944
  0
VERTEX
  8
Layer2
 10
508.55
 20
85.3591
  0
VERTEX
  8
Layer2
 10
508.82
 20
83.8371
  0
VERTEX
  8
Layer2
 10
509.153
 20
82.3278
  0
VERTEX
  8
Layer2
 10
509.545
 20
80.8305
  0
VERTEX
  8
Layer2
 10
509.993
 20
79.3445
  0
VERTEX
  8
Layer2
 10
510.494
 20
77.8692
  0
VERTEX
  8
Layer2
 10
511.045
 20
76.4039
  0
VERTEX
  8
Layer2
 10
511.642
 20
74.9479
  0
VERTEX
  8
Layer2
 10
512.281
 20
73.5006
  0
VERTEX
  8
Layer2
 10
512.961
 20
72.0613
  0
VERTEX
  8
Layer2
 10
513.676
 20
70.6293
  0
VERTEX
  8
Layer2
 10
514.425
 20
69.204
  0
VERTEX
  8
Layer2
 10
515.204
 20
67.7847
  0
VERTEX
  8
Layer2
 10
516.008
 20
66.3708
  0
VERTEX
  8
Layer2
 10
516.836
 20
64.9614
  0
VERTEX
  8
Layer2
 10
517.684
 20
63.5561
  0
VERTEX
  8
Layer2
 10
518.548
 20
62.1542
  0
VERTEX
  8
Layer2
 10
519.425
 20
60.7549
  0
VERTEX
  8
Layer2
 10
520.313
 20
59.3576
  0
VERTEX
  8
Layer2
 10
521.207
 20
57.9616
  0
VERTEX
  8
Layer2
 10
522.104
 20
56.5663
  0
SEQEND
  0
LINE
  8
Layer2
  6
DASHED1
 62
7
 10
432.822
 20
171.066
 11
432.822
 21
163.066
  0
LINE
  8
Layer2
  6
DASHED1
 62
7
 10
445.822
 20
171.066
 11
445.822
 21
163.066
  0
LINE
  8
Layer2
  6
DASHED1
 62
7
 10
443.322
 20
163.074
 11
443.322
 21
154.066
  0
LINE
  8
Layer2
  6
DASHED1
 62
7
 10
435.322
 20
163.139
 11
435.322
 21
154.066
  0
LINE
  8
Layer2
  6
DASHED1
 62
7
 10
432.784
 20
163.066
 11
445.822
 21
163.066
  0
LINE
  8
Layer2
  6
CENTER1
 62
7
 10
439.322
 20
175.662
 11
439.322
 21
150.566
  0
LINE
  8
Layer2
  6
DASHED1
 62
7
 10
445.822
 20
163.066
 11
445.822
 21
170.566
  0
LINE
  8
Layer2
  6
DASHED1
 62
7
 10
432.822
 20
163.066
 11
432.822
 21
170.566
  0
LINE
  8
Layer2
  6
DASHED1
 62
7
 10
445.822
 20
170.566
 11
432.822
 21
170.566
  0
LINE
  8
Layer2
  6
DASHED1
 62
7
 10
445.322
 20
171.066
 11
433.322
 21
171.066
  0
LINE
  8
Layer2
  6
DASHED1
 62
7
 10
445.822
 20
170.566
 11
445.322
 21
171.066
  0
LINE
  8
Layer2
  6
DASHED1
 62
7
 10
432.822
 20
170.566
 11
433.322
 21
171.066
  0
LINE
  8
Layer2
  6
DASHED1
 62
7
 10
432.822
 20
163.066
 11
445.822
 21
163.066
  0
LINE
  8
Layer2
  6
DASHED1
 62
7
 10
433.822
 20
163.643
 11
433.822
 21
169.989
  0
LINE
  8
Layer2
  6
DASHED1
 62
7
 10
434.822
 20
164.22
 11
434.822
 21
169.412
  0
LINE
  8
Layer2
  6
DASHED1
 62
7
 10
435.822
 20
164.797
 11
435.822
 21
168.835
  0
LINE
  8
Layer2
  6
DASHED1
 62
7
 10
436.822
 20
165.374
 11
436.822
 21
168.258
  0
LINE
  8
Layer2
  6
CONTINUOUS
 62
7
 10
511.639
 20
171.066
 11
494.74
 21
154.167
  0
LINE
  8
Layer2
  6
CONTINUOUS
 62
7
 10
515.639
 20
171.066
 11
498.639
 21
154.066
  0
LINE
  8
Layer2
  6
CONTINUOUS
 62
7
 10
519.639
 20
171.066
 11
502.691
 21
154.118
  0
LINE
  8
Layer2
  6
CONTINUOUS
 62
7
 10
523.639
 20
171.066
 11
506.666
 21
154.093
  0
LINE
  8
Layer2
  6
CONTINUOUS
 62
7
 10
526.322
 20
169.749
 11
510.709
 21
154.136
  0
LINE
  8
Layer2
  6
CONTINUOUS
 62
7
 10
526.322
 20
165.749
 11
514.651
 21
154.078
  0
LINE
  8
Layer2
  6
CONTINUOUS
 62
7
 10
526.322
 20
160.749
 11
519.587
 21
154.014
  0
LINE
  8
Layer2
  6
CONTINUOUS
 62
7
 10
504.527
 20
171.26
 11
492.322
 21
159.056
  0
TEXT
  8
Layer2
 62
7
 10
291.721
 20
89.464
 73
3
 11
291.721
 21
89.464
 40
6
 41
1
 50
90
  1
(中心間距離）
  0
CIRCLE
  8
Layer2
  6
CONTINUOUS
 62
7
 10
205.147
 20
67.8663
 40
5
  0
CIRCLE
  8
Layer2
  6
CONTINUOUS
 62
7
 10
205.147
 20
67.8663
 40
4
  0
CIRCLE
  8
Layer2
  6
CONTINUOUS
 62
7
 10
171.147
 20
67.8663
 40
4
  0
CIRCLE
  8
Layer2
  6
CONTINUOUS
 62
7
 10
171.147
 20
67.8663
 40
5
  0
LINE
  8
Layer2
  6
CONTINUOUS
 62
7
 10
428.322
 20
57.5663
 11
429.322
 21
56.5663
  0
LINE
  8
Layer2
  6
PHANTOM1
 62
7
 10
454.951
 20
59.2848
 11
565.869
 21
59.2848
  0
LINE
  8
Layer2
  6
PHANTOM1
 62
7
 10
569.234
 20
76.3815
 11
453.465
 21
76.3815
  0
LINE
  8
Layer2
  6
DASHED1
 62
7
 10
467.716
 20
61.399
 11
467.717
 21
71.4347
  0
LINE
  8
Layer2
  6
DASHED1
 62
7
 10
458.222
 20
56.9315
 11
461.139
 21
56.9315
  0
LINE
  8
Layer2
  6
DASHED1
 62
7
 10
459.194
 20
79.2285
 11
456.278
 21
79.2285
  0
LINE
  8
Layer2
  6
DASHED1
 62
7
 10
456.278
 20
73.6615
 11
459.194
 21
73.6615
  0
LINE
  8
Layer2
  6
DASHED1
 62
7
 10
458.222
 20
62.5275
 11
461.139
 21
62.5275
  0
LINE
  8
Layer2
  6
DASHED1
 62
7
 10
459.194
 20
79.2285
 11
459.194
 21
73.6615
  0
LINE
  8
Layer2
  6
DASHED1
 62
7
 10
456.278
 20
79.2285
 11
456.278
 21
73.6615
  0
LINE
  8
Layer2
  6
DASHED1
 62
7
 10
458.222
 20
62.5275
 11
458.222
 21
56.9315
  0
LINE
  8
Layer2
  6
DASHED1
 62
7
 10
461.139
 20
62.5275
 11
461.139
 21
56.9315
  0
LINE
  8
Layer2
  6
DASHED1
 62
7
 10
456.278
 20
73.6615
 11
458.222
 21
62.5275
  0
LINE
  8
Layer2
  6
DASHED1
 62
7
 10
459.194
 20
73.6615
 11
461.139
 21
62.5275
  0
LINE
  8
Layer2
  6
DASHED1
 62
7
 10
457.25
 20
68.0945
 11
458.222
 21
56.9315
  0
LINE
  8
Layer2
  6
DASHED1
 62
7
 10
459.437
 20
79.2285
 11
460.166
 21
68.0945
  0
LINE
  8
Layer2
  6
DASHED1
 62
7
 10
456.035
 20
56.9315
 11
457.493
 21
56.9315
  0
LINE
  8
Layer2
  6
DASHED1
 62
7
 10
457.493
 20
62.4985
 11
456.035
 21
62.4985
  0
LINE
  8
Layer2
  6
DASHED1
 62
7
 10
457.493
 20
56.9315
 11
457.493
 21
62.4985
  0
LINE
  8
Layer2
  6
DASHED1
 62
7
 10
457.493
 20
62.4985
 11
456.521
 21
68.0655
  0
LINE
  8
Layer2
  6
DASHED1
 62
7
 10
456.035
 20
56.9315
 11
456.035
 21
68.0655
  0
LINE
  8
Layer2
  6
DASHED1
 62
7
 10
456.521
 20
68.0655
 11
456.035
 21
68.0655
  0
LINE
  8
Layer2
  6
CONTINUOUS
 62
7
 10
456.035
 20
79.2139
 11
456.035
 21
56.917
  0
LINE
  8
Layer2
  6
DASHED1
 62
7
 10
428.322
 20
71.399
 11
467.717
 21
71.4347
  0
LINE
  8
Layer2
  6
DASHED1
 62
7
 10
428.322
 20
61.399
 11
467.716
 21
61.399
  0
TEXT
  8
Layer2
 62
7
 10
639.377
 20
542.53
 40
6
 41
1
  1
アッパー取付穴
  0
POLYLINE
  8
Layer2
  6
CONTINUOUS
 62
7
 66
1
 10
0
 20
0
 30
0
  0
VERTEX
  8
Layer2
 10
600.211
 20
506.311
  0
VERTEX
  8
Layer2
 10
645.044
 20
553.801
  0
VERTEX
  8
Layer2
 10
645.044
 20
553.801
  0
SEQEND
  0
POLYLINE
  8
Layer2
  6
CONTINUOUS
 62
7
 66
1
 10
0
 20
0
 30
0
 70
1
  0
VERTEX
  8
Layer2
 10
603.616
 20
508.41
  0
VERTEX
  8
Layer2
 10
600.211
 20
506.311
  0
VERTEX
  8
Layer2
 10
602.111
 20
509.831
  0
SEQEND
  0
LINE
  8
Layer2
  6
CONTINUOUS
 62
7
 10
645.044
 20
553.801
 11
663.044
 21
553.801
  0
TEXT
  8
Layer2
 62
7
 10
663.044
 20
555.801
 72
2
 11
663.044
 21
555.801
 40
6
 41
1
  1
4-φ11
  0
TEXT
  8
Layer2
 62
7
 10
385.211
 20
539.379
 40
6
 41
1
  1
ベース取付穴
  0
POLYLINE
  8
Layer2
  6
CONTINUOUS
 62
7
 66
1
 10
0
 20
0
 30
0
  0
VERTEX
  8
Layer2
 10
442.312
 20
531.432
  0
VERTEX
  8
Layer2
 10
417.575
 20
550.002
  0
VERTEX
  8
Layer2
 10
417.575
 20
550.002
  0
SEQEND
  0
POLYLINE
  8
Layer2
  6
CONTINUOUS
 62
7
 66
1
 10
0
 20
0
 30
0
 70
1
  0
VERTEX
  8
Layer2
 10
439.843
 20
534.58
  0
VERTEX
  8
Layer2
 10
442.312
 20
531.432
  0
VERTEX
  8
Layer2
 10
438.6
 20
532.924
  0
SEQEND
  0
LINE
  8
Layer2
  6
CONTINUOUS
 62
7
 10
417.575
 20
550.002
 11
399.575
 21
550.002
  0
TEXT
  8
Layer2
 62
7
 10
399.575
 20
552.002
 40
6
 41
1
  1
6-φ11
  0
LINE
  8
Layer2
  6
CENTER1
 62
7
 10
216.647
 20
90.4833
 11
216.647
 21
84.7313
  0
LINE
  8
Layer2
  6
CENTER1
 62
7
 10
214.376
 20
87.5663
 11
219.567
 21
87.5663
  0
CIRCLE
  8
Layer2
  6
CONTINUOUS
 62
7
 10
216.647
 20
87.5663
 40
1.25
  0
LINE
  8
Layer2
  6
CENTER1
 62
7
 10
159.647
 20
148.483
 11
159.647
 21
142.731
  0
LINE
  8
Layer2
  6
CENTER1
 62
7
 10
157.376
 20
145.566
 11
162.567
 21
145.566
  0
CIRCLE
  8
Layer2
  6
CONTINUOUS
 62
7
 10
159.647
 20
145.566
 40
1.25
  0
TEXT
  8
Layer2
 62
7
 10
223.147
 20
105.265
 72
1
 11
223.147
 21
105.265
 40
6
 41
1
  1
 13 
  0
LINE
  8
Layer2
  6
CONTINUOUS
 62
7
 10
229.647
 20
97.0552
 11
229.647
 21
107.265
  0
LINE
  8
Layer2
  6
CONTINUOUS
 62
7
 10
216.647
 20
90.4833
 11
216.647
 21
107.265
  0
POLYLINE
  8
Layer2
  6
CONTINUOUS
 62
7
 66
1
 10
0
 20
0
 30
0
  0
VERTEX
  8
Layer2
 10
229.647
 20
103.265
  0
VERTEX
  8
Layer2
 10
216.647
 20
103.265
  0
SEQEND
  0
POLYLINE
  8
Layer2
  6
CONTINUOUS
 62
7
 66
1
 10
0
 20
0
 30
0
 70
1
  0
VERTEX
  8
Layer2
 10
225.784
 20
104.3
  0
VERTEX
  8
Layer2
 10
229.647
 20
103.265
  0
VERTEX
  8
Layer2
 10
225.784
 20
102.23
  0
SEQEND
  0
POLYLINE
  8
Layer2
  6
CONTINUOUS
 62
7
 66
1
 10
0
 20
0
 30
0
 70
1
  0
VERTEX
  8
Layer2
 10
220.511
 20
102.23
  0
VERTEX
  8
Layer2
 10
216.647
 20
103.265
  0
VERTEX
  8
Layer2
 10
220.511
 20
104.3
  0
SEQEND
  0
POLYLINE
  8
Layer2
  6
CONTINUOUS
 62
7
 66
1
 10
0
 20
0
 30
0
  0
VERTEX
  8
Layer2
 10
217.531
 20
88.4502
  0
VERTEX
  8
Layer2
 10
265.802
 20
129.117
  0
VERTEX
  8
Layer2
 10
265.802
 20
129.117
  0
SEQEND
  0
POLYLINE
  8
Layer2
  6
CONTINUOUS
 62
7
 66
1
 10
0
 20
0
 30
0
 70
1
  0
VERTEX
  8
Layer2
 10
221.153
 20
90.1478
  0
VERTEX
  8
Layer2
 10
217.531
 20
88.4502
  0
VERTEX
  8
Layer2
 10
219.819
 20
91.7313
  0
SEQEND
  0
LINE
  8
Layer2
  6
CONTINUOUS
 62
7
 10
265.802
 20
129.117
 11
316.802
 21
129.117
  0
TEXT
  8
Layer2
 62
7
 10
316.802
 20
131.117
 72
2
 11
316.802
 21
131.117
 40
6
 41
1
  1
2-φ2.5センター穴
  0
LINE
  8
Layer2
  6
CONTINUOUS
 62
7
 10
543.322
 20
308.916
 11
593.322
 21
308.916
  0
POLYLINE
  8
Layer2
  6
CONTINUOUS
 62
7
 66
1
 10
0
 20
0
 30
0
 70
1
  0
VERTEX
  8
Layer2
 10
547.186
 20
307.881
  0
VERTEX
  8
Layer2
 10
543.322
 20
308.916
  0
VERTEX
  8
Layer2
 10
547.186
 20
309.951
  0
SEQEND
  0
POLYLINE
  8
Layer2
  6
CONTINUOUS
 62
7
 66
1
 10
0
 20
0
 30
0
 70
1
  0
VERTEX
  8
Layer2
 10
589.459
 20
309.951
  0
VERTEX
  8
Layer2
 10
593.322
 20
308.916
  0
VERTEX
  8
Layer2
 10
589.459
 20
307.881
  0
SEQEND
  0
LINE
  8
Layer2
  6
DASHED1
 62
7
 10
584.322
 20
132.166
 11
603.322
 21
132.166
  0
POLYLINE
  8
Layer2
  6
CONTINUOUS
 62
7
 66
1
 10
0
 20
0
 30
0
  0
VERTEX
  8
Layer2
 10
608.322
 20
170.557
  0
VERTEX
  8
Layer2
 10
607.849
 20
170.374
  0
VERTEX
  8
Layer2
 10
607.376
 20
170.193
  0
VERTEX
  8
Layer2
 10
606.903
 20
170.013
  0
VERTEX
  8
Layer2
 10
606.43
 20
169.837
  0
VERTEX
  8
Layer2
 10
605.956
 20
169.665
  0
VERTEX
  8
Layer2
 10
605.482
 20
169.498
  0
VERTEX
  8
Layer2
 10
605.007
 20
169.338
  0
VERTEX
  8
Layer2
 10
604.532
 20
169.185
  0
VERTEX
  8
Layer2
 10
604.056
 20
169.04
  0
VERTEX
  8
Layer2
 10
603.579
 20
168.905
  0
VERTEX
  8
Layer2
 10
603.101
 20
168.781
  0
VERTEX
  8
Layer2
 10
602.623
 20
168.669
  0
VERTEX
  8
Layer2
 10
602.143
 20
168.569
  0
VERTEX
  8
Layer2
 10
601.662
 20
168.484
  0
VERTEX
  8
Layer2
 10
601.18
 20
168.413
  0
VERTEX
  8
Layer2
 10
600.697
 20
168.358
  0
VERTEX
  8
Layer2
 10
600.212
 20
168.32
  0
VERTEX
  8
Layer2
 10
599.726
 20
168.3
  0
VERTEX
  8
Layer2
 10
599.239
 20
168.3
  0
VERTEX
  8
Layer2
 10
598.749
 20
168.319
  0
VERTEX
  8
Layer2
 10
598.258
 20
168.357
  0
VERTEX
  8
Layer2
 10
597.767
 20
168.409
  0
VERTEX
  8
Layer2
 10
597.274
 20
168.47
  0
VERTEX
  8
Layer2
 10
596.781
 20
168.536
  0
VERTEX
  8
Layer2
 10
596.289
 20
168.602
  0
VERTEX
  8
Layer2
 10
595.796
 20
168.663
  0
VERTEX
  8
Layer2
 10
595.305
 20
168.714
  0
VERTEX
  8
Layer2
 10
594.816
 20
168.753
  0
VERTEX
  8
Layer2
 10
594.328
 20
168.772
  0
VERTEX
  8
Layer2
 10
593.842
 20
168.769
  0
VERTEX
  8
Layer2
 10
593.359
 20
168.738
  0
VERTEX
  8
Layer2
 10
592.878
 20
168.679
  0
VERTEX
  8
Layer2
 10
592.4
 20
168.593
  0
VERTEX
  8
Layer2
 10
591.925
 20
168.484
  0
VERTEX
  8
Layer2
 10
591.452
 20
168.354
  0
VERTEX
  8
Layer2
 10
590.982
 20
168.205
  0
VERTEX
  8
Layer2
 10
590.514
 20
168.04
  0
VERTEX
  8
Layer2
 10
590.048
 20
167.861
  0
VERTEX
  8
Layer2
 10
589.584
 20
167.672
  0
VERTEX
  8
Layer2
 10
589.122
 20
167.474
  0
VERTEX
  8
Layer2
 10
588.662
 20
167.27
  0
VERTEX
  8
Layer2
 10
588.204
 20
167.063
  0
VERTEX
  8
Layer2
 10
587.747
 20
166.855
  0
VERTEX
  8
Layer2
 10
587.292
 20
166.647
  0
VERTEX
  8
Layer2
 10
586.839
 20
166.44
  0
VERTEX
  8
Layer2
 10
586.386
 20
166.235
  0
VERTEX
  8
Layer2
 10
585.933
 20
166.031
  0
VERTEX
  8
Layer2
 10
585.481
 20
165.83
  0
VERTEX
  8
Layer2
 10
585.029
 20
165.631
  0
VERTEX
  8
Layer2
 10
584.577
 20
165.436
  0
VERTEX
  8
Layer2
 10
584.125
 20
165.244
  0
VERTEX
  8
Layer2
 10
583.671
 20
165.056
  0
VERTEX
  8
Layer2
 10
583.217
 20
164.872
  0
VERTEX
  8
Layer2
 10
582.761
 20
164.693
  0
VERTEX
  8
Layer2
 10
582.304
 20
164.519
  0
VERTEX
  8
Layer2
 10
581.845
 20
164.351
  0
VERTEX
  8
Layer2
 10
581.384
 20
164.188
  0
VERTEX
  8
Layer2
 10
580.92
 20
164.032
  0
VERTEX
  8
Layer2
 10
580.453
 20
163.883
  0
VERTEX
  8
Layer2
 10
579.984
 20
163.741
  0
VERTEX
  8
Layer2
 10
579.511
 20
163.606
  0
VERTEX
  8
Layer2
 10
579.035
 20
163.48
  0
VERTEX
  8
Layer2
 10
578.555
 20
163.36
  0
VERTEX
  8
Layer2
 10
578.074
 20
163.245
  0
VERTEX
  8
Layer2
 10
577.591
 20
163.134
  0
VERTEX
  8
Layer2
 10
577.107
 20
163.025
  0
VERTEX
  8
Layer2
 10
576.623
 20
162.915
  0
VERTEX
  8
Layer2
 10
576.14
 20
162.805
  0
VERTEX
  8
Layer2
 10
575.659
 20
162.691
  0
VERTEX
  8
Layer2
 10
575.18
 20
162.572
  0
VERTEX
  8
Layer2
 10
574.704
 20
162.447
  0
VERTEX
  8
Layer2
 10
574.232
 20
162.314
  0
VERTEX
  8
Layer2
 10
573.764
 20
162.171
  0
VERTEX
  8
Layer2
 10
573.302
 20
162.017
  0
VERTEX
  8
Layer2
 10
572.845
 20
161.85
  0
VERTEX
  8
Layer2
 10
572.396
 20
161.668
  0
VERTEX
  8
Layer2
 10
571.953
 20
161.472
  0
VERTEX
  8
Layer2
 10
571.518
 20
161.261
  0
VERTEX
  8
Layer2
 10
571.088
 20
161.037
  0
VERTEX
  8
Layer2
 10
570.664
 20
160.801
  0
VERTEX
  8
Layer2
 10
570.246
 20
160.552
  0
VERTEX
  8
Layer2
 10
569.833
 20
160.293
  0
VERTEX
  8
Layer2
 10
569.425
 20
160.023
  0
VERTEX
  8
Layer2
 10
569.021
 20
159.743
  0
VERTEX
  8
Layer2
 10
568.621
 20
159.455
  0
VERTEX
  8
Layer2
 10
568.226
 20
159.158
  0
VERTEX
  8
Layer2
 10
567.834
 20
158.854
  0
VERTEX
  8
Layer2
 10
567.444
 20
158.543
  0
VERTEX
  8
Layer2
 10
567.058
 20
158.226
  0
VERTEX
  8
Layer2
 10
566.674
 20
157.905
  0
VERTEX
  8
Layer2
 10
566.292
 20
157.578
  0
VERTEX
  8
Layer2
 10
565.912
 20
157.248
  0
VERTEX
  8
Layer2
 10
565.533
 20
156.915
  0
VERTEX
  8
Layer2
 10
565.156
 20
156.58
  0
VERTEX
  8
Layer2
 10
564.779
 20
156.243
  0
VERTEX
  8
Layer2
 10
564.402
 20
155.906
  0
SEQEND
  0
LINE
  8
Layer2
  6
CONTINUOUS
 62
7
 10
608.322
 20
103.564
 11
528.322
 21
198.904
  0
ARC
  8
Layer2
  6
DASHED1
 62
7
 10
603.322
 20
137.166
 40
5
 50
270
 51
2.03555e-013
  0
LINE
  8
Layer2
  6
CENTER1
 62
7
 10
567.421
 20
134.457
 11
579.736
 21
144.79
  0
LINE
  8
Layer2
  6
DASHED1
 62
7
 10
576.724
 20
118.81
 11
589.744
 21
129.736
  0
LINE
  8
Layer2
  6
DASHED1
 62
7
 10
569.638
 20
148.111
 11
570.404
 21
148.753
  0
LINE
  8
Layer2
  6
DASHED1
 62
7
 10
608.322
 20
100.453
 11
528.322
 21
195.793
  0
LINE
  8
Layer2
  6
CONTINUOUS
 62
7
 10
592.778
 20
120.533
 11
593.544
 21
121.176
  0
LINE
  8
Layer2
  6
CONTINUOUS
 62
7
 10
608.346
 20
136.206
 11
587.134
 21
161.486
  0
LINE
  8
Layer2
  6
CONTINUOUS
 62
7
 10
578.83
 20
155.824
 11
601.971
 21
128.246
  0
LINE
  8
Layer2
  6
CONTINUOUS
 62
7
 10
587.134
 20
161.486
 11
585.725
 21
161.609
  0
LINE
  8
Layer2
  6
DASHED1
 62
7
 10
592.778
 20
120.533
 11
591.369
 21
120.656
  0
LINE
  8
Layer2
  6
DASHED1
 62
7
 10
569.515
 20
146.702
 11
569.638
 21
148.111
  0
LINE
  8
Layer2
  6
CENTER1
 62
7
 10
570.452
 20
137.045
 11
598.49
 21
160.571
  0
LINE
  8
Layer2
  6
CENTER1
 62
7
 10
608.616
 20
145.572
 11
570.479
 21
113.571
  0
LINE
  8
Layer2
  6
CONTINUOUS
 62
7
 10
600.443
 20
130.228
 11
608.024
 21
136.589
  0
LINE
  8
Layer2
  6
CONTINUOUS
 62
7
 10
592.007
 20
140.12
 11
599.668
 21
146.548
  0
LINE
  8
Layer2
  6
CONTINUOUS
 62
7
 10
600.364
 20
130.162
 11
606.109
 21
134.982
  0
LINE
  8
Layer2
  6
CONTINUOUS
 62
7
 10
592.007
 20
140.12
 11
597.753
 21
144.941
  0
LINE
  8
Layer2
  6
CONTINUOUS
 62
7
 10
606.109
 20
134.982
 11
597.753
 21
144.941
  0
LINE
  8
Layer2
  6
CONTINUOUS
 62
7
 10
606.171
 20
135.687
 11
598.457
 21
144.879
  0
LINE
  8
Layer2
  6
CONTINUOUS
 62
7
 10
606.109
 20
134.982
 11
606.171
 21
135.687
  0
LINE
  8
Layer2
  6
CONTINUOUS
 62
7
 10
597.753
 20
144.941
 11
598.457
 21
144.879
  0
LINE
  8
Layer2
  6
CONTINUOUS
 62
7
 10
592.007
 20
140.12
 11
600.364
 21
130.162
  0
LINE
  8
Layer2
  6
CONTINUOUS
 62
7
 10
593.092
 20
139.725
 11
597.954
 21
143.804
  0
LINE
  8
Layer2
  6
CONTINUOUS
 62
7
 10
594.177
 20
139.33
 11
598.154
 21
142.667
  0
LINE
  8
Layer2
  6
CONTINUOUS
 62
7
 10
595.262
 20
138.935
 11
598.355
 21
141.53
  0
LINE
  8
Layer2
  6
CONTINUOUS
 62
7
 10
596.346
 20
138.539
 11
598.556
 21
140.394
  0
LINE
  8
Layer2
  6
DASHED1
 62
7
 10
571.399
 20
119.564
 11
585.188
 21
131.134
  0
LINE
  8
Layer2
  6
DASHED1
 62
7
 10
576.541
 20
113.436
 11
590.33
 21
125.006
  0
LINE
  8
Layer2
  6
CONTINUOUS
 62
7
 10
598.435
 20
132.46
 11
590.009
 21
125.389
  0
LINE
  8
Layer2
  6
CONTINUOUS
 62
7
 10
593.936
 20
137.822
 11
585.509
 21
130.751
  0
LINE
  8
Layer2
  6
DASHED1
 62
7
 10
575.133
 20
113.559
 11
571.276
 21
118.155
  0
LINE
  8
Layer2
  6
DASHED1
 62
7
 10
571.399
 20
119.564
 11
571.276
 21
118.155
  0
LINE
  8
Layer2
  6
DASHED1
 62
7
 10
576.541
 20
113.436
 11
575.133
 21
113.559
  0
LINE
  8
Layer2
  6
DASHED1
 62
7
 10
576.541
 20
113.436
 11
571.399
 21
119.564
  0
LINE
  8
Layer2
  6
CONTINUOUS
 62
7
 10
570.404
 20
148.753
 11
585.725
 21
161.609
  0
LINE
  8
Layer2
  6
CONTINUOUS
 62
7
 10
608.099
 20
133.389
 11
593.544
 21
121.176
  0
LINE
  8
Layer2
  6
DASHED1
 62
7
 10
590.009
 20
125.389
 11
575.837
 21
113.497
  0
LINE
  8
Layer2
  6
CONTINUOUS
 62
7
 10
590.33
 20
125.006
 11
598.757
 21
132.077
  0
LINE
  8
Layer2
  6
CONTINUOUS
 62
7
 10
585.188
 20
131.134
 11
593.614
 21
138.205
  0
LINE
  8
Layer2
  6
DASHED1
 62
7
 10
585.509
 20
130.751
 11
571.338
 21
118.86
  0
LINE
  8
Layer2
  6
CONTINUOUS
 62
7
 10
608.346
 20
136.206
 11
608.099
 21
133.389
  0
LINE
  8
Layer2
  6
DASHED1
 62
7
 10
570.811
 20
163.825
 11
528.322
 21
214.462
  0
LINE
  8
Layer2
  6
DASHED1
 62
7
 10
584.979
 20
165.61
 11
528.322
 21
233.13
  0
LINE
  8
Layer2
  6
CONTINUOUS
 62
7
 10
592.064
 20
157.166
 11
608.322
 21
157.166
  0
LINE
  8
Layer2
  6
DASHED1
 62
7
 10
563.151
 20
157.397
 11
570.811
 21
163.825
  0
LINE
  8
Layer2
  6
CONTINUOUS
 62
7
 10
592.064
 20
157.166
 11
584.979
 21
165.61
  0
LINE
  8
Layer2
  6
CONTINUOUS
 62
7
 10
528.322
 20
232.698
 11
529.322
 21
231.698
  0
LINE
  8
Layer2
  6
DASHED1
 62
7
 10
169.147
 20
132.166
 11
140.147
 21
132.166
  0
LINE
  8
Layer2
  6
DASHED1
 62
7
 10
207.147
 20
132.166
 11
236.147
 21
132.166
  0
LINE
  8
Layer2
  6
CONTINUOUS
 62
7
 10
205.147
 20
214.462
 11
199.147
 21
214.462
  0
LINE
  8
Layer2
  6
CONTINUOUS
 62
7
 10
205.147
 20
233.13
 11
171.147
 21
233.13
  0
LINE
  8
Layer2
  6
DASHED1
 62
7
 10
204.147
 20
163.116
 11
199.147
 21
163.116
  0
LINE
  8
Layer2
  6
DASHED1
 62
7
 10
204.147
 20
155.824
 11
199.147
 21
155.824
  0
LINE
  8
Layer2
  6
DASHED1
 62
7
 10
198.147
 20
147.405
 11
178.147
 21
147.405
  0
LINE
  8
Layer2
  6
DASHED1
 62
7
 10
198.147
 20
119.592
 11
178.147
 21
119.592
  0
LINE
  8
Layer2
  6
CONTINUOUS
 62
7
 10
205.147
 20
233.13
 11
205.147
 21
214.462
  0
LINE
  8
Layer2
  6
CONTINUOUS
 62
7
 10
171.147
 20
233.13
 11
171.147
 21
214.462
  0
LINE
  8
Layer2
  6
CONTINUOUS
 62
7
 10
177.147
 20
214.462
 11
177.147
 21
170.066
  0
LINE
  8
Layer2
  6
CONTINUOUS
 62
7
 10
199.147
 20
214.462
 11
199.147
 21
170.066
  0
LINE
  8
Layer2
  6
CONTINUOUS
 62
7
 10
177.147
 20
214.462
 11
171.147
 21
214.462
  0
LINE
  8
Layer2
  6
DASHED1
 62
7
 10
177.147
 20
163.116
 11
172.147
 21
163.116
  0
LINE
  8
Layer2
  6
DASHED1
 62
7
 10
177.147
 20
155.824
 11
172.147
 21
155.824
  0
LINE
  8
Layer2
  6
DASHED1
 62
7
 10
199.147
 20
163.116
 11
177.147
 21
163.116
  0
LINE
  8
Layer2
  6
DASHED1
 62
7
 10
199.147
 20
155.824
 11
198.147
 21
155.824
  0
LINE
  8
Layer2
  6
DASHED1
 62
7
 10
204.147
 20
163.116
 11
204.147
 21
155.824
  0
LINE
  8
Layer2
  6
DASHED1
 62
7
 10
172.147
 20
163.116
 11
172.147
 21
155.824
  0
LINE
  8
Layer2
  6
DASHED1
 62
7
 10
178.147
 20
155.824
 11
178.147
 21
119.592
  0
LINE
  8
Layer2
  6
DASHED1
 62
7
 10
198.147
 20
155.824
 11
198.147
 21
119.592
  0
LINE
  8
Layer2
  6
DASHED1
 62
7
 10
178.147
 20
155.824
 11
177.147
 21
155.824
  0
LINE
  8
Layer2
  6
CONTINUOUS
 62
7
 10
237.147
 20
154.066
 11
139.147
 21
154.066
  0
LINE
  8
Layer2
  6
DASHED1
 62
7
 10
171.147
 20
134.166
 11
171.147
 21
144.434
  0
LINE
  8
Layer2
  6
DASHED1
 62
7
 10
205.147
 20
134.166
 11
205.147
 21
144.434
  0
ARC
  8
Layer2
  6
DASHED1
 62
7
 10
188.147
 20
144.434
 40
17
 50
0
 51
49.6845
  0
ARC
  8
Layer2
  6
DASHED1
 62
7
 10
188.147
 20
144.434
 40
17
 50
130.42
 51
180
  0
LINE
  8
Layer2
  6
DASHED1
 62
7
 10
171.147
 20
134.166
 11
169.147
 21
132.166
  0
LINE
  8
Layer2
  6
DASHED1
 62
7
 10
205.147
 20
134.166
 11
207.147
 21
132.166
  0
LINE
  8
Layer2
  6
DASHED1
 62
7
 10
177.147
 20
170.066
 11
177.147
 21
157.397
  0
LINE
  8
Layer2
  6
DASHED1
 62
7
 10
199.147
 20
170.066
 11
199.147
 21
157.397
  0
LINE
  8
Layer2
  6
CONTINUOUS
 62
7
 10
238.147
 20
198.904
 11
199.147
 21
198.904
  0
LINE
  8
Layer2
  6
CONTINUOUS
 62
7
 10
177.147
 20
198.904
 11
138.147
 21
198.904
  0
TEXT
  8
Layer2
 62
7
 10
175.184
 20
418.828
 73
3
 11
175.184
 21
418.828
 40
10
 41
1
  1
EMCR-75-100-40
  0
LINE
  8
Layer2
  6
CONTINUOUS
 62
7
 10
168.261
 20
422.72
 11
168.261
 21
405.28
  0
LINE
  8
Layer2
  6
CONTINUOUS
 62
7
 10
168.261
 20
405.28
 11
251.676
 21
405.28
  0
LINE
  8
Layer2
  6
CONTINUOUS
 62
7
 10
251.676
 20
422.72
 11
251.676
 21
405.28
  0
LINE
  8
Layer2
  6
CONTINUOUS
 62
7
 10
168.261
 20
422.72
 11
251.676
 21
422.72
  0
LINE
  8
Layer2
  6
CONTINUOUS
 62
7
 10
426.822
 20
80.0663
 11
426.822
 21
153.066
  0
LINE
  8
Layer2
  6
CONTINUOUS
 62
7
 10
425.822
 20
154.066
 11
426.822
 21
153.066
  0
LINE
  8
Layer2
  6
CONTINUOUS
 62
7
 10
425.822
 20
79.0663
 11
426.822
 21
80.0663
  0
LINE
  8
Layer2
  6
CONTINUOUS
 62
7
 10
427.822
 20
154.066
 11
426.822
 21
153.066
  0
LINE
  8
Layer2
  6
CONTINUOUS
 62
7
 10
427.822
 20
154.066
 11
429.322
 21
154.066
  0
LINE
  8
Layer2
  6
CONTINUOUS
 62
7
 10
427.822
 20
79.0663
 11
426.822
 21
80.0663
  0
LINE
  8
Layer2
  6
CONTINUOUS
 62
7
 10
427.822
 20
79.0663
 11
428.322
 21
79.0663
  0
LINE
  8
Layer2
  6
CONTINUOUS
 62
7
 10
426.822
 20
191.166
 11
439.176
 21
191.166
  0
POLYLINE
  8
Layer2
  6
CONTINUOUS
 62
7
 66
1
 10
0
 20
0
 30
0
  0
VERTEX
  8
Layer2
 10
429.72
 20
190.39
  0
VERTEX
  8
Layer2
 10
426.822
 20
191.166
  0
VERTEX
  8
Layer2
 10
429.72
 20
191.943
  0
SEQEND
  0
LINE
  8
Layer2
  6
CONTINUOUS
 62
7
 10
426.822
 20
490.422
 11
426.822
 21
392.422
  0
LINE
  8
Layer2
  6
CONTINUOUS
 62
7
 10
425.822
 20
391.422
 11
426.822
 21
392.422
  0
LINE
  8
Layer2
  6
CONTINUOUS
 62
7
 10
425.822
 20
491.422
 11
426.822
 21
490.422
  0
LINE
  8
Layer2
  6
CONTINUOUS
 62
7
 10
427.822
 20
491.422
 11
426.822
 21
490.422
  0
LINE
  8
Layer2
  6
CONTINUOUS
 62
7
 10
427.822
 20
391.422
 11
426.822
 21
392.422
  0
LINE
  8
Layer2
  6
CONTINUOUS
 62
7
 10
427.822
 20
391.422
 11
428.322
 21
391.422
  0
LINE
  8
Layer2
  6
CONTINUOUS
 62
7
 10
427.822
 20
491.422
 11
428.322
 21
491.422
  0
LINE
  8
Layer2
  6
CENTER1
 62
7
 10
395.201
 20
145.566
 11
446.034
 21
145.566
  0
LINE
  8
Layer2
  6
CONTINUOUS
 62
7
 10
408.322
 20
152.566
 11
408.322
 21
138.566
  0
LINE
  8
Layer2
  6
CONTINUOUS
 62
7
 10
399.322
 20
152.566
 11
408.322
 21
152.566
  0
LINE
  8
Layer2
  6
CONTINUOUS
 62
7
 10
399.322
 20
138.566
 11
408.322
 21
138.566
  0
LINE
  8
Layer2
  6
CONTINUOUS
 62
7
 10
400.322
 20
140.066
 11
400.322
 21
151.066
  0
LINE
  8
Layer2
  6
CONTINUOUS
 62
7
 10
401.322
 20
152.066
 11
408.322
 21
152.066
  0
LINE
  8
Layer2
  6
CONTINUOUS
 62
7
 10
408.322
 20
152.066
 11
408.322
 21
139.066
  0
LINE
  8
Layer2
  6
CONTINUOUS
 62
7
 10
401.322
 20
139.066
 11
408.322
 21
139.066
  0
LINE
  8
Layer2
  6
CONTINUOUS
 62
7
 10
400.322
 20
151.066
 11
401.322
 21
152.066
  0
LINE
  8
Layer2
  6
CONTINUOUS
 62
7
 10
400.322
 20
140.066
 11
401.322
 21
139.066
  0
LINE
  8
Layer2
  6
CONTINUOUS
 62
7
 10
401.322
 20
139.066
 11
401.322
 21
152.066
  0
LINE
  8
Layer2
  6
CONTINUOUS
 62
7
 10
425.074
 20
149.566
 11
408.322
 21
149.566
  0
LINE
  8
Layer2
  6
DASHED1
 62
7
 10
443.322
 20
148.566
 11
443.322
 21
142.566
  0
LINE
  8
Layer2
  6
CONTINUOUS
 62
7
 10
420.547
 20
141.566
 11
408.322
 21
141.566
  0
LINE
  8
Layer2
  6
DASHED1
 62
7
 10
442.322
 20
141.566
 11
443.322
 21
142.566
  0
LINE
  8
Layer2
  6
DASHED1
 62
7
 10
443.322
 20
148.566
 11
442.322
 21
149.566
  0
LINE
  8
Layer2
  6
DASHED1
 62
7
 10
442.322
 20
141.566
 11
442.322
 21
149.566
  0
LINE
  8
Layer2
  6
CONTINUOUS
 62
7
 10
423.383
 20
142.589
 11
410.094
 21
142.589
  0
LINE
  8
Layer2
  6
CONTINUOUS
 62
7
 10
425.116
 20
148.566
 11
410.094
 21
148.566
  0
LINE
  8
Layer2
  6
CONTINUOUS
 62
7
 10
408.322
 20
141.566
 11
410.094
 21
142.589
  0
LINE
  8
Layer2
  6
CONTINUOUS
 62
7
 10
408.322
 20
149.566
 11
410.054
 21
148.566
  0
LINE
  8
Layer2
  6
CONTINUOUS
 62
7
 10
410.094
 20
141.566
 11
410.094
 21
149.566
  0
LINE
  8
Layer2
  6
DASHED1
 62
7
 10
442.322
 20
149.566
 11
425.073
 21
149.566
  0
LINE
  8
Layer2
  6
DASHED1
 62
7
 10
443.322
 20
148.566
 11
425.112
 21
148.566
  0
LINE
  8
Layer2
  6
DASHED1
 62
7
 10
442.322
 20
141.566
 11
420.948
 21
141.566
  0
LINE
  8
Layer2
  6
DASHED1
 62
7
 10
442.742
 20
142.589
 11
423.416
 21
142.589
  0
ENDSEC
  0
EOF
