  0
SECTION
  2
HEADER
  9
$EXTMIN
 10
0
 20
0
  9
$EXTMAX
 10
1485
 20
1050
  9
$LTSCALE
 40
1
  9
$LIMMIN
 10
0
 20
0
  9
$LIMMAX
 10
1485
 20
1050
  9
$DIMSCALE
 40
1
  0
ENDSEC
  0
SECTION
  2
TABLES
  0
TABLE
  2
LTYPE
 70
9
  0
LTYPE
  2
CONTINUOUS
 70
64
  3
----------
 72
65
 73
0
 40
0
  0
LTYPE
  2
DASHED1
 70
64
  3
--  --  --  --  --  --  --  --  
 72
65
 73
2
 40
2.5
 49
1.25
 49
-1.25
  0
LTYPE
  2
DASHED2
 70
64
  3
----    ----    ----    ----    
 72
65
 73
2
 40
5
 49
2.5
 49
-2.5
  0
LTYPE
  2
DASHED3
 70
64
  3
------  ------  ------  ------  
 72
65
 73
2
 40
5
 49
3.75
 49
-1.25
  0
LTYPE
  2
CENTER1
 70
64
  3
----- - ----- - ----- - ----- - 
 72
65
 73
4
 40
7.5
 49
3.75
 49
-1.25
 49
1.25
 49
-1.25
  0
LTYPE
  2
CENTER2
 70
64
  3
----------  --  ----------  --  
 72
65
 73
4
 40
13.75
 49
6.25
 49
-2.5
 49
2.5
 49
-2.5
  0
LTYPE
  2
PHANTOM1
 70
64
  3
--- - - --- - - --- - - --- - - 
 72
65
 73
6
 40
9.5
 49
3.25
 49
-1.25
 49
1.25
 49
-1.25
 49
1.25
 49
-1.25
  0
LTYPE
  2
PHANTOM2
 70
64
  3
--------  -  -  --------  -  -  
 72
65
 73
6
 40
18
 49
8
 49
-2.5
 49
1.25
 49
-2.5
 49
1.25
 49
-2.5
  0
LTYPE
  2
DOT
 70
64
  3
-   -   -   -   -   -   -   -   
 72
65
 73
2
 40
2.5
 49
0.625
 49
-1.875
  0
LTYPE
  2
HOJO
 70
64
  3
-   -   -   -   -   -   -   -   
 72
65
 73
2
 40
2.5
 49
0.625
 49
-1.875
  0
ENDTAB
  0
TABLE
  2
STYLE
 70
2
  0
STYLE
  2
STANDARD
 70
64
 40
0
 41
1
 42
0
 50
0
 71
0
  3
TXT
  4
BIGFONT
  0
STYLE
  2
TATEGAKI
 70
68
 40
0
 41
1
 42
0
 50
0
 71
0
  3
TXT
  4
EXTFONT
  0
ENDTAB
  0
TABLE
  2
LAYER
 70
1
  0
LAYER
  2
Layer1
 70
64
 62
7
  6
CONTINUOUS
  0
ENDTAB
  0
ENDSEC
  0
SECTION
  2
ENTITIES
  0
LINE
  8
Layer1
  6
CONTINUOUS
 62
7
 10
533.381
 20
419.997
 11
548.381
 21
419.997
  0
LINE
  8
Layer1
  6
CONTINUOUS
 62
7
 10
631.881
 20
349.997
 11
513.881
 21
349.997
  0
LINE
  8
Layer1
  6
CONTINUOUS
 62
7
 10
897.13
 20
698.026
 11
774.068
 21
698.026
  0
LINE
  8
Layer1
  6
CONTINUOUS
 62
7
 10
897.13
 20
578.026
 11
774.068
 21
578.026
  0
LINE
  8
Layer1
  6
CENTER2
 62
7
 10
743.029
 20
638.026
 11
918.327
 21
638.026
  0
CIRCLE
  8
Layer1
  6
CONTINUOUS
 62
7
 10
785.63
 20
688.026
 40
7
  0
CIRCLE
  8
Layer1
  6
CONTINUOUS
 62
7
 10
885.63
 20
688.026
 40
7
  0
CIRCLE
  8
Layer1
  6
CONTINUOUS
 62
7
 10
785.63
 20
588.026
 40
7
  0
CIRCLE
  8
Layer1
  6
CONTINUOUS
 62
7
 10
785.63
 20
688.026
 40
4.5
  0
CIRCLE
  8
Layer1
  6
CONTINUOUS
 62
7
 10
885.63
 20
688.026
 40
4.5
  0
LINE
  8
Layer1
  6
CONTINUOUS
 62
7
 10
773.068
 20
697.026
 11
774.068
 21
698.026
  0
LINE
  8
Layer1
  6
CONTINUOUS
 62
7
 10
773.068
 20
579.026
 11
774.068
 21
578.026
  0
LINE
  8
Layer1
  6
CONTINUOUS
 62
7
 10
898.13
 20
675.026
 11
898.13
 21
667.026
  0
LINE
  8
Layer1
  6
CONTINUOUS
 62
7
 10
910.13
 20
598.026
 11
910.13
 21
678.026
  0
LINE
  8
Layer1
  6
CONTINUOUS
 62
7
 10
899.13
 20
679.026
 11
909.13
 21
679.026
  0
LINE
  8
Layer1
  6
CONTINUOUS
 62
7
 10
899.13
 20
597.026
 11
909.13
 21
597.026
  0
LINE
  8
Layer1
  6
CONTINUOUS
 62
7
 10
909.13
 20
679.026
 11
910.13
 21
678.026
  0
LINE
  8
Layer1
  6
CONTINUOUS
 62
7
 10
910.13
 20
598.026
 11
909.13
 21
597.026
  0
LINE
  8
Layer1
  6
CONTINUOUS
 62
7
 10
898.13
 20
678.026
 11
898.13
 21
598.026
  0
LINE
  8
Layer1
  6
CONTINUOUS
 62
7
 10
898.13
 20
598.026
 11
899.13
 21
597.026
  0
LINE
  8
Layer1
  6
CONTINUOUS
 62
7
 10
898.13
 20
678.026
 11
899.13
 21
679.026
  0
LINE
  8
Layer1
  6
CENTER1
 62
7
 10
785.63
 20
677.665
 11
785.63
 21
701.719
  0
LINE
  8
Layer1
  6
CENTER1
 62
7
 10
770.358
 20
688.026
 11
796.476
 21
688.026
  0
LINE
  8
Layer1
  6
CENTER1
 62
7
 10
885.63
 20
679.344
 11
885.63
 21
696.709
  0
LINE
  8
Layer1
  6
CENTER1
 62
7
 10
874.063
 20
688.026
 11
897.197
 21
688.026
  0
LINE
  8
Layer1
  6
CONTINUOUS
 62
7
 10
768.63
 20
614.026
 11
768.63
 21
662.026
  0
LINE
  8
Layer1
  6
CONTINUOUS
 62
7
 10
773.13
 20
579.026
 11
773.13
 21
697.026
  0
LINE
  8
Layer1
  6
CONTINUOUS
 62
7
 10
745.63
 20
614.026
 11
745.63
 21
662.026
  0
LINE
  8
Layer1
  6
CONTINUOUS
 62
7
 10
772.13
 20
613.026
 11
769.63
 21
613.026
  0
LINE
  8
Layer1
  6
CONTINUOUS
 62
7
 10
910.13
 20
664.617
 11
917.63
 21
664.617
  0
LINE
  8
Layer1
  6
CONTINUOUS
 62
7
 10
910.13
 20
677.617
 11
917.63
 21
677.617
  0
LINE
  8
Layer1
  6
CONTINUOUS
 62
7
 10
917.63
 20
664.617
 11
917.63
 21
677.617
  0
LINE
  8
Layer1
  6
CONTINUOUS
 62
7
 10
918.13
 20
665.117
 11
918.13
 21
677.117
  0
LINE
  8
Layer1
  6
CONTINUOUS
 62
7
 10
917.63
 20
664.617
 11
918.13
 21
665.117
  0
LINE
  8
Layer1
  6
CONTINUOUS
 62
7
 10
917.63
 20
677.617
 11
918.13
 21
677.117
  0
LINE
  8
Layer1
  6
CONTINUOUS
 62
7
 10
910.13
 20
677.617
 11
910.13
 21
664.617
  0
LINE
  8
Layer1
  6
CONTINUOUS
 62
7
 10
910.707
 20
676.617
 11
917.053
 21
676.617
  0
LINE
  8
Layer1
  6
CONTINUOUS
 62
7
 10
911.284
 20
675.617
 11
916.476
 21
675.617
  0
LINE
  8
Layer1
  6
CONTINUOUS
 62
7
 10
911.861
 20
674.617
 11
915.899
 21
674.617
  0
LINE
  8
Layer1
  6
CONTINUOUS
 62
7
 10
912.438
 20
673.617
 11
915.322
 21
673.617
  0
LINE
  8
Layer1
  6
CONTINUOUS
 62
7
 10
910.13
 20
598.617
 11
917.63
 21
598.617
  0
LINE
  8
Layer1
  6
CONTINUOUS
 62
7
 10
910.13
 20
611.617
 11
917.63
 21
611.617
  0
LINE
  8
Layer1
  6
CONTINUOUS
 62
7
 10
917.63
 20
598.617
 11
917.63
 21
611.617
  0
LINE
  8
Layer1
  6
CONTINUOUS
 62
7
 10
918.13
 20
599.117
 11
918.13
 21
611.117
  0
LINE
  8
Layer1
  6
CONTINUOUS
 62
7
 10
917.63
 20
598.617
 11
918.13
 21
599.117
  0
LINE
  8
Layer1
  6
CONTINUOUS
 62
7
 10
917.63
 20
611.617
 11
918.13
 21
611.117
  0
LINE
  8
Layer1
  6
CONTINUOUS
 62
7
 10
910.13
 20
611.617
 11
910.13
 21
598.617
  0
LINE
  8
Layer1
  6
CONTINUOUS
 62
7
 10
910.707
 20
610.617
 11
917.053
 21
610.617
  0
LINE
  8
Layer1
  6
CONTINUOUS
 62
7
 10
911.284
 20
609.617
 11
916.476
 21
609.617
  0
LINE
  8
Layer1
  6
CONTINUOUS
 62
7
 10
911.861
 20
608.617
 11
915.899
 21
608.617
  0
LINE
  8
Layer1
  6
CONTINUOUS
 62
7
 10
912.438
 20
607.617
 11
915.322
 21
607.617
  0
CIRCLE
  8
Layer1
  6
CONTINUOUS
 62
7
 10
812.765
 20
638.026
 40
3.76681
  0
ARC
  8
Layer1
  6
CONTINUOUS
 62
7
 10
808.293
 20
638.061
 40
1
 50
140.711
 51
225
  0
LINE
  8
Layer1
  6
CONTINUOUS
 62
7
 10
817.275
 20
639.67
 11
819.539
 21
639.67
  0
LINE
  8
Layer1
  6
CONTINUOUS
 62
7
 10
817.275
 20
636.185
 11
819.539
 21
636.185
  0
LINE
  8
Layer1
  6
CONTINUOUS
 62
7
 10
819.539
 20
639.67
 11
819.539
 21
636.185
  0
ARC
  8
Layer1
  6
CONTINUOUS
 62
7
 10
812.765
 20
638.026
 40
4.80058
 50
20.031
 51
140.098
  0
ARC
  8
Layer1
  6
CONTINUOUS
 62
7
 10
812.765
 20
638.026
 40
4.80058
 50
218.056
 51
337.793
  0
ARC
  8
Layer1
  6
CONTINUOUS
 62
7
 10
799.872
 20
630.776
 40
10.1292
 50
24.1178
 51
40.4581
  0
ARC
  8
Layer1
  6
CONTINUOUS
 62
7
 10
799.812
 20
645.267
 40
10.1292
 50
319.542
 51
335.882
  0
ARC
  8
Layer1
  6
CONTINUOUS
 62
7
 10
818.407
 20
639.67
 40
0.542282
 50
0
 51
180
  0
ARC
  8
Layer1
  6
CONTINUOUS
 62
7
 10
818.407
 20
636.185
 40
0.657613
 50
180
 51
2.03555e-013
  0
LINE
  8
Layer1
  6
CONTINUOUS
 62
7
 10
898.13
 20
579.026
 11
898.13
 21
697.026
  0
LINE
  8
Layer1
  6
CONTINUOUS
 62
7
 10
897.13
 20
698.026
 11
898.13
 21
697.026
  0
LINE
  8
Layer1
  6
CONTINUOUS
 62
7
 10
898.13
 20
579.026
 11
897.13
 21
578.026
  0
CIRCLE
  8
Layer1
  6
CONTINUOUS
 62
7
 10
835.63
 20
688.026
 40
7
  0
CIRCLE
  8
Layer1
  6
CONTINUOUS
 62
7
 10
835.63
 20
688.026
 40
4.5
  0
LINE
  8
Layer1
  6
CENTER1
 62
7
 10
835.63
 20
679.372
 11
835.63
 21
696.737
  0
LINE
  8
Layer1
  6
CENTER1
 62
7
 10
823.348
 20
688.026
 11
847.855
 21
688.026
  0
LINE
  8
Layer1
  6
CONTINUOUS
 62
7
 10
854.085
 20
679.026
 11
897.13
 21
679.026
  0
LINE
  8
Layer1
  6
CONTINUOUS
 62
7
 10
854.085
 20
597.026
 11
897.13
 21
597.026
  0
LINE
  8
Layer1
  6
CONTINUOUS
 62
7
 10
898.13
 20
598.026
 11
898.13
 21
678.026
  0
LINE
  8
Layer1
  6
CONTINUOUS
 62
7
 10
853.13
 20
678.026
 11
853.13
 21
598.026
  0
LINE
  8
Layer1
  6
CONTINUOUS
 62
7
 10
897.13
 20
679.026
 11
898.13
 21
678.026
  0
LINE
  8
Layer1
  6
CONTINUOUS
 62
7
 10
898.13
 20
598.026
 11
897.13
 21
597.026
  0
LINE
  8
Layer1
  6
CONTINUOUS
 62
7
 10
854.085
 20
597.026
 11
853.085
 21
598.026
  0
LINE
  8
Layer1
  6
CONTINUOUS
 62
7
 10
853.085
 20
678.026
 11
854.085
 21
679.026
  0
LINE
  8
Layer1
  6
CENTER1
 62
7
 10
878.192
 20
605.526
 11
896.621
 21
605.526
  0
CIRCLE
  8
Layer1
  6
CONTINUOUS
 62
7
 10
888.13
 20
670.526
 40
4.5
  0
CIRCLE
  8
Layer1
  6
CONTINUOUS
 62
7
 10
888.13
 20
605.526
 40
4.5
  0
CIRCLE
  8
Layer1
  6
CONTINUOUS
 62
7
 10
863.13
 20
605.526
 40
4.5
  0
CIRCLE
  8
Layer1
  6
CONTINUOUS
 62
7
 10
863.13
 20
670.526
 40
4.5
  0
CIRCLE
  8
Layer1
  6
DASHED1
 62
7
 10
888.13
 20
670.526
 40
7
  0
CIRCLE
  8
Layer1
  6
DASHED1
 62
7
 10
888.13
 20
605.526
 40
7
  0
CIRCLE
  8
Layer1
  6
DASHED1
 62
7
 10
863.13
 20
605.526
 40
7
  0
CIRCLE
  8
Layer1
  6
DASHED1
 62
7
 10
863.13
 20
670.526
 40
7
  0
LINE
  8
Layer1
  6
CENTER1
 62
7
 10
888.13
 20
614.292
 11
888.13
 21
592.413
  0
LINE
  8
Layer1
  6
CENTER1
 62
7
 10
888.13
 20
677.73
 11
888.13
 21
656.959
  0
LINE
  8
Layer1
  6
CENTER1
 62
7
 10
853.085
 20
670.526
 11
871.645
 21
670.526
  0
LINE
  8
Layer1
  6
CENTER1
 62
7
 10
863.13
 20
613.217
 11
863.13
 21
593.831
  0
LINE
  8
Layer1
  6
CENTER1
 62
7
 10
863.13
 20
681.466
 11
863.13
 21
659.587
  0
LINE
  8
Layer1
  6
CENTER1
 62
7
 10
853.846
 20
605.526
 11
872.463
 21
605.526
  0
LINE
  8
Layer1
  6
CONTINUOUS
 62
7
 10
774.265
 20
597.026
 11
851.13
 21
597.026
  0
LINE
  8
Layer1
  6
CONTINUOUS
 62
7
 10
852.13
 20
598.026
 11
852.13
 21
678.026
  0
LINE
  8
Layer1
  6
CONTINUOUS
 62
7
 10
851.13
 20
679.026
 11
852.13
 21
678.026
  0
LINE
  8
Layer1
  6
CONTINUOUS
 62
7
 10
852.13
 20
598.026
 11
851.13
 21
597.026
  0
LINE
  8
Layer1
  6
CONTINUOUS
 62
7
 10
774.265
 20
597.026
 11
773.265
 21
598.026
  0
LINE
  8
Layer1
  6
CONTINUOUS
 62
7
 10
774.265
 20
679.026
 11
773.202
 21
678.026
  0
LINE
  8
Layer1
  6
CONTINUOUS
 62
7
 10
814.005
 20
638.026
 11
811.713
 21
638.026
  0
LINE
  8
Layer1
  6
CONTINUOUS
 62
7
 10
774.265
 20
679.026
 11
851.13
 21
679.026
  0
LINE
  8
Layer1
  6
CENTER1
 62
7
 10
804.656
 20
670.526
 11
797.019
 21
670.526
  0
LINE
  8
Layer1
  6
CENTER1
 62
7
 10
801.13
 20
609.461
 11
801.13
 21
601.691
  0
POLYLINE
  8
Layer1
  6
CONTINUOUS
 62
7
 66
1
 10
0
 20
0
 30
0
  0
VERTEX
  8
Layer1
 10
827.693
 20
646.555
  0
VERTEX
  8
Layer1
 10
827.678
 20
646.607
  0
VERTEX
  8
Layer1
 10
827.659
 20
646.669
  0
VERTEX
  8
Layer1
 10
827.636
 20
646.731
  0
VERTEX
  8
Layer1
 10
827.612
 20
646.792
  0
VERTEX
  8
Layer1
 10
827.587
 20
646.852
  0
VERTEX
  8
Layer1
 10
827.558
 20
646.911
  0
VERTEX
  8
Layer1
 10
827.529
 20
646.969
  0
VERTEX
  8
Layer1
 10
827.496
 20
647.026
  0
VERTEX
  8
Layer1
 10
827.463
 20
647.083
  0
VERTEX
  8
Layer1
 10
827.428
 20
647.138
  0
VERTEX
  8
Layer1
 10
827.41
 20
647.162
  0
SEQEND
  0
LINE
  8
Layer1
  6
DASHED1
 62
7
 10
797.765
 20
646.026
 11
797.765
 21
630.026
  0
LINE
  8
Layer1
  6
DASHED1
 62
7
 10
825.471
 20
628.026
 11
799.786
 21
628.026
  0
LINE
  8
Layer1
  6
DASHED1
 62
7
 10
825.267
 20
648.026
 11
799.765
 21
648.026
  0
LINE
  8
Layer1
  6
DASHED1
 62
7
 10
827.765
 20
645.814
 11
827.765
 21
630.107
  0
POLYLINE
  8
Layer1
  6
CONTINUOUS
 62
7
 66
1
 10
0
 20
0
 30
0
  0
VERTEX
  8
Layer1
 10
826.481
 20
628.159
  0
VERTEX
  8
Layer1
 10
826.53
 20
628.179
  0
VERTEX
  8
Layer1
 10
826.591
 20
628.205
  0
VERTEX
  8
Layer1
 10
826.649
 20
628.233
  0
VERTEX
  8
Layer1
 10
826.707
 20
628.263
  0
VERTEX
  8
Layer1
 10
826.765
 20
628.294
  0
VERTEX
  8
Layer1
 10
826.822
 20
628.328
  0
VERTEX
  8
Layer1
 10
826.876
 20
628.363
  0
VERTEX
  8
Layer1
 10
826.929
 20
628.401
  0
VERTEX
  8
Layer1
 10
826.982
 20
628.44
  0
VERTEX
  8
Layer1
 10
827.034
 20
628.48
  0
VERTEX
  8
Layer1
 10
827.083
 20
628.523
  0
VERTEX
  8
Layer1
 10
827.133
 20
628.567
  0
VERTEX
  8
Layer1
 10
827.179
 20
628.612
  0
VERTEX
  8
Layer1
 10
827.225
 20
628.659
  0
VERTEX
  8
Layer1
 10
827.269
 20
628.708
  0
VERTEX
  8
Layer1
 10
827.311
 20
628.758
  0
VERTEX
  8
Layer1
 10
827.351
 20
628.809
  0
VERTEX
  8
Layer1
 10
827.39
 20
628.861
  0
VERTEX
  8
Layer1
 10
827.428
 20
628.915
  0
VERTEX
  8
Layer1
 10
827.463
 20
628.97
  0
VERTEX
  8
Layer1
 10
827.496
 20
629.026
  0
VERTEX
  8
Layer1
 10
827.529
 20
629.084
  0
VERTEX
  8
Layer1
 10
827.558
 20
629.142
  0
VERTEX
  8
Layer1
 10
827.568
 20
629.163
  0
SEQEND
  0
LINE
  8
Layer1
  6
CONTINUOUS
 62
7
 10
797.765
 20
630.026
 11
797.765
 21
629.972
  0
POLYLINE
  8
Layer1
  6
CONTINUOUS
 62
7
 66
1
 10
0
 20
0
 30
0
  0
VERTEX
  8
Layer1
 10
799.765
 20
648.026
  0
VERTEX
  8
Layer1
 10
799.699
 20
648.025
  0
VERTEX
  8
Layer1
 10
799.651
 20
648.023
  0
SEQEND
  0
LINE
  8
Layer1
  6
CONTINUOUS
 62
7
 10
799.765
 20
648.026
 11
800.865
 21
648.026
  0
LINE
  8
Layer1
  6
CONTINUOUS
 62
7
 10
799.786
 20
628.026
 11
800.865
 21
628.026
  0
LINE
  8
Layer1
  6
CONTINUOUS
 62
7
 10
797.765
 20
630.026
 11
797.765
 21
630.983
  0
LINE
  8
Layer1
  6
CONTINUOUS
 62
7
 10
827.765
 20
631.253
 11
827.765
 21
630.107
  0
POLYLINE
  8
Layer1
  6
CONTINUOUS
 62
7
 66
1
 10
0
 20
0
 30
0
  0
VERTEX
  8
Layer1
 10
826.548
 20
647.866
  0
VERTEX
  8
Layer1
 10
826.53
 20
647.874
  0
VERTEX
  8
Layer1
 10
826.47
 20
647.898
  0
VERTEX
  8
Layer1
 10
826.408
 20
647.92
  0
VERTEX
  8
Layer1
 10
826.346
 20
647.94
  0
VERTEX
  8
Layer1
 10
826.283
 20
647.958
  0
VERTEX
  8
Layer1
 10
826.22
 20
647.974
  0
VERTEX
  8
Layer1
 10
826.155
 20
647.988
  0
VERTEX
  8
Layer1
 10
826.091
 20
648
  0
VERTEX
  8
Layer1
 10
826.025
 20
648.009
  0
VERTEX
  8
Layer1
 10
825.961
 20
648.017
  0
VERTEX
  8
Layer1
 10
825.895
 20
648.022
  0
VERTEX
  8
Layer1
 10
825.875
 20
648.023
  0
SEQEND
  0
POLYLINE
  8
Layer1
  6
CONTINUOUS
 62
7
 66
1
 10
0
 20
0
 30
0
  0
VERTEX
  8
Layer1
 10
798.909
 20
647.834
  0
VERTEX
  8
Layer1
 10
798.88
 20
647.82
  0
VERTEX
  8
Layer1
 10
798.822
 20
647.79
  0
VERTEX
  8
Layer1
 10
798.765
 20
647.758
  0
VERTEX
  8
Layer1
 10
798.708
 20
647.725
  0
VERTEX
  8
Layer1
 10
798.654
 20
647.689
  0
VERTEX
  8
Layer1
 10
798.6
 20
647.652
  0
VERTEX
  8
Layer1
 10
798.548
 20
647.613
  0
VERTEX
  8
Layer1
 10
798.496
 20
647.572
  0
VERTEX
  8
Layer1
 10
798.447
 20
647.53
  0
VERTEX
  8
Layer1
 10
798.398
 20
647.486
  0
VERTEX
  8
Layer1
 10
798.351
 20
647.441
  0
VERTEX
  8
Layer1
 10
798.305
 20
647.394
  0
VERTEX
  8
Layer1
 10
798.262
 20
647.345
  0
VERTEX
  8
Layer1
 10
798.218
 20
647.295
  0
VERTEX
  8
Layer1
 10
798.178
 20
647.244
  0
VERTEX
  8
Layer1
 10
798.14
 20
647.191
  0
VERTEX
  8
Layer1
 10
798.101
 20
647.138
  0
VERTEX
  8
Layer1
 10
798.067
 20
647.083
  0
VERTEX
  8
Layer1
 10
798.033
 20
647.026
  0
VERTEX
  8
Layer1
 10
798.002
 20
646.969
  0
VERTEX
  8
Layer1
 10
797.996
 20
646.96
  0
SEQEND
  0
POLYLINE
  8
Layer1
  6
CONTINUOUS
 62
7
 66
1
 10
0
 20
0
 30
0
  0
VERTEX
  8
Layer1
 10
797.769
 20
646.151
  0
VERTEX
  8
Layer1
 10
797.765
 20
646.092
  0
VERTEX
  8
Layer1
 10
797.765
 20
646.026
  0
SEQEND
  0
POLYLINE
  8
Layer1
  6
CONTINUOUS
 62
7
 66
1
 10
0
 20
0
 30
0
  0
VERTEX
  8
Layer1
 10
797.93
 20
629.23
  0
VERTEX
  8
Layer1
 10
797.944
 20
629.201
  0
VERTEX
  8
Layer1
 10
797.971
 20
629.142
  0
VERTEX
  8
Layer1
 10
798.002
 20
629.084
  0
VERTEX
  8
Layer1
 10
798.033
 20
629.026
  0
VERTEX
  8
Layer1
 10
798.067
 20
628.97
  0
VERTEX
  8
Layer1
 10
798.101
 20
628.915
  0
VERTEX
  8
Layer1
 10
798.14
 20
628.861
  0
VERTEX
  8
Layer1
 10
798.178
 20
628.809
  0
VERTEX
  8
Layer1
 10
798.218
 20
628.758
  0
VERTEX
  8
Layer1
 10
798.262
 20
628.708
  0
VERTEX
  8
Layer1
 10
798.305
 20
628.659
  0
VERTEX
  8
Layer1
 10
798.351
 20
628.612
  0
VERTEX
  8
Layer1
 10
798.398
 20
628.567
  0
VERTEX
  8
Layer1
 10
798.447
 20
628.523
  0
VERTEX
  8
Layer1
 10
798.496
 20
628.48
  0
VERTEX
  8
Layer1
 10
798.548
 20
628.44
  0
VERTEX
  8
Layer1
 10
798.6
 20
628.401
  0
VERTEX
  8
Layer1
 10
798.654
 20
628.363
  0
VERTEX
  8
Layer1
 10
798.708
 20
628.328
  0
VERTEX
  8
Layer1
 10
798.765
 20
628.294
  0
VERTEX
  8
Layer1
 10
798.822
 20
628.263
  0
VERTEX
  8
Layer1
 10
798.88
 20
628.233
  0
VERTEX
  8
Layer1
 10
798.939
 20
628.205
  0
VERTEX
  8
Layer1
 10
799
 20
628.179
  0
VERTEX
  8
Layer1
 10
799.044
 20
628.161
  0
SEQEND
  0
LINE
  8
Layer1
  6
CENTER1
 62
7
 10
877.556
 20
670.526
 11
895.696
 21
670.526
  0
LINE
  8
Layer1
  6
CONTINUOUS
 62
7
 10
769.63
 20
663.026
 11
772.13
 21
663.026
  0
LINE
  8
Layer1
  6
CONTINUOUS
 62
7
 10
769.63
 20
663.026
 11
768.63
 21
662.026
  0
LINE
  8
Layer1
  6
CONTINUOUS
 62
7
 10
746.63
 20
663.026
 11
767.63
 21
663.026
  0
LINE
  8
Layer1
  6
CONTINUOUS
 62
7
 10
768.63
 20
662.026
 11
767.63
 21
663.026
  0
LINE
  8
Layer1
  6
CONTINUOUS
 62
7
 10
746.63
 20
663.026
 11
745.63
 21
662.026
  0
LINE
  8
Layer1
  6
CENTER1
 62
7
 10
742.093
 20
655.526
 11
791.33
 21
655.526
  0
LINE
  8
Layer1
  6
CENTER1
 62
7
 10
893.255
 20
671.025
 11
919.732
 21
671.025
  0
LINE
  8
Layer1
  6
CENTER1
 62
7
 10
897.048
 20
605.025
 11
919.344
 21
605.025
  0
LINE
  8
Layer1
  6
CENTER1
 62
7
 10
742.216
 20
620.526
 11
787.025
 21
620.526
  0
LINE
  8
Layer1
  6
CONTINUOUS
 62
7
 10
767.63
 20
613.026
 11
746.63
 21
613.026
  0
LINE
  8
Layer1
  6
CONTINUOUS
 62
7
 10
745.63
 20
614.026
 11
746.63
 21
613.026
  0
LINE
  8
Layer1
  6
CONTINUOUS
 62
7
 10
767.63
 20
613.026
 11
768.63
 21
614.026
  0
LINE
  8
Layer1
  6
CONTINUOUS
 62
7
 10
768.63
 20
614.026
 11
769.63
 21
613.026
  0
LINE
  8
Layer1
  6
CONTINUOUS
 62
7
 10
772.13
 20
613.026
 11
773.13
 21
614.026
  0
TEXT
  8
Layer1
 62
7
 10
932.022
 20
638.026
 72
1
 11
932.022
 21
638.026
 40
6
 41
1
 50
90
  1
 65 
  0
LINE
  8
Layer1
  6
CONTINUOUS
 62
7
 10
919.732
 20
670.526
 11
934.022
 21
670.526
  0
LINE
  8
Layer1
  6
CONTINUOUS
 62
7
 10
919.344
 20
605.526
 11
934.022
 21
605.526
  0
POLYLINE
  8
Layer1
  6
CONTINUOUS
 62
7
 66
1
 10
0
 20
0
 30
0
  0
VERTEX
  8
Layer1
 10
932.022
 20
670.526
  0
VERTEX
  8
Layer1
 10
932.022
 20
605.526
  0
SEQEND
  0
POLYLINE
  8
Layer1
  6
CONTINUOUS
 62
7
 66
1
 10
0
 20
0
 30
0
 70
1
  0
VERTEX
  8
Layer1
 10
930.469
 20
664.731
  0
VERTEX
  8
Layer1
 10
932.022
 20
670.526
  0
VERTEX
  8
Layer1
 10
933.575
 20
664.731
  0
SEQEND
  0
POLYLINE
  8
Layer1
  6
CONTINUOUS
 62
7
 66
1
 10
0
 20
0
 30
0
 70
1
  0
VERTEX
  8
Layer1
 10
933.575
 20
611.322
  0
VERTEX
  8
Layer1
 10
932.022
 20
605.526
  0
VERTEX
  8
Layer1
 10
930.469
 20
611.322
  0
SEQEND
  0
TEXT
  8
Layer1
 62
7
 10
955.895
 20
638.007
 72
1
 11
955.895
 21
638.007
 40
6
 41
1
 50
90
  1
 100 
  0
LINE
  8
Layer1
  6
CONTINUOUS
 62
7
 10
898.13
 20
687.988
 11
957.895
 21
687.988
  0
LINE
  8
Layer1
  6
CONTINUOUS
 62
7
 10
892.568
 20
588.026
 11
957.895
 21
588.026
  0
POLYLINE
  8
Layer1
  6
CONTINUOUS
 62
7
 66
1
 10
0
 20
0
 30
0
  0
VERTEX
  8
Layer1
 10
955.895
 20
687.988
  0
VERTEX
  8
Layer1
 10
955.895
 20
588.026
  0
SEQEND
  0
POLYLINE
  8
Layer1
  6
CONTINUOUS
 62
7
 66
1
 10
0
 20
0
 30
0
 70
1
  0
VERTEX
  8
Layer1
 10
954.342
 20
682.193
  0
VERTEX
  8
Layer1
 10
955.895
 20
687.988
  0
VERTEX
  8
Layer1
 10
957.448
 20
682.193
  0
SEQEND
  0
POLYLINE
  8
Layer1
  6
CONTINUOUS
 62
7
 66
1
 10
0
 20
0
 30
0
 70
1
  0
VERTEX
  8
Layer1
 10
957.448
 20
593.822
  0
VERTEX
  8
Layer1
 10
955.895
 20
588.026
  0
VERTEX
  8
Layer1
 10
954.342
 20
593.822
  0
SEQEND
  0
TEXT
  8
Layer1
 62
7
 10
969.909
 20
638.026
 72
1
 11
969.909
 21
638.026
 40
6
 41
1
 50
90
  1
 120 
  0
LINE
  8
Layer1
  6
CONTINUOUS
 62
7
 10
897.13
 20
698.026
 11
971.909
 21
698.026
  0
LINE
  8
Layer1
  6
CONTINUOUS
 62
7
 10
897.13
 20
578.026
 11
971.909
 21
578.026
  0
POLYLINE
  8
Layer1
  6
CONTINUOUS
 62
7
 66
1
 10
0
 20
0
 30
0
  0
VERTEX
  8
Layer1
 10
969.909
 20
698.026
  0
VERTEX
  8
Layer1
 10
969.909
 20
578.026
  0
SEQEND
  0
POLYLINE
  8
Layer1
  6
CONTINUOUS
 62
7
 66
1
 10
0
 20
0
 30
0
 70
1
  0
VERTEX
  8
Layer1
 10
968.356
 20
692.231
  0
VERTEX
  8
Layer1
 10
969.909
 20
698.026
  0
VERTEX
  8
Layer1
 10
971.461
 20
692.231
  0
SEQEND
  0
POLYLINE
  8
Layer1
  6
CONTINUOUS
 62
7
 66
1
 10
0
 20
0
 30
0
 70
1
  0
VERTEX
  8
Layer1
 10
971.461
 20
583.822
  0
VERTEX
  8
Layer1
 10
969.909
 20
578.026
  0
VERTEX
  8
Layer1
 10
968.356
 20
583.822
  0
SEQEND
  0
POLYLINE
  8
Layer1
  6
CONTINUOUS
 62
7
 66
1
 10
0
 20
0
 30
0
  0
VERTEX
  8
Layer1
 10
835.63
 20
706.229
  0
VERTEX
  8
Layer1
 10
885.63
 20
706.229
  0
SEQEND
  0
POLYLINE
  8
Layer1
  6
CONTINUOUS
 62
7
 66
1
 10
0
 20
0
 30
0
 70
1
  0
VERTEX
  8
Layer1
 10
839.494
 20
705.194
  0
VERTEX
  8
Layer1
 10
835.63
 20
706.229
  0
VERTEX
  8
Layer1
 10
839.494
 20
707.264
  0
SEQEND
  0
POLYLINE
  8
Layer1
  6
CONTINUOUS
 62
7
 66
1
 10
0
 20
0
 30
0
 70
1
  0
VERTEX
  8
Layer1
 10
881.765
 20
707.264
  0
VERTEX
  8
Layer1
 10
885.63
 20
706.229
  0
VERTEX
  8
Layer1
 10
881.765
 20
705.194
  0
SEQEND
  0
LINE
  8
Layer1
  6
CONTINUOUS
 62
7
 10
885.63
 20
696.709
 11
885.63
 21
708.201
  0
TEXT
  8
Layer1
 62
7
 10
860.568
 20
706.229
 72
1
 11
860.568
 21
706.229
 40
6
 41
1
  1
 50 
  0
TEXT
  8
Layer1
 62
7
 10
875.63
 20
552.867
 72
1
 11
875.63
 21
552.867
 40
6
 41
1
  1
 45 
  0
LINE
  8
Layer1
  6
CONTINUOUS
 62
7
 10
898.13
 20
598.026
 11
898.13
 21
550.867
  0
LINE
  8
Layer1
  6
CONTINUOUS
 62
7
 10
853.13
 20
600.949
 11
853.13
 21
550.867
  0
POLYLINE
  8
Layer1
  6
CONTINUOUS
 62
7
 66
1
 10
0
 20
0
 30
0
  0
VERTEX
  8
Layer1
 10
898.13
 20
552.867
  0
VERTEX
  8
Layer1
 10
853.13
 20
552.867
  0
SEQEND
  0
POLYLINE
  8
Layer1
  6
CONTINUOUS
 62
7
 66
1
 10
0
 20
0
 30
0
 70
1
  0
VERTEX
  8
Layer1
 10
892.335
 20
554.42
  0
VERTEX
  8
Layer1
 10
898.13
 20
552.867
  0
VERTEX
  8
Layer1
 10
892.335
 20
551.314
  0
SEQEND
  0
POLYLINE
  8
Layer1
  6
CONTINUOUS
 62
7
 66
1
 10
0
 20
0
 30
0
 70
1
  0
VERTEX
  8
Layer1
 10
858.926
 20
551.314
  0
VERTEX
  8
Layer1
 10
853.13
 20
552.867
  0
VERTEX
  8
Layer1
 10
858.926
 20
554.42
  0
SEQEND
  0
TEXT
  8
Layer1
 62
7
 10
842.443
 20
564.62
 72
1
 11
842.443
 21
564.62
 40
6
 41
1
  1
10
  0
LINE
  8
Layer1
  6
CONTINUOUS
 62
7
 10
863.13
 20
593.831
 11
863.13
 21
562.62
  0
POLYLINE
  8
Layer1
  6
CONTINUOUS
 62
7
 66
1
 10
0
 20
0
 30
0
  0
VERTEX
  8
Layer1
 10
873.13
 20
564.62
  0
VERTEX
  8
Layer1
 10
863.13
 20
564.62
  0
SEQEND
  0
POLYLINE
  8
Layer1
  6
CONTINUOUS
 62
7
 66
1
 10
0
 20
0
 30
0
 70
1
  0
VERTEX
  8
Layer1
 10
868.926
 20
563.068
  0
VERTEX
  8
Layer1
 10
863.13
 20
564.62
  0
VERTEX
  8
Layer1
 10
868.926
 20
566.173
  0
SEQEND
  0
POLYLINE
  8
Layer1
  6
CONTINUOUS
 62
7
 66
1
 10
0
 20
0
 30
0
  0
VERTEX
  8
Layer1
 10
838.443
 20
564.62
  0
VERTEX
  8
Layer1
 10
853.13
 20
564.62
  0
SEQEND
  0
POLYLINE
  8
Layer1
  6
CONTINUOUS
 62
7
 66
1
 10
0
 20
0
 30
0
 70
1
  0
VERTEX
  8
Layer1
 10
847.335
 20
566.173
  0
VERTEX
  8
Layer1
 10
853.13
 20
564.62
  0
VERTEX
  8
Layer1
 10
847.335
 20
563.068
  0
SEQEND
  0
LINE
  8
Layer1
  6
CONTINUOUS
 62
7
 10
863.13
 20
564.62
 11
853.13
 21
564.62
  0
TEXT
  8
Layer1
 62
7
 10
875.63
 20
564.62
 72
1
 11
875.63
 21
564.62
 40
6
 41
1
  1
 25 
  0
LINE
  8
Layer1
  6
CONTINUOUS
 62
7
 10
888.13
 20
598.602
 11
888.13
 21
562.62
  0
POLYLINE
  8
Layer1
  6
CONTINUOUS
 62
7
 66
1
 10
0
 20
0
 30
0
  0
VERTEX
  8
Layer1
 10
863.13
 20
564.62
  0
VERTEX
  8
Layer1
 10
888.13
 20
564.62
  0
SEQEND
  0
POLYLINE
  8
Layer1
  6
CONTINUOUS
 62
7
 66
1
 10
0
 20
0
 30
0
 70
1
  0
VERTEX
  8
Layer1
 10
868.926
 20
563.068
  0
VERTEX
  8
Layer1
 10
863.13
 20
564.62
  0
VERTEX
  8
Layer1
 10
868.926
 20
566.173
  0
SEQEND
  0
POLYLINE
  8
Layer1
  6
CONTINUOUS
 62
7
 66
1
 10
0
 20
0
 30
0
 70
1
  0
VERTEX
  8
Layer1
 10
882.335
 20
566.173
  0
VERTEX
  8
Layer1
 10
888.13
 20
564.62
  0
VERTEX
  8
Layer1
 10
882.335
 20
563.068
  0
SEQEND
  0
POLYLINE
  8
Layer1
  6
CONTINUOUS
 62
7
 66
1
 10
0
 20
0
 30
0
  0
VERTEX
  8
Layer1
 10
890.447
 20
673.708
  0
VERTEX
  8
Layer1
 10
921.45
 20
715.828
  0
VERTEX
  8
Layer1
 10
921.45
 20
715.828
  0
SEQEND
  0
POLYLINE
  8
Layer1
  6
CONTINUOUS
 62
7
 66
1
 10
0
 20
0
 30
0
 70
1
  0
VERTEX
  8
Layer1
 10
893.572
 20
676.206
  0
VERTEX
  8
Layer1
 10
890.447
 20
673.708
  0
VERTEX
  8
Layer1
 10
891.904
 20
677.434
  0
SEQEND
  0
LINE
  8
Layer1
  6
CONTINUOUS
 62
7
 10
921.45
 20
715.828
 11
936.45
 21
715.828
  0
TEXT
  8
Layer1
 62
7
 10
936.45
 20
717.828
 72
2
 11
936.45
 21
717.828
 40
6
 41
1
  1
4-φ9
  0
TEXT
  8
Layer1
 62
7
 10
725.103
 20
702.712
 40
6
 41
1
  1
ベース取付穴
  0
TEXT
  8
Layer1
 62
7
 10
921.217
 20
707.515
 40
6
 41
1
  1
アッパー取付穴
  0
LINE
  8
Layer1
  6
CONTINUOUS
 62
7
 10
773.068
 20
697.026
 11
773.068
 21
721.723
  0
LINE
  8
Layer1
  6
CONTINUOUS
 62
7
 10
898.13
 20
697.026
 11
898.13
 21
721.723
  0
POLYLINE
  8
Layer1
  6
CONTINUOUS
 62
7
 66
1
 10
0
 20
0
 30
0
  0
VERTEX
  8
Layer1
 10
773.068
 20
719.723
  0
VERTEX
  8
Layer1
 10
898.13
 20
719.723
  0
SEQEND
  0
POLYLINE
  8
Layer1
  6
CONTINUOUS
 62
7
 66
1
 10
0
 20
0
 30
0
 70
1
  0
VERTEX
  8
Layer1
 10
776.932
 20
718.688
  0
VERTEX
  8
Layer1
 10
773.068
 20
719.723
  0
VERTEX
  8
Layer1
 10
776.932
 20
720.758
  0
SEQEND
  0
POLYLINE
  8
Layer1
  6
CONTINUOUS
 62
7
 66
1
 10
0
 20
0
 30
0
 70
1
  0
VERTEX
  8
Layer1
 10
894.266
 20
720.758
  0
VERTEX
  8
Layer1
 10
898.13
 20
719.723
  0
VERTEX
  8
Layer1
 10
894.266
 20
718.688
  0
SEQEND
  0
TEXT
  8
Layer1
 62
7
 10
810.568
 20
706.229
 72
1
 11
810.568
 21
706.229
 40
6
 41
1
  1
 50 
  0
LINE
  8
Layer1
  6
CONTINUOUS
 62
7
 10
835.63
 20
696.737
 11
835.63
 21
708.229
  0
POLYLINE
  8
Layer1
  6
CONTINUOUS
 62
7
 66
1
 10
0
 20
0
 30
0
  0
VERTEX
  8
Layer1
 10
785.568
 20
706.229
  0
VERTEX
  8
Layer1
 10
835.63
 20
706.229
  0
SEQEND
  0
POLYLINE
  8
Layer1
  6
CONTINUOUS
 62
7
 66
1
 10
0
 20
0
 30
0
 70
1
  0
VERTEX
  8
Layer1
 10
789.432
 20
705.194
  0
VERTEX
  8
Layer1
 10
785.568
 20
706.229
  0
VERTEX
  8
Layer1
 10
789.432
 20
707.264
  0
SEQEND
  0
POLYLINE
  8
Layer1
  6
CONTINUOUS
 62
7
 66
1
 10
0
 20
0
 30
0
 70
1
  0
VERTEX
  8
Layer1
 10
831.765
 20
707.264
  0
VERTEX
  8
Layer1
 10
835.63
 20
706.229
  0
VERTEX
  8
Layer1
 10
831.765
 20
705.194
  0
SEQEND
  0
TEXT
  8
Layer1
 62
7
 10
779.318
 20
706.229
 72
1
 11
779.318
 21
706.229
 40
6
 41
1
  1
 12.5 
  0
LINE
  8
Layer1
  6
CONTINUOUS
 62
7
 10
785.568
 20
698.026
 11
785.568
 21
708.229
  0
LINE
  8
Layer1
  6
CONTINUOUS
 62
7
 10
773.068
 20
706.489
 11
773.068
 21
704.229
  0
POLYLINE
  8
Layer1
  6
CONTINUOUS
 62
7
 66
1
 10
0
 20
0
 30
0
  0
VERTEX
  8
Layer1
 10
763.068
 20
706.229
  0
VERTEX
  8
Layer1
 10
773.068
 20
706.229
  0
SEQEND
  0
POLYLINE
  8
Layer1
  6
CONTINUOUS
 62
7
 66
1
 10
0
 20
0
 30
0
 70
1
  0
VERTEX
  8
Layer1
 10
769.204
 20
707.264
  0
VERTEX
  8
Layer1
 10
773.068
 20
706.229
  0
VERTEX
  8
Layer1
 10
769.204
 20
705.194
  0
SEQEND
  0
LINE
  8
Layer1
  6
CONTINUOUS
 62
7
 10
785.568
 20
706.229
 11
773.068
 21
706.229
  0
POLYLINE
  8
Layer1
  6
CONTINUOUS
 62
7
 66
1
 10
0
 20
0
 30
0
  0
VERTEX
  8
Layer1
 10
782.385
 20
691.208
  0
VERTEX
  8
Layer1
 10
758.327
 20
712.489
  0
VERTEX
  8
Layer1
 10
758.327
 20
712.489
  0
SEQEND
  0
POLYLINE
  8
Layer1
  6
CONTINUOUS
 62
7
 66
1
 10
0
 20
0
 30
0
 70
1
  0
VERTEX
  8
Layer1
 10
780.178
 20
694.544
  0
VERTEX
  8
Layer1
 10
782.385
 20
691.208
  0
VERTEX
  8
Layer1
 10
778.805
 20
692.993
  0
SEQEND
  0
LINE
  8
Layer1
  6
CONTINUOUS
 62
7
 10
758.327
 20
712.489
 11
743.327
 21
712.489
  0
TEXT
  8
Layer1
 62
7
 10
743.327
 20
714.489
 40
6
 41
1
  1
4-φ9
  0
CIRCLE
  8
Layer1
  6
CONTINUOUS
 62
7
 10
785.63
 20
588.026
 40
4.5
  0
LINE
  8
Layer1
  6
CENTER1
 62
7
 10
785.63
 20
601.136
 11
785.63
 21
572.908
  0
LINE
  8
Layer1
  6
CENTER1
 62
7
 10
772.165
 20
588.026
 11
799.094
 21
588.026
  0
CIRCLE
  8
Layer1
  6
CONTINUOUS
 62
7
 10
835.63
 20
588.026
 40
7
  0
CIRCLE
  8
Layer1
  6
CONTINUOUS
 62
7
 10
835.63
 20
588.026
 40
4.5
  0
LINE
  8
Layer1
  6
CENTER1
 62
7
 10
835.63
 20
601.136
 11
835.63
 21
572.908
  0
LINE
  8
Layer1
  6
CENTER1
 62
7
 10
822.165
 20
588.026
 11
849.095
 21
588.026
  0
CIRCLE
  8
Layer1
  6
CONTINUOUS
 62
7
 10
885.63
 20
588.026
 40
7
  0
CIRCLE
  8
Layer1
  6
CONTINUOUS
 62
7
 10
885.63
 20
588.026
 40
4.5
  0
LINE
  8
Layer1
  6
CENTER1
 62
7
 10
876.073
 20
588.026
 11
894.229
 21
588.026
  0
LINE
  8
Layer1
  6
CENTER1
 62
7
 10
885.63
 20
598.533
 11
885.63
 21
576.432
  0
LINE
  8
Layer1
  6
CONTINUOUS
 62
7
 10
772.13
 20
663.026
 11
773.13
 21
662.026
  0
LINE
  8
Layer1
  6
CENTER1
 62
7
 10
805.307
 20
605.526
 11
795.046
 21
605.526
  0
CIRCLE
  8
Layer1
  6
CONTINUOUS
 62
7
 10
801.13
 20
605.526
 40
1.25
  0
CIRCLE
  8
Layer1
  6
CONTINUOUS
 62
7
 10
801.13
 20
605.526
 40
2
  0
LINE
  8
Layer1
  6
CENTER1
 62
7
 10
774.623
 20
605.526
 11
791.024
 21
605.526
  0
LINE
  8
Layer1
  6
CONTINUOUS
 62
7
 10
779.962
 20
605.526
 11
774.623
 21
605.526
  0
LINE
  8
Layer1
  6
CENTER1
 62
7
 10
804.656
 20
605.526
 11
797.019
 21
605.526
  0
CIRCLE
  8
Layer1
  6
CONTINUOUS
 62
7
 10
801.13
 20
605.526
 40
1.25
  0
CIRCLE
  8
Layer1
  6
CONTINUOUS
 62
7
 10
801.13
 20
605.526
 40
2
  0
LINE
  8
Layer1
  6
CENTER1
 62
7
 10
774.623
 20
605.526
 11
791.024
 21
605.526
  0
LINE
  8
Layer1
  6
CENTER1
 62
7
 10
834.164
 20
605.526
 11
850.318
 21
605.526
  0
CIRCLE
  8
Layer1
  6
CONTINUOUS
 62
7
 10
782.63
 20
605.526
 40
6.5
  0
POLYLINE
  8
Layer1
  6
CONTINUOUS
 62
7
 66
1
 10
0
 20
0
 30
0
 70
1
  0
VERTEX
  8
Layer1
 10
782.63
 20
608.956
  0
VERTEX
  8
Layer1
 10
779.659
 20
607.241
  0
VERTEX
  8
Layer1
 10
779.659
 20
603.811
  0
VERTEX
  8
Layer1
 10
782.63
 20
602.096
  0
VERTEX
  8
Layer1
 10
785.601
 20
603.811
  0
VERTEX
  8
Layer1
 10
785.601
 20
607.241
  0
SEQEND
  0
CIRCLE
  8
Layer1
  6
CONTINUOUS
 62
7
 10
782.63
 20
605.526
 40
3.43
  0
CIRCLE
  8
Layer1
  6
CONTINUOUS
 62
7
 10
842.63
 20
605.526
 40
6.5
  0
LINE
  8
Layer1
  6
CENTER1
 62
7
 10
804.656
 20
605.526
 11
821.966
 21
605.526
  0
CIRCLE
  8
Layer1
  6
CONTINUOUS
 62
7
 10
812.63
 20
605.526
 40
6.5
  0
POLYLINE
  8
Layer1
  6
CONTINUOUS
 62
7
 66
1
 10
0
 20
0
 30
0
 70
1
  0
VERTEX
  8
Layer1
 10
812.63
 20
608.956
  0
VERTEX
  8
Layer1
 10
809.659
 20
607.241
  0
VERTEX
  8
Layer1
 10
809.659
 20
603.811
  0
VERTEX
  8
Layer1
 10
812.63
 20
602.096
  0
VERTEX
  8
Layer1
 10
815.601
 20
603.811
  0
VERTEX
  8
Layer1
 10
815.601
 20
607.241
  0
SEQEND
  0
CIRCLE
  8
Layer1
  6
CONTINUOUS
 62
7
 10
812.63
 20
605.526
 40
3.43
  0
LINE
  8
Layer1
  6
CENTER1
 62
7
 10
782.63
 20
596.719
 11
782.63
 21
613.333
  0
LINE
  8
Layer1
  6
CENTER1
 62
7
 10
812.63
 20
596.56
 11
812.63
 21
613.492
  0
LINE
  8
Layer1
  6
CENTER1
 62
7
 10
842.63
 20
596.91
 11
842.63
 21
613.435
  0
POLYLINE
  8
Layer1
  6
CONTINUOUS
 62
7
 66
1
 10
0
 20
0
 30
0
 70
1
  0
VERTEX
  8
Layer1
 10
842.63
 20
608.956
  0
VERTEX
  8
Layer1
 10
839.659
 20
607.241
  0
VERTEX
  8
Layer1
 10
839.659
 20
603.811
  0
VERTEX
  8
Layer1
 10
842.63
 20
602.096
  0
VERTEX
  8
Layer1
 10
845.601
 20
603.811
  0
VERTEX
  8
Layer1
 10
845.601
 20
607.241
  0
SEQEND
  0
CIRCLE
  8
Layer1
  6
CONTINUOUS
 62
7
 10
842.63
 20
605.526
 40
3.43
  0
CIRCLE
  8
Layer1
  6
CONTINUOUS
 62
7
 10
801.13
 20
670.526
 40
1.25
  0
CIRCLE
  8
Layer1
  6
CONTINUOUS
 62
7
 10
801.13
 20
670.526
 40
2
  0
LINE
  8
Layer1
  6
CENTER1
 62
7
 10
801.13
 20
674.641
 11
801.13
 21
666.067
  0
LINE
  8
Layer1
  6
CENTER1
 62
7
 10
842.63
 20
662.528
 11
842.63
 21
681.122
  0
LINE
  8
Layer1
  6
CENTER1
 62
7
 10
774.428
 20
670.526
 11
790.831
 21
670.526
  0
LINE
  8
Layer1
  6
CENTER1
 62
7
 10
834.164
 20
670.526
 11
850.318
 21
670.526
  0
LINE
  8
Layer1
  6
CENTER1
 62
7
 10
812.63
 20
662.841
 11
812.63
 21
681.436
  0
LINE
  8
Layer1
  6
CENTER1
 62
7
 10
782.63
 20
661.567
 11
782.63
 21
680.161
  0
CIRCLE
  8
Layer1
  6
CONTINUOUS
 62
7
 10
782.63
 20
670.526
 40
6.5
  0
POLYLINE
  8
Layer1
  6
CONTINUOUS
 62
7
 66
1
 10
0
 20
0
 30
0
 70
1
  0
VERTEX
  8
Layer1
 10
782.63
 20
673.956
  0
VERTEX
  8
Layer1
 10
779.659
 20
672.241
  0
VERTEX
  8
Layer1
 10
779.659
 20
668.811
  0
VERTEX
  8
Layer1
 10
782.63
 20
667.096
  0
VERTEX
  8
Layer1
 10
785.601
 20
668.811
  0
VERTEX
  8
Layer1
 10
785.601
 20
672.241
  0
SEQEND
  0
CIRCLE
  8
Layer1
  6
CONTINUOUS
 62
7
 10
782.63
 20
670.526
 40
3.43
  0
CIRCLE
  8
Layer1
  6
CONTINUOUS
 62
7
 10
842.63
 20
670.526
 40
6.5
  0
POLYLINE
  8
Layer1
  6
CONTINUOUS
 62
7
 66
1
 10
0
 20
0
 30
0
 70
1
  0
VERTEX
  8
Layer1
 10
842.63
 20
673.956
  0
VERTEX
  8
Layer1
 10
839.659
 20
672.241
  0
VERTEX
  8
Layer1
 10
839.659
 20
668.811
  0
VERTEX
  8
Layer1
 10
842.63
 20
667.096
  0
VERTEX
  8
Layer1
 10
845.601
 20
668.811
  0
VERTEX
  8
Layer1
 10
845.601
 20
672.241
  0
SEQEND
  0
CIRCLE
  8
Layer1
  6
CONTINUOUS
 62
7
 10
842.63
 20
670.526
 40
3.43
  0
LINE
  8
Layer1
  6
CENTER1
 62
7
 10
804.656
 20
670.526
 11
821.966
 21
670.526
  0
CIRCLE
  8
Layer1
  6
CONTINUOUS
 62
7
 10
812.63
 20
670.526
 40
6.5
  0
POLYLINE
  8
Layer1
  6
CONTINUOUS
 62
7
 66
1
 10
0
 20
0
 30
0
 70
1
  0
VERTEX
  8
Layer1
 10
812.63
 20
673.956
  0
VERTEX
  8
Layer1
 10
809.659
 20
672.241
  0
VERTEX
  8
Layer1
 10
809.659
 20
668.811
  0
VERTEX
  8
Layer1
 10
812.63
 20
667.096
  0
VERTEX
  8
Layer1
 10
815.601
 20
668.811
  0
VERTEX
  8
Layer1
 10
815.601
 20
672.241
  0
SEQEND
  0
CIRCLE
  8
Layer1
  6
CONTINUOUS
 62
7
 10
812.63
 20
670.526
 40
3.43
  0
LINE
  8
Layer1
  6
CONTINUOUS
 62
7
 10
512.881
 20
350.997
 11
512.881
 21
365.997
  0
LINE
  8
Layer1
  6
CONTINUOUS
 62
7
 10
632.881
 20
350.997
 11
632.881
 21
365.997
  0
LINE
  8
Layer1
  6
CONTINUOUS
 62
7
 10
533.381
 20
419.997
 11
611.881
 21
419.997
  0
LINE
  8
Layer1
  6
CONTINUOUS
 62
7
 10
613.881
 20
418.997
 11
613.892
 21
372.67
  0
LINE
  8
Layer1
  6
CONTINUOUS
 62
7
 10
514.881
 20
367.997
 11
526.881
 21
367.997
  0
LINE
  8
Layer1
  6
CONTINUOUS
 62
7
 10
618.881
 20
367.997
 11
630.881
 21
367.997
  0
POLYLINE
  8
Layer1
  6
CONTINUOUS
 62
7
 66
1
 10
0
 20
0
 30
0
  0
VERTEX
  8
Layer1
 10
526.881
 20
367.997
  0
VERTEX
  8
Layer1
 10
527.045
 20
368
  0
VERTEX
  8
Layer1
 10
527.208
 20
368.008
  0
VERTEX
  8
Layer1
 10
527.371
 20
368.021
  0
VERTEX
  8
Layer1
 10
527.534
 20
368.04
  0
VERTEX
  8
Layer1
 10
527.696
 20
368.064
  0
VERTEX
  8
Layer1
 10
527.856
 20
368.093
  0
VERTEX
  8
Layer1
 10
528.016
 20
368.128
  0
VERTEX
  8
Layer1
 10
528.176
 20
368.168
  0
VERTEX
  8
Layer1
 10
528.332
 20
368.213
  0
VERTEX
  8
Layer1
 10
528.489
 20
368.263
  0
VERTEX
  8
Layer1
 10
528.643
 20
368.318
  0
VERTEX
  8
Layer1
 10
528.794
 20
368.378
  0
VERTEX
  8
Layer1
 10
528.946
 20
368.443
  0
VERTEX
  8
Layer1
 10
529.092
 20
368.513
  0
VERTEX
  8
Layer1
 10
529.239
 20
368.588
  0
VERTEX
  8
Layer1
 10
529.381
 20
368.667
  0
VERTEX
  8
Layer1
 10
529.522
 20
368.751
  0
VERTEX
  8
Layer1
 10
529.659
 20
368.84
  0
VERTEX
  8
Layer1
 10
529.793
 20
368.933
  0
VERTEX
  8
Layer1
 10
529.926
 20
369.031
  0
VERTEX
  8
Layer1
 10
530.053
 20
369.132
  0
VERTEX
  8
Layer1
 10
530.178
 20
369.238
  0
VERTEX
  8
Layer1
 10
530.299
 20
369.348
  0
VERTEX
  8
Layer1
 10
530.418
 20
369.462
  0
VERTEX
  8
Layer1
 10
530.531
 20
369.579
  0
VERTEX
  8
Layer1
 10
530.64
 20
369.701
  0
VERTEX
  8
Layer1
 10
530.746
 20
369.825
  0
VERTEX
  8
Layer1
 10
530.849
 20
369.954
  0
VERTEX
  8
Layer1
 10
530.946
 20
370.085
  0
VERTEX
  8
Layer1
 10
531.039
 20
370.219
  0
VERTEX
  8
Layer1
 10
531.128
 20
370.357
  0
VERTEX
  8
Layer1
 10
531.212
 20
370.497
  0
VERTEX
  8
Layer1
 10
531.292
 20
370.64
  0
VERTEX
  8
Layer1
 10
531.366
 20
370.786
  0
VERTEX
  8
Layer1
 10
531.436
 20
370.934
  0
VERTEX
  8
Layer1
 10
531.5
 20
371.084
  0
VERTEX
  8
Layer1
 10
531.562
 20
371.236
  0
VERTEX
  8
Layer1
 10
531.616
 20
371.39
  0
VERTEX
  8
Layer1
 10
531.667
 20
371.546
  0
VERTEX
  8
Layer1
 10
531.712
 20
371.703
  0
VERTEX
  8
Layer1
 10
531.75
 20
371.862
  0
VERTEX
  8
Layer1
 10
531.785
 20
372.022
  0
VERTEX
  8
Layer1
 10
531.814
 20
372.183
  0
VERTEX
  8
Layer1
 10
531.839
 20
372.345
  0
VERTEX
  8
Layer1
 10
531.858
 20
372.507
  0
VERTEX
  8
Layer1
 10
531.87
 20
372.67
  0
VERTEX
  8
Layer1
 10
531.879
 20
372.834
  0
VERTEX
  8
Layer1
 10
531.881
 20
372.997
  0
SEQEND
  0
POLYLINE
  8
Layer1
  6
CONTINUOUS
 62
7
 66
1
 10
0
 20
0
 30
0
  0
VERTEX
  8
Layer1
 10
613.881
 20
372.997
  0
VERTEX
  8
Layer1
 10
613.885
 20
372.834
  0
VERTEX
  8
Layer1
 10
613.892
 20
372.67
  0
VERTEX
  8
Layer1
 10
613.906
 20
372.507
  0
VERTEX
  8
Layer1
 10
613.925
 20
372.345
  0
VERTEX
  8
Layer1
 10
613.948
 20
372.183
  0
VERTEX
  8
Layer1
 10
613.977
 20
372.022
  0
VERTEX
  8
Layer1
 10
614.013
 20
371.862
  0
VERTEX
  8
Layer1
 10
614.052
 20
371.703
  0
VERTEX
  8
Layer1
 10
614.096
 20
371.546
  0
VERTEX
  8
Layer1
 10
614.147
 20
371.39
  0
VERTEX
  8
Layer1
 10
614.202
 20
371.236
  0
VERTEX
  8
Layer1
 10
614.263
 20
371.084
  0
VERTEX
  8
Layer1
 10
614.327
 20
370.934
  0
VERTEX
  8
Layer1
 10
614.398
 20
370.786
  0
VERTEX
  8
Layer1
 10
614.471
 20
370.64
  0
VERTEX
  8
Layer1
 10
614.552
 20
370.497
  0
VERTEX
  8
Layer1
 10
614.635
 20
370.357
  0
VERTEX
  8
Layer1
 10
614.725
 20
370.219
  0
VERTEX
  8
Layer1
 10
614.818
 20
370.085
  0
VERTEX
  8
Layer1
 10
614.915
 20
369.954
  0
VERTEX
  8
Layer1
 10
615.016
 20
369.825
  0
VERTEX
  8
Layer1
 10
615.122
 20
369.701
  0
VERTEX
  8
Layer1
 10
615.233
 20
369.579
  0
VERTEX
  8
Layer1
 10
615.346
 20
369.462
  0
VERTEX
  8
Layer1
 10
615.464
 20
369.348
  0
VERTEX
  8
Layer1
 10
615.584
 20
369.238
  0
VERTEX
  8
Layer1
 10
615.709
 20
369.132
  0
VERTEX
  8
Layer1
 10
615.838
 20
369.031
  0
VERTEX
  8
Layer1
 10
615.969
 20
368.933
  0
VERTEX
  8
Layer1
 10
616.103
 20
368.84
  0
VERTEX
  8
Layer1
 10
616.242
 20
368.751
  0
VERTEX
  8
Layer1
 10
616.381
 20
368.667
  0
VERTEX
  8
Layer1
 10
616.524
 20
368.588
  0
VERTEX
  8
Layer1
 10
616.67
 20
368.513
  0
VERTEX
  8
Layer1
 10
616.818
 20
368.443
  0
VERTEX
  8
Layer1
 10
616.968
 20
368.378
  0
VERTEX
  8
Layer1
 10
617.12
 20
368.318
  0
VERTEX
  8
Layer1
 10
617.274
 20
368.263
  0
VERTEX
  8
Layer1
 10
617.43
 20
368.213
  0
VERTEX
  8
Layer1
 10
617.588
 20
368.168
  0
VERTEX
  8
Layer1
 10
617.746
 20
368.128
  0
VERTEX
  8
Layer1
 10
617.907
 20
368.093
  0
VERTEX
  8
Layer1
 10
618.068
 20
368.064
  0
VERTEX
  8
Layer1
 10
618.228
 20
368.04
  0
VERTEX
  8
Layer1
 10
618.391
 20
368.021
  0
VERTEX
  8
Layer1
 10
618.554
 20
368.008
  0
VERTEX
  8
Layer1
 10
618.717
 20
368
  0
VERTEX
  8
Layer1
 10
618.881
 20
367.997
  0
SEQEND
  0
ARC
  8
Layer1
  6
CONTINUOUS
 62
7
 10
514.881
 20
365.997
 40
2
 50
90
 51
180
  0
ARC
  8
Layer1
  6
CONTINUOUS
 62
7
 10
630.881
 20
365.997
 40
2
 50
0
 51
90
  0
LINE
  8
Layer1
  6
CONTINUOUS
 62
7
 10
622.881
 20
372.711
 11
622.881
 21
364.705
  0
LINE
  8
Layer1
  6
CONTINUOUS
 62
7
 10
522.881
 20
369.607
 11
522.881
 21
362.682
  0
LINE
  8
Layer1
  6
DASHED1
 62
7
 10
582.881
 20
350.797
 11
582.881
 21
368.797
  0
LINE
  8
Layer1
  6
DASHED1
 62
7
 10
562.881
 20
350.797
 11
562.881
 21
368.797
  0
LINE
  8
Layer1
  6
CONTINUOUS
 62
7
 10
522.881
 20
360.735
 11
522.881
 21
357.345
  0
LINE
  8
Layer1
  6
CONTINUOUS
 62
7
 10
522.881
 20
352.181
 11
522.881
 21
345.04
  0
LINE
  8
Layer1
  6
CONTINUOUS
 62
7
 10
622.881
 20
359.869
 11
622.881
 21
356.84
  0
LINE
  8
Layer1
  6
CONTINUOUS
 62
7
 10
622.881
 20
351.676
 11
622.881
 21
344.247
  0
LINE
  8
Layer1
  6
CONTINUOUS
 62
7
 10
566.481
 20
360.497
 11
570.288
 21
360.497
  0
CIRCLE
  8
Layer1
  6
CONTINUOUS
 62
7
 10
572.881
 20
360.497
 40
4
  0
LINE
  8
Layer1
  6
CONTINUOUS
 62
7
 10
575.295
 20
360.497
 11
579.101
 21
360.497
  0
LINE
  8
Layer1
  6
CONTINUOUS
 62
7
 10
571.59
 20
360.497
 11
573.994
 21
360.497
  0
LINE
  8
Layer1
  6
CONTINUOUS
 62
7
 10
583.881
 20
349.997
 11
592.25
 21
349.997
  0
LINE
  8
Layer1
  6
CONTINUOUS
 62
7
 10
561.881
 20
349.997
 11
554.025
 21
349.997
  0
LINE
  8
Layer1
  6
CONTINUOUS
 62
7
 10
582.881
 20
350.997
 11
583.881
 21
349.997
  0
LINE
  8
Layer1
  6
CONTINUOUS
 62
7
 10
562.881
 20
350.997
 11
561.881
 21
349.997
  0
LINE
  8
Layer1
  6
CONTINUOUS
 62
7
 10
512.881
 20
350.997
 11
513.881
 21
349.997
  0
LINE
  8
Layer1
  6
CONTINUOUS
 62
7
 10
631.881
 20
349.997
 11
632.881
 21
350.997
  0
CIRCLE
  8
Layer1
  6
CONTINUOUS
 62
7
 10
572.881
 20
360.497
 40
5
  0
LINE
  8
Layer1
  6
CONTINUOUS
 62
7
 10
531.881
 20
418.997
 11
531.881
 21
372.997
  0
LINE
  8
Layer1
  6
CONTINUOUS
 62
7
 10
581.755
 20
349.997
 11
599.358
 21
349.997
  0
LINE
  8
Layer1
  6
CONTINUOUS
 62
7
 10
548.881
 20
369.997
 11
596.881
 21
369.997
  0
LINE
  8
Layer1
  6
DASHED1
 62
7
 10
608.398
 20
432.997
 11
608.381
 21
432.981
  0
CIRCLE
  8
Layer1
  6
CONTINUOUS
 62
7
 10
555.381
 20
412.497
 40
4
  0
CIRCLE
  8
Layer1
  6
CONTINUOUS
 62
7
 10
590.381
 20
412.497
 40
4
  0
POLYLINE
  8
Layer1
  6
CONTINUOUS
 62
7
 66
1
 10
0
 20
0
 30
0
 70
1
  0
VERTEX
  8
Layer1
 10
590.381
 20
415.357
  0
VERTEX
  8
Layer1
 10
587.904
 20
413.927
  0
VERTEX
  8
Layer1
 10
587.904
 20
411.067
  0
VERTEX
  8
Layer1
 10
590.381
 20
409.637
  0
VERTEX
  8
Layer1
 10
592.859
 20
411.067
  0
VERTEX
  8
Layer1
 10
592.859
 20
413.927
  0
SEQEND
  0
CIRCLE
  8
Layer1
  6
CONTINUOUS
 62
7
 10
590.381
 20
412.497
 40
2.86
  0
POLYLINE
  8
Layer1
  6
CONTINUOUS
 62
7
 66
1
 10
0
 20
0
 30
0
 70
1
  0
VERTEX
  8
Layer1
 10
595.182
 20
377.497
  0
VERTEX
  8
Layer1
 10
595.14
 20
378.124
  0
VERTEX
  8
Layer1
 10
595.017
 20
378.74
  0
VERTEX
  8
Layer1
 10
594.817
 20
379.334
  0
VERTEX
  8
Layer1
 10
594.539
 20
379.897
  0
VERTEX
  8
Layer1
 10
594.189
 20
380.419
  0
VERTEX
  8
Layer1
 10
593.775
 20
380.891
  0
VERTEX
  8
Layer1
 10
593.303
 20
381.305
  0
VERTEX
  8
Layer1
 10
592.782
 20
381.654
  0
VERTEX
  8
Layer1
 10
592.218
 20
381.932
  0
VERTEX
  8
Layer1
 10
591.623
 20
382.134
  0
VERTEX
  8
Layer1
 10
591.009
 20
382.256
  0
VERTEX
  8
Layer1
 10
590.381
 20
382.297
  0
VERTEX
  8
Layer1
 10
589.755
 20
382.256
  0
VERTEX
  8
Layer1
 10
589.14
 20
382.134
  0
VERTEX
  8
Layer1
 10
588.544
 20
381.932
  0
VERTEX
  8
Layer1
 10
587.981
 20
381.654
  0
VERTEX
  8
Layer1
 10
587.459
 20
381.305
  0
VERTEX
  8
Layer1
 10
586.987
 20
380.891
  0
VERTEX
  8
Layer1
 10
586.573
 20
380.419
  0
VERTEX
  8
Layer1
 10
586.225
 20
379.897
  0
VERTEX
  8
Layer1
 10
585.947
 20
379.334
  0
VERTEX
  8
Layer1
 10
585.745
 20
378.74
  0
VERTEX
  8
Layer1
 10
585.622
 20
378.124
  0
VERTEX
  8
Layer1
 10
585.582
 20
377.497
  0
VERTEX
  8
Layer1
 10
585.622
 20
376.871
  0
VERTEX
  8
Layer1
 10
585.745
 20
376.255
  0
VERTEX
  8
Layer1
 10
585.947
 20
375.66
  0
VERTEX
  8
Layer1
 10
586.225
 20
375.097
  0
VERTEX
  8
Layer1
 10
586.573
 20
374.575
  0
VERTEX
  8
Layer1
 10
586.987
 20
374.103
  0
VERTEX
  8
Layer1
 10
587.459
 20
373.689
  0
VERTEX
  8
Layer1
 10
587.981
 20
373.34
  0
VERTEX
  8
Layer1
 10
588.544
 20
373.063
  0
VERTEX
  8
Layer1
 10
589.14
 20
372.861
  0
VERTEX
  8
Layer1
 10
589.755
 20
372.738
  0
VERTEX
  8
Layer1
 10
590.381
 20
372.697
  0
VERTEX
  8
Layer1
 10
591.009
 20
372.738
  0
VERTEX
  8
Layer1
 10
591.623
 20
372.861
  0
VERTEX
  8
Layer1
 10
592.218
 20
373.063
  0
VERTEX
  8
Layer1
 10
592.782
 20
373.34
  0
VERTEX
  8
Layer1
 10
593.303
 20
373.689
  0
VERTEX
  8
Layer1
 10
593.775
 20
374.103
  0
VERTEX
  8
Layer1
 10
594.189
 20
374.575
  0
VERTEX
  8
Layer1
 10
594.539
 20
375.097
  0
VERTEX
  8
Layer1
 10
594.817
 20
375.66
  0
VERTEX
  8
Layer1
 10
595.017
 20
376.255
  0
VERTEX
  8
Layer1
 10
595.14
 20
376.871
  0
SEQEND
  0
LINE
  8
Layer1
  6
CENTER1
 62
7
 10
526.422
 20
394.997
 11
622.411
 21
394.997
  0
LINE
  8
Layer1
  6
CONTINUOUS
 62
7
 10
531.881
 20
493.997
 11
531.881
 21
480.997
  0
LINE
  8
Layer1
  6
CONTINUOUS
 62
7
 10
613.881
 20
493.997
 11
613.881
 21
480.997
  0
LINE
  8
Layer1
  6
CONTINUOUS
 62
7
 10
533.881
 20
478.997
 11
546.381
 21
478.997
  0
LINE
  8
Layer1
  6
CONTINUOUS
 62
7
 10
612.881
 20
494.997
 11
532.881
 21
494.997
  0
LINE
  8
Layer1
  6
CENTER2
 62
7
 10
572.881
 20
502.864
 11
572.881
 21
430.255
  0
LINE
  8
Layer1
  6
DASHED1
 62
7
 10
597.381
 20
406.397
 11
597.381
 21
432.997
  0
LINE
  8
Layer1
  6
CONTINUOUS
 62
7
 10
599.381
 20
478.997
 11
611.881
 21
478.997
  0
ARC
  8
Layer1
  6
CONTINUOUS
 62
7
 10
533.881
 20
480.997
 40
2
 50
180
 51
270
  0
ARC
  8
Layer1
  6
CONTINUOUS
 62
7
 10
611.881
 20
480.997
 40
2
 50
270
 51
2.03555e-013
  0
LINE
  8
Layer1
  6
CONTINUOUS
 62
7
 10
531.881
 20
493.997
 11
532.881
 21
494.997
  0
LINE
  8
Layer1
  6
CONTINUOUS
 62
7
 10
612.881
 20
494.997
 11
613.881
 21
493.997
  0
LINE
  8
Layer1
  6
DASHED1
 62
7
 10
548.381
 20
406.397
 11
549.782
 21
404.997
  0
LINE
  8
Layer1
  6
DASHED1
 62
7
 10
595.981
 20
404.997
 11
597.381
 21
406.397
  0
ARC
  8
Layer1
  6
CONTINUOUS
 62
7
 10
546.381
 20
476.997
 40
2
 50
0
 51
90
  0
ARC
  8
Layer1
  6
CONTINUOUS
 62
7
 10
599.381
 20
476.997
 40
2
 50
90
 51
180
  0
LINE
  8
Layer1
  6
CONTINUOUS
 62
7
 10
597.381
 20
432.997
 11
597.381
 21
476.997
  0
LINE
  8
Layer1
  6
DASHED1
 62
7
 10
548.381
 20
406.397
 11
548.381
 21
432.997
  0
LINE
  8
Layer1
  6
CONTINUOUS
 62
7
 10
548.381
 20
432.997
 11
548.381
 21
476.997
  0
LINE
  8
Layer1
  6
CONTINUOUS
 62
7
 10
569.016
 20
439.748
 11
576.861
 21
439.748
  0
LINE
  8
Layer1
  6
CONTINUOUS
 62
7
 10
568.688
 20
439.145
 11
577.163
 21
439.145
  0
LINE
  8
Layer1
  6
CONTINUOUS
 62
7
 10
568.593
 20
435.765
 11
577.043
 21
435.765
  0
LINE
  8
Layer1
  6
CONTINUOUS
 62
7
 10
577.766
 20
435.041
 11
567.87
 21
435.041
  0
LINE
  8
Layer1
  6
CONTINUOUS
 62
7
 10
577.766
 20
435.041
 11
577.766
 21
433.17
  0
LINE
  8
Layer1
  6
CONTINUOUS
 62
7
 10
567.87
 20
435.041
 11
567.87
 21
433.17
  0
POLYLINE
  8
Layer1
  6
CONTINUOUS
 62
7
 66
1
 10
0
 20
0
 30
0
  0
VERTEX
  8
Layer1
 10
572.812
 20
436.961
  0
VERTEX
  8
Layer1
 10
572.745
 20
437.018
  0
VERTEX
  8
Layer1
 10
572.679
 20
437.074
  0
VERTEX
  8
Layer1
 10
572.611
 20
437.127
  0
VERTEX
  8
Layer1
 10
572.542
 20
437.179
  0
VERTEX
  8
Layer1
 10
572.471
 20
437.229
  0
VERTEX
  8
Layer1
 10
572.399
 20
437.277
  0
VERTEX
  8
Layer1
 10
572.326
 20
437.323
  0
VERTEX
  8
Layer1
 10
572.25
 20
437.368
  0
VERTEX
  8
Layer1
 10
572.175
 20
437.41
  0
VERTEX
  8
Layer1
 10
572.099
 20
437.451
  0
VERTEX
  8
Layer1
 10
572.021
 20
437.489
  0
VERTEX
  8
Layer1
 10
571.942
 20
437.525
  0
VERTEX
  8
Layer1
 10
571.862
 20
437.56
  0
VERTEX
  8
Layer1
 10
571.782
 20
437.592
  0
VERTEX
  8
Layer1
 10
571.701
 20
437.622
  0
VERTEX
  8
Layer1
 10
571.619
 20
437.65
  0
VERTEX
  8
Layer1
 10
571.535
 20
437.676
  0
VERTEX
  8
Layer1
 10
571.452
 20
437.7
  0
VERTEX
  8
Layer1
 10
571.369
 20
437.722
  0
VERTEX
  8
Layer1
 10
571.284
 20
437.741
  0
VERTEX
  8
Layer1
 10
571.198
 20
437.758
  0
VERTEX
  8
Layer1
 10
571.113
 20
437.773
  0
VERTEX
  8
Layer1
 10
571.028
 20
437.786
  0
VERTEX
  8
Layer1
 10
570.942
 20
437.797
  0
VERTEX
  8
Layer1
 10
570.856
 20
437.805
  0
VERTEX
  8
Layer1
 10
570.769
 20
437.811
  0
VERTEX
  8
Layer1
 10
570.683
 20
437.815
  0
VERTEX
  8
Layer1
 10
570.596
 20
437.817
  0
VERTEX
  8
Layer1
 10
570.509
 20
437.816
  0
VERTEX
  8
Layer1
 10
570.421
 20
437.814
  0
VERTEX
  8
Layer1
 10
570.336
 20
437.808
  0
VERTEX
  8
Layer1
 10
570.248
 20
437.801
  0
VERTEX
  8
Layer1
 10
570.163
 20
437.792
  0
VERTEX
  8
Layer1
 10
570.077
 20
437.78
  0
VERTEX
  8
Layer1
 10
569.992
 20
437.766
  0
VERTEX
  8
Layer1
 10
569.907
 20
437.75
  0
VERTEX
  8
Layer1
 10
569.822
 20
437.731
  0
VERTEX
  8
Layer1
 10
569.737
 20
437.711
  0
VERTEX
  8
Layer1
 10
569.654
 20
437.688
  0
VERTEX
  8
Layer1
 10
569.571
 20
437.663
  0
VERTEX
  8
Layer1
 10
569.487
 20
437.636
  0
VERTEX
  8
Layer1
 10
569.407
 20
437.607
  0
VERTEX
  8
Layer1
 10
569.326
 20
437.576
  0
VERTEX
  8
Layer1
 10
569.245
 20
437.542
  0
VERTEX
  8
Layer1
 10
569.167
 20
437.507
  0
VERTEX
  8
Layer1
 10
569.089
 20
437.47
  0
VERTEX
  8
Layer1
 10
569.01
 20
437.43
  0
VERTEX
  8
Layer1
 10
568.935
 20
437.389
  0
SEQEND
  0
POLYLINE
  8
Layer1
  6
CONTINUOUS
 62
7
 66
1
 10
0
 20
0
 30
0
  0
VERTEX
  8
Layer1
 10
577.164
 20
437.334
  0
VERTEX
  8
Layer1
 10
577.077
 20
437.37
  0
VERTEX
  8
Layer1
 10
576.987
 20
437.403
  0
VERTEX
  8
Layer1
 10
576.899
 20
437.435
  0
VERTEX
  8
Layer1
 10
576.81
 20
437.466
  0
VERTEX
  8
Layer1
 10
576.719
 20
437.494
  0
VERTEX
  8
Layer1
 10
576.63
 20
437.521
  0
VERTEX
  8
Layer1
 10
576.538
 20
437.546
  0
VERTEX
  8
Layer1
 10
576.447
 20
437.569
  0
VERTEX
  8
Layer1
 10
576.355
 20
437.59
  0
VERTEX
  8
Layer1
 10
576.262
 20
437.609
  0
VERTEX
  8
Layer1
 10
576.169
 20
437.627
  0
VERTEX
  8
Layer1
 10
576.076
 20
437.642
  0
VERTEX
  8
Layer1
 10
575.983
 20
437.656
  0
VERTEX
  8
Layer1
 10
575.889
 20
437.668
  0
VERTEX
  8
Layer1
 10
575.794
 20
437.678
  0
VERTEX
  8
Layer1
 10
575.701
 20
437.686
  0
VERTEX
  8
Layer1
 10
575.606
 20
437.692
  0
VERTEX
  8
Layer1
 10
575.513
 20
437.697
  0
VERTEX
  8
Layer1
 10
575.418
 20
437.699
  0
VERTEX
  8
Layer1
 10
575.323
 20
437.7
  0
VERTEX
  8
Layer1
 10
575.23
 20
437.698
  0
VERTEX
  8
Layer1
 10
575.135
 20
437.695
  0
VERTEX
  8
Layer1
 10
575.041
 20
437.69
  0
VERTEX
  8
Layer1
 10
574.947
 20
437.683
  0
VERTEX
  8
Layer1
 10
574.852
 20
437.674
  0
VERTEX
  8
Layer1
 10
574.759
 20
437.663
  0
VERTEX
  8
Layer1
 10
574.665
 20
437.651
  0
VERTEX
  8
Layer1
 10
574.572
 20
437.636
  0
VERTEX
  8
Layer1
 10
574.478
 20
437.62
  0
VERTEX
  8
Layer1
 10
574.385
 20
437.602
  0
VERTEX
  8
Layer1
 10
574.293
 20
437.582
  0
VERTEX
  8
Layer1
 10
574.202
 20
437.56
  0
VERTEX
  8
Layer1
 10
574.111
 20
437.536
  0
VERTEX
  8
Layer1
 10
574.019
 20
437.511
  0
VERTEX
  8
Layer1
 10
573.928
 20
437.483
  0
VERTEX
  8
Layer1
 10
573.84
 20
437.454
  0
VERTEX
  8
Layer1
 10
573.75
 20
437.423
  0
VERTEX
  8
Layer1
 10
573.661
 20
437.391
  0
VERTEX
  8
Layer1
 10
573.573
 20
437.356
  0
VERTEX
  8
Layer1
 10
573.486
 20
437.32
  0
VERTEX
  8
Layer1
 10
573.399
 20
437.282
  0
VERTEX
  8
Layer1
 10
573.313
 20
437.242
  0
VERTEX
  8
Layer1
 10
573.23
 20
437.201
  0
VERTEX
  8
Layer1
 10
573.146
 20
437.158
  0
VERTEX
  8
Layer1
 10
573.062
 20
437.113
  0
VERTEX
  8
Layer1
 10
572.98
 20
437.067
  0
VERTEX
  8
Layer1
 10
572.899
 20
437.019
  0
VERTEX
  8
Layer1
 10
572.819
 20
436.969
  0
SEQEND
  0
LINE
  8
Layer1
  6
CONTINUOUS
 62
7
 10
569.281
 20
437.557
 11
568.947
 21
437.367
  0
LINE
  8
Layer1
  6
CONTINUOUS
 62
7
 10
569.016
 20
439.748
 11
568.157
 21
438.164
  0
LINE
  8
Layer1
  6
CONTINUOUS
 62
7
 10
576.861
 20
439.748
 11
577.748
 21
437.933
  0
LINE
  8
Layer1
  6
CONTINUOUS
 62
7
 10
576.679
 20
437.478
 11
577.164
 21
437.334
  0
POLYLINE
  8
Layer1
  6
CONTINUOUS
 62
7
 66
1
 10
0
 20
0
 30
0
  0
VERTEX
  8
Layer1
 10
568.157
 20
438.164
  0
VERTEX
  8
Layer1
 10
568.141
 20
438.137
  0
VERTEX
  8
Layer1
 10
568.129
 20
438.108
  0
VERTEX
  8
Layer1
 10
568.116
 20
438.079
  0
VERTEX
  8
Layer1
 10
568.106
 20
438.049
  0
VERTEX
  8
Layer1
 10
568.096
 20
438.019
  0
VERTEX
  8
Layer1
 10
568.09
 20
437.988
  0
VERTEX
  8
Layer1
 10
568.085
 20
437.957
  0
VERTEX
  8
Layer1
 10
568.081
 20
437.925
  0
VERTEX
  8
Layer1
 10
568.079
 20
437.894
  0
VERTEX
  8
Layer1
 10
568.079
 20
437.862
  0
VERTEX
  8
Layer1
 10
568.08
 20
437.83
  0
VERTEX
  8
Layer1
 10
568.083
 20
437.799
  0
VERTEX
  8
Layer1
 10
568.087
 20
437.768
  0
VERTEX
  8
Layer1
 10
568.095
 20
437.737
  0
VERTEX
  8
Layer1
 10
568.102
 20
437.706
  0
VERTEX
  8
Layer1
 10
568.112
 20
437.676
  0
VERTEX
  8
Layer1
 10
568.125
 20
437.647
  0
VERTEX
  8
Layer1
 10
568.138
 20
437.618
  0
VERTEX
  8
Layer1
 10
568.151
 20
437.59
  0
VERTEX
  8
Layer1
 10
568.168
 20
437.563
  0
VERTEX
  8
Layer1
 10
568.186
 20
437.536
  0
VERTEX
  8
Layer1
 10
568.205
 20
437.511
  0
VERTEX
  8
Layer1
 10
568.226
 20
437.487
  0
VERTEX
  8
Layer1
 10
568.246
 20
437.464
  0
VERTEX
  8
Layer1
 10
568.269
 20
437.442
  0
VERTEX
  8
Layer1
 10
568.293
 20
437.421
  0
VERTEX
  8
Layer1
 10
568.318
 20
437.402
  0
VERTEX
  8
Layer1
 10
568.345
 20
437.384
  0
VERTEX
  8
Layer1
 10
568.371
 20
437.368
  0
VERTEX
  8
Layer1
 10
568.399
 20
437.353
  0
VERTEX
  8
Layer1
 10
568.428
 20
437.339
  0
VERTEX
  8
Layer1
 10
568.457
 20
437.328
  0
VERTEX
  8
Layer1
 10
568.487
 20
437.318
  0
VERTEX
  8
Layer1
 10
568.519
 20
437.309
  0
VERTEX
  8
Layer1
 10
568.549
 20
437.302
  0
VERTEX
  8
Layer1
 10
568.581
 20
437.297
  0
VERTEX
  8
Layer1
 10
568.611
 20
437.294
  0
VERTEX
  8
Layer1
 10
568.644
 20
437.292
  0
VERTEX
  8
Layer1
 10
568.674
 20
437.292
  0
VERTEX
  8
Layer1
 10
568.707
 20
437.294
  0
VERTEX
  8
Layer1
 10
568.737
 20
437.297
  0
VERTEX
  8
Layer1
 10
568.769
 20
437.302
  0
VERTEX
  8
Layer1
 10
568.801
 20
437.309
  0
VERTEX
  8
Layer1
 10
568.831
 20
437.317
  0
VERTEX
  8
Layer1
 10
568.861
 20
437.328
  0
VERTEX
  8
Layer1
 10
568.89
 20
437.339
  0
VERTEX
  8
Layer1
 10
568.918
 20
437.353
  0
VERTEX
  8
Layer1
 10
568.947
 20
437.367
  0
SEQEND
  0
POLYLINE
  8
Layer1
  6
CONTINUOUS
 62
7
 66
1
 10
0
 20
0
 30
0
  0
VERTEX
  8
Layer1
 10
577.164
 20
437.334
  0
VERTEX
  8
Layer1
 10
577.185
 20
437.328
  0
VERTEX
  8
Layer1
 10
577.206
 20
437.324
  0
VERTEX
  8
Layer1
 10
577.226
 20
437.32
  0
VERTEX
  8
Layer1
 10
577.247
 20
437.317
  0
VERTEX
  8
Layer1
 10
577.269
 20
437.315
  0
VERTEX
  8
Layer1
 10
577.291
 20
437.314
  0
VERTEX
  8
Layer1
 10
577.312
 20
437.315
  0
VERTEX
  8
Layer1
 10
577.332
 20
437.316
  0
VERTEX
  8
Layer1
 10
577.355
 20
437.318
  0
VERTEX
  8
Layer1
 10
577.375
 20
437.321
  0
VERTEX
  8
Layer1
 10
577.397
 20
437.325
  0
VERTEX
  8
Layer1
 10
577.418
 20
437.33
  0
VERTEX
  8
Layer1
 10
577.438
 20
437.335
  0
VERTEX
  8
Layer1
 10
577.458
 20
437.342
  0
VERTEX
  8
Layer1
 10
577.478
 20
437.35
  0
VERTEX
  8
Layer1
 10
577.497
 20
437.358
  0
VERTEX
  8
Layer1
 10
577.516
 20
437.368
  0
VERTEX
  8
Layer1
 10
577.535
 20
437.378
  0
VERTEX
  8
Layer1
 10
577.553
 20
437.389
  0
VERTEX
  8
Layer1
 10
577.572
 20
437.401
  0
VERTEX
  8
Layer1
 10
577.589
 20
437.414
  0
VERTEX
  8
Layer1
 10
577.606
 20
437.428
  0
VERTEX
  8
Layer1
 10
577.621
 20
437.442
  0
VERTEX
  8
Layer1
 10
577.637
 20
437.457
  0
VERTEX
  8
Layer1
 10
577.651
 20
437.472
  0
VERTEX
  8
Layer1
 10
577.666
 20
437.489
  0
VERTEX
  8
Layer1
 10
577.678
 20
437.506
  0
VERTEX
  8
Layer1
 10
577.69
 20
437.523
  0
VERTEX
  8
Layer1
 10
577.702
 20
437.541
  0
VERTEX
  8
Layer1
 10
577.713
 20
437.56
  0
VERTEX
  8
Layer1
 10
577.723
 20
437.579
  0
VERTEX
  8
Layer1
 10
577.731
 20
437.598
  0
VERTEX
  8
Layer1
 10
577.74
 20
437.618
  0
VERTEX
  8
Layer1
 10
577.747
 20
437.638
  0
VERTEX
  8
Layer1
 10
577.754
 20
437.658
  0
VERTEX
  8
Layer1
 10
577.759
 20
437.679
  0
VERTEX
  8
Layer1
 10
577.764
 20
437.7
  0
VERTEX
  8
Layer1
 10
577.766
 20
437.721
  0
VERTEX
  8
Layer1
 10
577.769
 20
437.742
  0
VERTEX
  8
Layer1
 10
577.771
 20
437.764
  0
VERTEX
  8
Layer1
 10
577.772
 20
437.785
  0
VERTEX
  8
Layer1
 10
577.772
 20
437.807
  0
VERTEX
  8
Layer1
 10
577.769
 20
437.828
  0
VERTEX
  8
Layer1
 10
577.767
 20
437.849
  0
VERTEX
  8
Layer1
 10
577.765
 20
437.87
  0
VERTEX
  8
Layer1
 10
577.76
 20
437.891
  0
VERTEX
  8
Layer1
 10
577.755
 20
437.912
  0
VERTEX
  8
Layer1
 10
577.748
 20
437.933
  0
SEQEND
  0
LINE
  8
Layer1
  6
CONTINUOUS
 62
7
 10
575.885
 20
437.668
 11
575.885
 21
435.765
  0
LINE
  8
Layer1
  6
CONTINUOUS
 62
7
 10
569.741
 20
437.712
 11
569.741
 21
435.765
  0
LINE
  8
Layer1
  6
CONTINUOUS
 62
7
 10
568.593
 20
435.765
 11
567.87
 21
435.041
  0
LINE
  8
Layer1
  6
CONTINUOUS
 62
7
 10
577.043
 20
435.765
 11
577.766
 21
435.041
  0
LINE
  8
Layer1
  6
CENTER1
 62
7
 10
539.881
 20
417.703
 11
539.881
 21
441.407
  0
LINE
  8
Layer1
  6
CONTINUOUS
 62
7
 10
532.881
 20
419.997
 11
531.881
 21
418.997
  0
LINE
  8
Layer1
  6
DASHED1
 62
7
 10
612.881
 20
419.997
 11
613.881
 21
418.997
  0
LINE
  8
Layer1
  6
CENTER1
 62
7
 10
540.381
 20
500.471
 11
540.381
 21
470.01
  0
LINE
  8
Layer1
  6
CENTER1
 62
7
 10
605.381
 20
501.027
 11
605.381
 21
469.213
  0
LINE
  8
Layer1
  6
CENTER1
 62
7
 10
605.881
 20
416.595
 11
605.881
 21
438.112
  0
POLYLINE
  8
Layer1
  6
CONTINUOUS
 62
7
 66
1
 10
0
 20
0
 30
0
 70
1
  0
VERTEX
  8
Layer1
 10
555.381
 20
415.357
  0
VERTEX
  8
Layer1
 10
552.904
 20
413.927
  0
VERTEX
  8
Layer1
 10
552.904
 20
411.067
  0
VERTEX
  8
Layer1
 10
555.381
 20
409.637
  0
VERTEX
  8
Layer1
 10
557.859
 20
411.067
  0
VERTEX
  8
Layer1
 10
557.859
 20
413.927
  0
SEQEND
  0
CIRCLE
  8
Layer1
  6
CONTINUOUS
 62
7
 10
555.381
 20
412.497
 40
2.86
  0
CIRCLE
  8
Layer1
  6
CONTINUOUS
 62
7
 10
555.381
 20
377.497
 40
4
  0
POLYLINE
  8
Layer1
  6
CONTINUOUS
 62
7
 66
1
 10
0
 20
0
 30
0
 70
1
  0
VERTEX
  8
Layer1
 10
555.381
 20
380.357
  0
VERTEX
  8
Layer1
 10
552.904
 20
378.927
  0
VERTEX
  8
Layer1
 10
552.904
 20
376.067
  0
VERTEX
  8
Layer1
 10
555.381
 20
374.637
  0
VERTEX
  8
Layer1
 10
557.859
 20
376.067
  0
VERTEX
  8
Layer1
 10
557.859
 20
378.927
  0
SEQEND
  0
CIRCLE
  8
Layer1
  6
CONTINUOUS
 62
7
 10
555.381
 20
377.497
 40
2.86
  0
POLYLINE
  8
Layer1
  6
CONTINUOUS
 62
7
 66
1
 10
0
 20
0
 30
0
 70
1
  0
VERTEX
  8
Layer1
 10
590.381
 20
380.929
  0
VERTEX
  8
Layer1
 10
587.409
 20
379.213
  0
VERTEX
  8
Layer1
 10
587.409
 20
375.781
  0
VERTEX
  8
Layer1
 10
590.381
 20
374.065
  0
VERTEX
  8
Layer1
 10
593.353
 20
375.781
  0
VERTEX
  8
Layer1
 10
593.353
 20
379.213
  0
SEQEND
  0
POLYLINE
  8
Layer1
  6
CONTINUOUS
 62
7
 66
1
 10
0
 20
0
 30
0
 70
1
  0
VERTEX
  8
Layer1
 10
593.813
 20
377.497
  0
VERTEX
  8
Layer1
 10
593.784
 20
377.945
  0
VERTEX
  8
Layer1
 10
593.697
 20
378.386
  0
VERTEX
  8
Layer1
 10
593.553
 20
378.811
  0
VERTEX
  8
Layer1
 10
593.353
 20
379.213
  0
VERTEX
  8
Layer1
 10
593.105
 20
379.587
  0
VERTEX
  8
Layer1
 10
592.808
 20
379.924
  0
VERTEX
  8
Layer1
 10
592.471
 20
380.22
  0
VERTEX
  8
Layer1
 10
592.098
 20
380.47
  0
VERTEX
  8
Layer1
 10
591.695
 20
380.668
  0
VERTEX
  8
Layer1
 10
591.269
 20
380.812
  0
VERTEX
  8
Layer1
 10
590.83
 20
380.9
  0
VERTEX
  8
Layer1
 10
590.381
 20
380.929
  0
VERTEX
  8
Layer1
 10
589.933
 20
380.9
  0
VERTEX
  8
Layer1
 10
589.494
 20
380.812
  0
VERTEX
  8
Layer1
 10
589.069
 20
380.668
  0
VERTEX
  8
Layer1
 10
588.666
 20
380.47
  0
VERTEX
  8
Layer1
 10
588.293
 20
380.22
  0
VERTEX
  8
Layer1
 10
587.955
 20
379.924
  0
VERTEX
  8
Layer1
 10
587.659
 20
379.587
  0
VERTEX
  8
Layer1
 10
587.409
 20
379.213
  0
VERTEX
  8
Layer1
 10
587.211
 20
378.811
  0
VERTEX
  8
Layer1
 10
587.067
 20
378.386
  0
VERTEX
  8
Layer1
 10
586.978
 20
377.945
  0
VERTEX
  8
Layer1
 10
586.949
 20
377.497
  0
VERTEX
  8
Layer1
 10
586.978
 20
377.049
  0
VERTEX
  8
Layer1
 10
587.067
 20
376.609
  0
VERTEX
  8
Layer1
 10
587.211
 20
376.184
  0
VERTEX
  8
Layer1
 10
587.409
 20
375.781
  0
VERTEX
  8
Layer1
 10
587.659
 20
375.408
  0
VERTEX
  8
Layer1
 10
587.955
 20
375.071
  0
VERTEX
  8
Layer1
 10
588.293
 20
374.775
  0
VERTEX
  8
Layer1
 10
588.666
 20
374.525
  0
VERTEX
  8
Layer1
 10
589.069
 20
374.327
  0
VERTEX
  8
Layer1
 10
589.494
 20
374.182
  0
VERTEX
  8
Layer1
 10
589.933
 20
374.095
  0
VERTEX
  8
Layer1
 10
590.381
 20
374.065
  0
VERTEX
  8
Layer1
 10
590.83
 20
374.095
  0
VERTEX
  8
Layer1
 10
591.269
 20
374.182
  0
VERTEX
  8
Layer1
 10
591.695
 20
374.327
  0
VERTEX
  8
Layer1
 10
592.098
 20
374.525
  0
VERTEX
  8
Layer1
 10
592.471
 20
374.775
  0
VERTEX
  8
Layer1
 10
592.808
 20
375.071
  0
VERTEX
  8
Layer1
 10
593.105
 20
375.408
  0
VERTEX
  8
Layer1
 10
593.353
 20
375.781
  0
VERTEX
  8
Layer1
 10
593.553
 20
376.184
  0
VERTEX
  8
Layer1
 10
593.697
 20
376.609
  0
VERTEX
  8
Layer1
 10
593.784
 20
377.049
  0
SEQEND
  0
LINE
  8
Layer1
  6
DASHED1
 62
7
 10
549.782
 20
404.997
 11
595.981
 21
404.997
  0
LINE
  8
Layer1
  6
CENTER1
 62
7
 10
555.381
 20
417.907
 11
555.381
 21
406.288
  0
LINE
  8
Layer1
  6
CENTER1
 62
7
 10
555.381
 20
371.984
 11
555.381
 21
383.567
  0
LINE
  8
Layer1
  6
CENTER1
 62
7
 10
590.381
 20
371.349
 11
590.381
 21
383.76
  0
LINE
  8
Layer1
  6
CENTER1
 62
7
 10
590.381
 20
416.255
 11
590.381
 21
404.429
  0
LINE
  8
Layer1
  6
CENTER1
 62
7
 10
563.542
 20
412.497
 11
547.221
 21
412.497
  0
LINE
  8
Layer1
  6
CENTER1
 62
7
 10
582.579
 20
412.497
 11
598.212
 21
412.497
  0
LINE
  8
Layer1
  6
CENTER1
 62
7
 10
582.548
 20
377.497
 11
598.08
 21
377.497
  0
LINE
  8
Layer1
  6
CENTER1
 62
7
 10
561.726
 20
377.497
 11
544.991
 21
377.497
  0
LINE
  8
Layer1
  6
CONTINUOUS
 62
7
 10
597.881
 20
370.997
 11
597.881
 21
418.997
  0
LINE
  8
Layer1
  6
CONTINUOUS
 62
7
 10
547.881
 20
370.997
 11
547.881
 21
418.997
  0
LINE
  8
Layer1
  6
CONTINUOUS
 62
7
 10
548.881
 20
419.997
 11
547.881
 21
418.997
  0
LINE
  8
Layer1
  6
CONTINUOUS
 62
7
 10
596.881
 20
419.997
 11
597.881
 21
418.997
  0
LINE
  8
Layer1
  6
CONTINUOUS
 62
7
 10
597.881
 20
370.997
 11
596.881
 21
369.997
  0
LINE
  8
Layer1
  6
CONTINUOUS
 62
7
 10
548.881
 20
369.997
 11
547.881
 21
370.997
  0
LINE
  8
Layer1
  6
CENTER1
 62
7
 10
555.381
 20
397.914
 11
555.381
 21
392.162
  0
LINE
  8
Layer1
  6
CENTER1
 62
7
 10
553.111
 20
394.997
 11
558.302
 21
394.997
  0
CIRCLE
  8
Layer1
  6
CONTINUOUS
 62
7
 10
555.381
 20
394.997
 40
1.25
  0
LINE
  8
Layer1
  6
CENTER1
 62
7
 10
590.381
 20
397.914
 11
590.381
 21
392.162
  0
LINE
  8
Layer1
  6
CENTER1
 62
7
 10
588.111
 20
394.997
 11
593.302
 21
394.997
  0
CIRCLE
  8
Layer1
  6
CONTINUOUS
 62
7
 10
590.381
 20
394.997
 40
1.25
  0
LINE
  8
Layer1
  6
CONTINUOUS
 62
7
 10
613.381
 20
419.497
 11
611.881
 21
419.997
  0
TEXT
  8
Layer1
 62
7
 10
631.125
 20
394.997
 72
1
 11
631.125
 21
394.997
 40
6
 41
1
 50
90
  1
 35 
  0
LINE
  8
Layer1
  6
CONTINUOUS
 62
7
 10
594.486
 20
412.497
 11
633.125
 21
412.497
  0
LINE
  8
Layer1
  6
CONTINUOUS
 62
7
 10
597.881
 20
377.497
 11
633.125
 21
377.497
  0
POLYLINE
  8
Layer1
  6
CONTINUOUS
 62
7
 66
1
 10
0
 20
0
 30
0
  0
VERTEX
  8
Layer1
 10
631.125
 20
412.497
  0
VERTEX
  8
Layer1
 10
631.125
 20
377.497
  0
SEQEND
  0
POLYLINE
  8
Layer1
  6
CONTINUOUS
 62
7
 66
1
 10
0
 20
0
 30
0
 70
1
  0
VERTEX
  8
Layer1
 10
629.572
 20
406.702
  0
VERTEX
  8
Layer1
 10
631.125
 20
412.497
  0
VERTEX
  8
Layer1
 10
632.678
 20
406.702
  0
SEQEND
  0
POLYLINE
  8
Layer1
  6
CONTINUOUS
 62
7
 66
1
 10
0
 20
0
 30
0
 70
1
  0
VERTEX
  8
Layer1
 10
632.678
 20
383.293
  0
VERTEX
  8
Layer1
 10
631.125
 20
377.497
  0
VERTEX
  8
Layer1
 10
629.572
 20
383.293
  0
SEQEND
  0
TEXT
  8
Layer1
 62
7
 10
642.543
 20
394.997
 72
1
 11
642.543
 21
394.997
 40
6
 41
1
 50
90
  1
 50 
  0
LINE
  8
Layer1
  6
CONTINUOUS
 62
7
 10
604.881
 20
419.997
 11
644.543
 21
419.997
  0
LINE
  8
Layer1
  6
CONTINUOUS
 62
7
 10
596.881
 20
369.997
 11
644.543
 21
369.997
  0
POLYLINE
  8
Layer1
  6
CONTINUOUS
 62
7
 66
1
 10
0
 20
0
 30
0
  0
VERTEX
  8
Layer1
 10
642.543
 20
419.997
  0
VERTEX
  8
Layer1
 10
642.543
 20
369.997
  0
SEQEND
  0
POLYLINE
  8
Layer1
  6
CONTINUOUS
 62
7
 66
1
 10
0
 20
0
 30
0
 70
1
  0
VERTEX
  8
Layer1
 10
640.99
 20
414.202
  0
VERTEX
  8
Layer1
 10
642.543
 20
419.997
  0
VERTEX
  8
Layer1
 10
644.096
 20
414.202
  0
SEQEND
  0
POLYLINE
  8
Layer1
  6
CONTINUOUS
 62
7
 66
1
 10
0
 20
0
 30
0
 70
1
  0
VERTEX
  8
Layer1
 10
644.096
 20
375.793
  0
VERTEX
  8
Layer1
 10
642.543
 20
369.997
  0
VERTEX
  8
Layer1
 10
640.99
 20
375.793
  0
SEQEND
  0
TEXT
  8
Layer1
 62
7
 10
657.593
 20
372.497
 72
1
 11
657.593
 21
372.497
 40
6
 41
1
 50
90
  1
 45 
  0
LINE
  8
Layer1
  6
CONTINUOUS
 62
7
 10
622.411
 20
394.997
 11
659.593
 21
394.997
  0
LINE
  8
Layer1
  6
CONTINUOUS
 62
7
 10
631.881
 20
349.997
 11
659.593
 21
349.997
  0
POLYLINE
  8
Layer1
  6
CONTINUOUS
 62
7
 66
1
 10
0
 20
0
 30
0
  0
VERTEX
  8
Layer1
 10
657.593
 20
394.997
  0
VERTEX
  8
Layer1
 10
657.593
 20
349.997
  0
SEQEND
  0
POLYLINE
  8
Layer1
  6
CONTINUOUS
 62
7
 66
1
 10
0
 20
0
 30
0
 70
1
  0
VERTEX
  8
Layer1
 10
656.041
 20
389.202
  0
VERTEX
  8
Layer1
 10
657.593
 20
394.997
  0
VERTEX
  8
Layer1
 10
659.146
 20
389.202
  0
SEQEND
  0
POLYLINE
  8
Layer1
  6
CONTINUOUS
 62
7
 66
1
 10
0
 20
0
 30
0
 70
1
  0
VERTEX
  8
Layer1
 10
659.146
 20
355.793
  0
VERTEX
  8
Layer1
 10
657.593
 20
349.997
  0
VERTEX
  8
Layer1
 10
656.041
 20
355.793
  0
SEQEND
  0
TEXT
  8
Layer1
 62
7
 10
672.385
 20
391.497
 72
1
 11
672.385
 21
391.497
 40
6
 41
1
 50
90
  1
 83 
  0
LINE
  8
Layer1
  6
CONTINUOUS
 62
7
 10
611.381
 20
432.997
 11
674.385
 21
432.997
  0
LINE
  8
Layer1
  6
CONTINUOUS
 62
7
 10
631.881
 20
349.997
 11
674.385
 21
349.997
  0
POLYLINE
  8
Layer1
  6
CONTINUOUS
 62
7
 66
1
 10
0
 20
0
 30
0
  0
VERTEX
  8
Layer1
 10
672.385
 20
432.997
  0
VERTEX
  8
Layer1
 10
672.385
 20
349.997
  0
SEQEND
  0
POLYLINE
  8
Layer1
  6
CONTINUOUS
 62
7
 66
1
 10
0
 20
0
 30
0
 70
1
  0
VERTEX
  8
Layer1
 10
670.832
 20
427.202
  0
VERTEX
  8
Layer1
 10
672.385
 20
432.997
  0
VERTEX
  8
Layer1
 10
673.938
 20
427.202
  0
SEQEND
  0
POLYLINE
  8
Layer1
  6
CONTINUOUS
 62
7
 66
1
 10
0
 20
0
 30
0
 70
1
  0
VERTEX
  8
Layer1
 10
673.938
 20
355.793
  0
VERTEX
  8
Layer1
 10
672.385
 20
349.997
  0
VERTEX
  8
Layer1
 10
670.832
 20
355.793
  0
SEQEND
  0
TEXT
  8
Layer1
 62
7
 10
572.881
 20
338.023
 72
1
 11
572.881
 21
338.023
 40
6
 41
1
  1
 35 
  0
LINE
  8
Layer1
  6
CONTINUOUS
 62
7
 10
555.381
 20
371.584
 11
555.381
 21
336.023
  0
LINE
  8
Layer1
  6
CONTINUOUS
 62
7
 10
590.381
 20
371.349
 11
590.381
 21
336.023
  0
POLYLINE
  8
Layer1
  6
CONTINUOUS
 62
7
 66
1
 10
0
 20
0
 30
0
  0
VERTEX
  8
Layer1
 10
555.381
 20
338.023
  0
VERTEX
  8
Layer1
 10
590.381
 20
338.023
  0
SEQEND
  0
POLYLINE
  8
Layer1
  6
CONTINUOUS
 62
7
 66
1
 10
0
 20
0
 30
0
 70
1
  0
VERTEX
  8
Layer1
 10
561.178
 20
336.47
  0
VERTEX
  8
Layer1
 10
555.381
 20
338.023
  0
VERTEX
  8
Layer1
 10
561.178
 20
339.576
  0
SEQEND
  0
POLYLINE
  8
Layer1
  6
CONTINUOUS
 62
7
 66
1
 10
0
 20
0
 30
0
 70
1
  0
VERTEX
  8
Layer1
 10
584.586
 20
339.576
  0
VERTEX
  8
Layer1
 10
590.381
 20
338.023
  0
VERTEX
  8
Layer1
 10
584.586
 20
336.47
  0
SEQEND
  0
TEXT
  8
Layer1
 62
7
 10
572.881
 20
325.567
 72
1
 11
572.881
 21
325.567
 40
6
 41
1
  1
 50 
  0
LINE
  8
Layer1
  6
CONTINUOUS
 62
7
 10
597.881
 20
370.997
 11
597.881
 21
323.567
  0
LINE
  8
Layer1
  6
CONTINUOUS
 62
7
 10
547.881
 20
370.997
 11
547.881
 21
323.567
  0
POLYLINE
  8
Layer1
  6
CONTINUOUS
 62
7
 66
1
 10
0
 20
0
 30
0
  0
VERTEX
  8
Layer1
 10
597.881
 20
325.567
  0
VERTEX
  8
Layer1
 10
547.881
 20
325.567
  0
SEQEND
  0
POLYLINE
  8
Layer1
  6
CONTINUOUS
 62
7
 66
1
 10
0
 20
0
 30
0
 70
1
  0
VERTEX
  8
Layer1
 10
592.086
 20
327.12
  0
VERTEX
  8
Layer1
 10
597.881
 20
325.567
  0
VERTEX
  8
Layer1
 10
592.086
 20
324.014
  0
SEQEND
  0
POLYLINE
  8
Layer1
  6
CONTINUOUS
 62
7
 66
1
 10
0
 20
0
 30
0
 70
1
  0
VERTEX
  8
Layer1
 10
553.678
 20
324.014
  0
VERTEX
  8
Layer1
 10
547.881
 20
325.567
  0
VERTEX
  8
Layer1
 10
553.678
 20
327.12
  0
SEQEND
  0
TEXT
  8
Layer1
 62
7
 10
664.153
 20
371.869
 72
1
 11
664.153
 21
371.869
 40
6
 41
1
 50
90
  1
中心間距離
  0
TEXT
  8
Layer1
 62
7
 10
505.308
 20
381.296
 40
6
 41
1
  1
2-φ2.5
  0
LINE
  8
Layer1
  6
CONTINUOUS
 62
7
 10
526.544
 20
380.09
 11
511.544
 21
380.09
  0
POLYLINE
  8
Layer1
  6
CONTINUOUS
 62
7
 66
1
 10
0
 20
0
 30
0
  0
VERTEX
  8
Layer1
 10
554.497
 20
394.113
  0
VERTEX
  8
Layer1
 10
526.544
 20
380.09
  0
VERTEX
  8
Layer1
 10
526.544
 20
380.09
  0
SEQEND
  0
POLYLINE
  8
Layer1
  6
CONTINUOUS
 62
7
 66
1
 10
0
 20
0
 30
0
 70
1
  0
VERTEX
  8
Layer1
 10
550.58
 20
393.306
  0
VERTEX
  8
Layer1
 10
554.497
 20
394.113
  0
VERTEX
  8
Layer1
 10
551.509
 20
391.456
  0
SEQEND
  0
LINE
  8
Layer1
  6
CONTINUOUS
 62
7
 10
810.611
 20
430.481
 11
805.927
 21
425.797
  0
LINE
  8
Layer1
  6
CONTINUOUS
 62
7
 10
774.13
 20
349.997
 11
898.13
 21
349.997
  0
LINE
  8
Layer1
  6
DASHED1
 62
7
 10
773.111
 20
362.997
 11
798.111
 21
362.997
  0
LINE
  8
Layer1
  6
DASHED1
 62
7
 10
773.111
 20
354.997
 11
798.111
 21
354.997
  0
LINE
  8
Layer1
  6
CONTINUOUS
 62
7
 10
769.63
 20
369.997
 11
773.13
 21
369.997
  0
LINE
  8
Layer1
  6
CONTINUOUS
 62
7
 10
816.111
 20
432.997
 11
816.111
 21
425.797
  0
LINE
  8
Layer1
  6
CONTINUOUS
 62
7
 10
811.111
 20
432.997
 11
811.111
 21
425.797
  0
LINE
  8
Layer1
  6
CONTINUOUS
 62
7
 10
810.569
 20
431.403
 11
810.569
 21
425.797
  0
LINE
  8
Layer1
  6
CONTINUOUS
 62
7
 10
816.611
 20
431.997
 11
816.611
 21
425.797
  0
LINE
  8
Layer1
  6
CENTER2
 62
7
 10
729.718
 20
394.997
 11
907.32
 21
394.997
  0
LINE
  8
Layer1
  6
DASHED1
 62
7
 10
789.111
 20
415.497
 11
789.111
 21
409.497
  0
LINE
  8
Layer1
  6
DASHED1
 62
7
 10
785.568
 20
414.997
 11
792.668
 21
414.997
  0
LINE
  8
Layer1
  6
DASHED1
 62
7
 10
785.568
 20
409.997
 11
792.668
 21
409.997
  0
LINE
  8
Layer1
  6
DASHED1
 62
7
 10
792.668
 20
414.997
 11
792.668
 21
409.997
  0
LINE
  8
Layer1
  6
DASHED1
 62
7
 10
792.668
 20
409.997
 11
792.668
 21
410.318
  0
LINE
  8
Layer1
  6
DASHED1
 62
7
 10
789.111
 20
409.497
 11
789.111
 21
410.622
  0
LINE
  8
Layer1
  6
CENTER1
 62
7
 10
828.611
 20
416.938
 11
828.611
 21
440.462
  0
POLYLINE
  8
Layer1
  6
CONTINUOUS
 62
7
 66
1
 10
0
 20
0
 30
0
  0
VERTEX
  8
Layer1
 10
794.899
 20
419.671
  0
VERTEX
  8
Layer1
 10
795.15
 20
418.837
  0
VERTEX
  8
Layer1
 10
795.406
 20
418.006
  0
VERTEX
  8
Layer1
 10
795.668
 20
417.181
  0
VERTEX
  8
Layer1
 10
795.94
 20
416.364
  0
VERTEX
  8
Layer1
 10
796.226
 20
415.56
  0
VERTEX
  8
Layer1
 10
796.531
 20
414.77
  0
VERTEX
  8
Layer1
 10
796.856
 20
413.997
  0
VERTEX
  8
Layer1
 10
797.205
 20
413.245
  0
VERTEX
  8
Layer1
 10
797.581
 20
412.517
  0
VERTEX
  8
Layer1
 10
797.988
 20
411.815
  0
VERTEX
  8
Layer1
 10
798.432
 20
411.142
  0
VERTEX
  8
Layer1
 10
798.913
 20
410.501
  0
VERTEX
  8
Layer1
 10
799.436
 20
409.896
  0
VERTEX
  8
Layer1
 10
800.004
 20
409.328
  0
VERTEX
  8
Layer1
 10
800.62
 20
408.802
  0
VERTEX
  8
Layer1
 10
801.288
 20
408.318
  0
VERTEX
  8
Layer1
 10
801.998
 20
407.872
  0
VERTEX
  8
Layer1
 10
802.734
 20
407.449
  0
VERTEX
  8
Layer1
 10
803.477
 20
407.036
  0
VERTEX
  8
Layer1
 10
804.213
 20
406.621
  0
VERTEX
  8
Layer1
 10
804.921
 20
406.191
  0
VERTEX
  8
Layer1
 10
805.588
 20
405.731
  0
VERTEX
  8
Layer1
 10
806.193
 20
405.23
  0
VERTEX
  8
Layer1
 10
806.721
 20
404.673
  0
VERTEX
  8
Layer1
 10
807.157
 20
404.051
  0
VERTEX
  8
Layer1
 10
807.509
 20
403.367
  0
VERTEX
  8
Layer1
 10
807.789
 20
402.631
  0
VERTEX
  8
Layer1
 10
808.013
 20
401.853
  0
VERTEX
  8
Layer1
 10
808.194
 20
401.042
  0
VERTEX
  8
Layer1
 10
808.346
 20
400.208
  0
VERTEX
  8
Layer1
 10
808.486
 20
399.361
  0
VERTEX
  8
Layer1
 10
808.623
 20
398.51
  0
VERTEX
  8
Layer1
 10
808.775
 20
397.664
  0
VERTEX
  8
Layer1
 10
808.957
 20
396.835
  0
VERTEX
  8
Layer1
 10
809.178
 20
396.029
  0
VERTEX
  8
Layer1
 10
809.442
 20
395.248
  0
VERTEX
  8
Layer1
 10
809.746
 20
394.492
  0
VERTEX
  8
Layer1
 10
810.09
 20
393.759
  0
VERTEX
  8
Layer1
 10
810.468
 20
393.048
  0
VERTEX
  8
Layer1
 10
810.881
 20
392.357
  0
VERTEX
  8
Layer1
 10
811.327
 20
391.686
  0
VERTEX
  8
Layer1
 10
811.803
 20
391.033
  0
VERTEX
  8
Layer1
 10
812.307
 20
390.396
  0
VERTEX
  8
Layer1
 10
812.836
 20
389.775
  0
VERTEX
  8
Layer1
 10
813.389
 20
389.168
  0
VERTEX
  8
Layer1
 10
813.964
 20
388.574
  0
VERTEX
  8
Layer1
 10
814.558
 20
387.993
  0
VERTEX
  8
Layer1
 10
815.169
 20
387.421
  0
VERTEX
  8
Layer1
 10
815.796
 20
386.859
  0
VERTEX
  8
Layer1
 10
816.437
 20
386.305
  0
VERTEX
  8
Layer1
 10
817.089
 20
385.758
  0
VERTEX
  8
Layer1
 10
817.748
 20
385.217
  0
VERTEX
  8
Layer1
 10
818.417
 20
384.68
  0
VERTEX
  8
Layer1
 10
819.089
 20
384.145
  0
VERTEX
  8
Layer1
 10
819.765
 20
383.613
  0
VERTEX
  8
Layer1
 10
820.44
 20
383.082
  0
VERTEX
  8
Layer1
 10
821.115
 20
382.549
  0
VERTEX
  8
Layer1
 10
821.785
 20
382.015
  0
VERTEX
  8
Layer1
 10
822.451
 20
381.478
  0
VERTEX
  8
Layer1
 10
823.106
 20
380.934
  0
VERTEX
  8
Layer1
 10
823.746
 20
380.383
  0
VERTEX
  8
Layer1
 10
824.37
 20
379.821
  0
VERTEX
  8
Layer1
 10
824.968
 20
379.246
  0
VERTEX
  8
Layer1
 10
825.542
 20
378.655
  0
VERTEX
  8
Layer1
 10
826.083
 20
378.046
  0
VERTEX
  8
Layer1
 10
826.591
 20
377.416
  0
VERTEX
  8
Layer1
 10
827.058
 20
376.763
  0
VERTEX
  8
Layer1
 10
827.481
 20
376.084
  0
VERTEX
  8
Layer1
 10
827.856
 20
375.377
  0
VERTEX
  8
Layer1
 10
828.179
 20
374.64
  0
VERTEX
  8
Layer1
 10
828.455
 20
373.874
  0
VERTEX
  8
Layer1
 10
828.684
 20
373.083
  0
VERTEX
  8
Layer1
 10
828.875
 20
372.27
  0
VERTEX
  8
Layer1
 10
829.029
 20
371.437
  0
VERTEX
  8
Layer1
 10
829.153
 20
370.587
  0
VERTEX
  8
Layer1
 10
829.25
 20
369.725
  0
VERTEX
  8
Layer1
 10
829.325
 20
368.852
  0
VERTEX
  8
Layer1
 10
829.384
 20
367.972
  0
VERTEX
  8
Layer1
 10
829.428
 20
367.089
  0
VERTEX
  8
Layer1
 10
829.467
 20
366.204
  0
VERTEX
  8
Layer1
 10
829.5
 20
365.322
  0
VERTEX
  8
Layer1
 10
829.535
 20
364.444
  0
VERTEX
  8
Layer1
 10
829.577
 20
363.576
  0
VERTEX
  8
Layer1
 10
829.628
 20
362.718
  0
VERTEX
  8
Layer1
 10
829.693
 20
361.875
  0
VERTEX
  8
Layer1
 10
829.779
 20
361.05
  0
VERTEX
  8
Layer1
 10
829.889
 20
360.245
  0
VERTEX
  8
Layer1
 10
830.028
 20
359.464
  0
VERTEX
  8
Layer1
 10
830.198
 20
358.71
  0
VERTEX
  8
Layer1
 10
830.408
 20
357.985
  0
VERTEX
  8
Layer1
 10
830.659
 20
357.294
  0
VERTEX
  8
Layer1
 10
830.957
 20
356.638
  0
VERTEX
  8
Layer1
 10
831.308
 20
356.022
  0
VERTEX
  8
Layer1
 10
831.712
 20
355.448
  0
VERTEX
  8
Layer1
 10
832.173
 20
354.915
  0
VERTEX
  8
Layer1
 10
832.688
 20
354.422
  0
VERTEX
  8
Layer1
 10
833.25
 20
353.966
  0
VERTEX
  8
Layer1
 10
833.861
 20
353.544
  0
VERTEX
  8
Layer1
 10
834.513
 20
353.155
  0
VERTEX
  8
Layer1
 10
835.206
 20
352.797
  0
VERTEX
  8
Layer1
 10
835.936
 20
352.466
  0
VERTEX
  8
Layer1
 10
836.7
 20
352.16
  0
VERTEX
  8
Layer1
 10
837.495
 20
351.878
  0
VERTEX
  8
Layer1
 10
838.317
 20
351.616
  0
VERTEX
  8
Layer1
 10
839.164
 20
351.373
  0
VERTEX
  8
Layer1
 10
840.034
 20
351.147
  0
VERTEX
  8
Layer1
 10
840.921
 20
350.934
  0
VERTEX
  8
Layer1
 10
841.823
 20
350.733
  0
VERTEX
  8
Layer1
 10
842.739
 20
350.541
  0
VERTEX
  8
Layer1
 10
843.664
 20
350.356
  0
VERTEX
  8
Layer1
 10
844.595
 20
350.175
  0
VERTEX
  8
Layer1
 10
845.529
 20
349.997
  0
SEQEND
  0
LINE
  8
Layer1
  6
CONTINUOUS
 62
7
 10
854.14
 20
494.997
 11
897.16
 21
494.997
  0
LINE
  8
Layer1
  6
CONTINUOUS
 62
7
 10
854.085
 20
478.997
 11
897.16
 21
478.997
  0
LINE
  8
Layer1
  6
CONTINUOUS
 62
7
 10
897.16
 20
494.997
 11
898.16
 21
493.997
  0
LINE
  8
Layer1
  6
CONTINUOUS
 62
7
 10
888.085
 20
497.649
 11
888.085
 21
491.386
  0
LINE
  8
Layer1
  6
CONTINUOUS
 62
7
 10
863.085
 20
497.433
 11
863.085
 21
491.494
  0
LINE
  8
Layer1
  6
CENTER2
 62
7
 10
875.623
 20
499.854
 11
875.623
 21
406.426
  0
LINE
  8
Layer1
  6
CONTINUOUS
 62
7
 10
897.16
 20
478.997
 11
898.16
 21
479.997
  0
LINE
  8
Layer1
  6
CENTER1
 62
7
 10
880.13
 20
347.183
 11
880.13
 21
392.607
  0
LINE
  8
Layer1
  6
DASHED1
 62
7
 10
792.668
 20
414.997
 11
794.111
 21
412.497
  0
LINE
  8
Layer1
  6
DASHED1
 62
7
 10
794.111
 20
412.497
 11
792.668
 21
409.997
  0
LINE
  8
Layer1
  6
DASHED1
 62
7
 10
786.568
 20
410.497
 11
786.568
 21
414.497
  0
LINE
  8
Layer1
  6
DASHED1
 62
7
 10
785.568
 20
415.497
 11
785.568
 21
409.497
  0
LINE
  8
Layer1
  6
DASHED1
 62
7
 10
785.568
 20
415.497
 11
786.568
 21
414.497
  0
LINE
  8
Layer1
  6
DASHED1
 62
7
 10
786.568
 20
410.497
 11
785.568
 21
409.497
  0
LINE
  8
Layer1
  6
DASHED1
 62
7
 10
789.111
 20
415.497
 11
785.568
 21
415.497
  0
LINE
  8
Layer1
  6
DASHED1
 62
7
 10
789.111
 20
409.497
 11
785.568
 21
409.497
  0
LINE
  8
Layer1
  6
DASHED1
 62
7
 10
789.111
 20
415.497
 11
789.976
 21
414.997
  0
LINE
  8
Layer1
  6
DASHED1
 62
7
 10
789.111
 20
409.497
 11
789.976
 21
409.997
  0
LINE
  8
Layer1
  6
DASHED1
 62
7
 10
789.976
 20
414.997
 11
789.976
 21
409.997
  0
LINE
  8
Layer1
  6
CENTER1
 62
7
 10
787.653
 20
352.268
 11
869.284
 21
352.268
  0
LINE
  8
Layer1
  6
CENTER1
 62
7
 10
869.702
 20
365.762
 11
786.481
 21
365.762
  0
LINE
  8
Layer1
  6
DASHED1
 62
7
 10
798.111
 20
354.997
 11
798.111
 21
362.997
  0
LINE
  8
Layer1
  6
CENTER1
 62
7
 10
794.532
 20
358.997
 11
765.202
 21
358.997
  0
LINE
  8
Layer1
  6
DASHED1
 62
7
 10
790.235
 20
350.009
 11
792.536
 21
350.009
  0
LINE
  8
Layer1
  6
DASHED1
 62
7
 10
791.003
 20
368.009
 11
788.701
 21
368.009
  0
LINE
  8
Layer1
  6
DASHED1
 62
7
 10
788.701
 20
363.515
 11
791.003
 21
363.515
  0
LINE
  8
Layer1
  6
DASHED1
 62
7
 10
790.235
 20
354.527
 11
792.536
 21
354.527
  0
LINE
  8
Layer1
  6
DASHED1
 62
7
 10
791.003
 20
368.009
 11
791.003
 21
363.515
  0
LINE
  8
Layer1
  6
DASHED1
 62
7
 10
788.701
 20
368.009
 11
788.701
 21
363.515
  0
LINE
  8
Layer1
  6
DASHED1
 62
7
 10
790.235
 20
354.527
 11
790.235
 21
350.009
  0
LINE
  8
Layer1
  6
DASHED1
 62
7
 10
792.536
 20
354.527
 11
792.536
 21
350.009
  0
LINE
  8
Layer1
  6
DASHED1
 62
7
 10
788.701
 20
363.515
 11
790.235
 21
354.527
  0
LINE
  8
Layer1
  6
DASHED1
 62
7
 10
791.003
 20
363.515
 11
792.536
 21
354.527
  0
LINE
  8
Layer1
  6
DASHED1
 62
7
 10
789.467
 20
359.021
 11
790.235
 21
350.009
  0
LINE
  8
Layer1
  6
DASHED1
 62
7
 10
791.195
 20
368.009
 11
791.769
 21
359.021
  0
LINE
  8
Layer1
  6
DASHED1
 62
7
 10
788.509
 20
350.009
 11
789.659
 21
350.009
  0
LINE
  8
Layer1
  6
DASHED1
 62
7
 10
789.659
 20
354.503
 11
788.509
 21
354.503
  0
LINE
  8
Layer1
  6
DASHED1
 62
7
 10
789.659
 20
350.009
 11
789.659
 21
354.503
  0
LINE
  8
Layer1
  6
DASHED1
 62
7
 10
789.659
 20
354.503
 11
788.892
 21
358.997
  0
LINE
  8
Layer1
  6
DASHED1
 62
7
 10
788.509
 20
350.009
 11
788.509
 21
358.997
  0
LINE
  8
Layer1
  6
DASHED1
 62
7
 10
788.892
 20
358.997
 11
788.509
 21
358.997
  0
LINE
  8
Layer1
  6
CENTER1
 62
7
 10
893.255
 20
411.997
 11
919.092
 21
411.997
  0
LINE
  8
Layer1
  6
CENTER1
 62
7
 10
891.038
 20
392.997
 11
918.255
 21
392.997
  0
LINE
  8
Layer1
  6
CENTER1
 62
7
 10
894.532
 20
373.997
 11
925.441
 21
373.997
  0
LINE
  8
Layer1
  6
CONTINUOUS
 62
7
 10
809.248
 20
442.367
 11
818.15
 21
442.367
  0
LINE
  8
Layer1
  6
CONTINUOUS
 62
7
 10
809.248
 20
440.052
 11
817.082
 21
440.052
  0
LINE
  8
Layer1
  6
CONTINUOUS
 62
7
 10
818.15
 20
442.367
 11
819.576
 21
440.705
  0
LINE
  8
Layer1
  6
CONTINUOUS
 62
7
 10
819.576
 20
440.052
 11
819.576
 21
440.705
  0
POLYLINE
  8
Layer1
  6
CONTINUOUS
 62
7
 66
1
 10
0
 20
0
 30
0
  0
VERTEX
  8
Layer1
 10
817.082
 20
440.052
  0
VERTEX
  8
Layer1
 10
817.084
 20
439.97
  0
VERTEX
  8
Layer1
 10
817.092
 20
439.889
  0
VERTEX
  8
Layer1
 10
817.105
 20
439.808
  0
VERTEX
  8
Layer1
 10
817.122
 20
439.727
  0
VERTEX
  8
Layer1
 10
817.146
 20
439.649
  0
VERTEX
  8
Layer1
 10
817.173
 20
439.572
  0
VERTEX
  8
Layer1
 10
817.207
 20
439.497
  0
VERTEX
  8
Layer1
 10
817.245
 20
439.424
  0
VERTEX
  8
Layer1
 10
817.289
 20
439.354
  0
VERTEX
  8
Layer1
 10
817.336
 20
439.287
  0
VERTEX
  8
Layer1
 10
817.388
 20
439.223
  0
VERTEX
  8
Layer1
 10
817.444
 20
439.163
  0
VERTEX
  8
Layer1
 10
817.503
 20
439.106
  0
VERTEX
  8
Layer1
 10
817.565
 20
439.054
  0
VERTEX
  8
Layer1
 10
817.632
 20
439.006
  0
VERTEX
  8
Layer1
 10
817.702
 20
438.962
  0
VERTEX
  8
Layer1
 10
817.774
 20
438.924
  0
VERTEX
  8
Layer1
 10
817.849
 20
438.889
  0
VERTEX
  8
Layer1
 10
817.926
 20
438.86
  0
VERTEX
  8
Layer1
 10
818.005
 20
438.836
  0
VERTEX
  8
Layer1
 10
818.084
 20
438.818
  0
VERTEX
  8
Layer1
 10
818.166
 20
438.804
  0
VERTEX
  8
Layer1
 10
818.246
 20
438.796
  0
VERTEX
  8
Layer1
 10
818.329
 20
438.793
  0
VERTEX
  8
Layer1
 10
818.41
 20
438.796
  0
VERTEX
  8
Layer1
 10
818.493
 20
438.804
  0
VERTEX
  8
Layer1
 10
818.573
 20
438.818
  0
VERTEX
  8
Layer1
 10
818.654
 20
438.836
  0
VERTEX
  8
Layer1
 10
818.733
 20
438.86
  0
VERTEX
  8
Layer1
 10
818.808
 20
438.889
  0
VERTEX
  8
Layer1
 10
818.884
 20
438.924
  0
VERTEX
  8
Layer1
 10
818.956
 20
438.962
  0
VERTEX
  8
Layer1
 10
819.025
 20
439.006
  0
VERTEX
  8
Layer1
 10
819.092
 20
439.054
  0
VERTEX
  8
Layer1
 10
819.156
 20
439.106
  0
VERTEX
  8
Layer1
 10
819.215
 20
439.163
  0
VERTEX
  8
Layer1
 10
819.271
 20
439.223
  0
VERTEX
  8
Layer1
 10
819.322
 20
439.287
  0
VERTEX
  8
Layer1
 10
819.37
 20
439.354
  0
VERTEX
  8
Layer1
 10
819.413
 20
439.424
  0
VERTEX
  8
Layer1
 10
819.451
 20
439.497
  0
VERTEX
  8
Layer1
 10
819.485
 20
439.572
  0
VERTEX
  8
Layer1
 10
819.513
 20
439.649
  0
VERTEX
  8
Layer1
 10
819.535
 20
439.727
  0
VERTEX
  8
Layer1
 10
819.553
 20
439.808
  0
VERTEX
  8
Layer1
 10
819.567
 20
439.889
  0
VERTEX
  8
Layer1
 10
819.573
 20
439.97
  0
VERTEX
  8
Layer1
 10
819.576
 20
440.052
  0
SEQEND
  0
LINE
  8
Layer1
  6
CONTINUOUS
 62
7
 10
809.248
 20
442.367
 11
806.834
 21
439.839
  0
LINE
  8
Layer1
  6
CONTINUOUS
 62
7
 10
809.248
 20
440.052
 11
807.823
 21
438.806
  0
POLYLINE
  8
Layer1
  6
CONTINUOUS
 62
7
 66
1
 10
0
 20
0
 30
0
  0
VERTEX
  8
Layer1
 10
806.834
 20
439.839
  0
VERTEX
  8
Layer1
 10
806.804
 20
439.805
  0
VERTEX
  8
Layer1
 10
806.776
 20
439.769
  0
VERTEX
  8
Layer1
 10
806.75
 20
439.732
  0
VERTEX
  8
Layer1
 10
806.726
 20
439.693
  0
VERTEX
  8
Layer1
 10
806.707
 20
439.652
  0
VERTEX
  8
Layer1
 10
806.688
 20
439.611
  0
VERTEX
  8
Layer1
 10
806.673
 20
439.568
  0
VERTEX
  8
Layer1
 10
806.659
 20
439.524
  0
VERTEX
  8
Layer1
 10
806.649
 20
439.48
  0
VERTEX
  8
Layer1
 10
806.642
 20
439.435
  0
VERTEX
  8
Layer1
 10
806.639
 20
439.39
  0
VERTEX
  8
Layer1
 10
806.637
 20
439.344
  0
VERTEX
  8
Layer1
 10
806.639
 20
439.299
  0
VERTEX
  8
Layer1
 10
806.642
 20
439.253
  0
VERTEX
  8
Layer1
 10
806.649
 20
439.208
  0
VERTEX
  8
Layer1
 10
806.659
 20
439.164
  0
VERTEX
  8
Layer1
 10
806.673
 20
439.12
  0
VERTEX
  8
Layer1
 10
806.688
 20
439.078
  0
VERTEX
  8
Layer1
 10
806.707
 20
439.036
  0
VERTEX
  8
Layer1
 10
806.727
 20
438.996
  0
VERTEX
  8
Layer1
 10
806.75
 20
438.957
  0
VERTEX
  8
Layer1
 10
806.776
 20
438.919
  0
VERTEX
  8
Layer1
 10
806.805
 20
438.884
  0
VERTEX
  8
Layer1
 10
806.836
 20
438.85
  0
VERTEX
  8
Layer1
 10
806.868
 20
438.818
  0
VERTEX
  8
Layer1
 10
806.903
 20
438.788
  0
VERTEX
  8
Layer1
 10
806.938
 20
438.761
  0
VERTEX
  8
Layer1
 10
806.976
 20
438.736
  0
VERTEX
  8
Layer1
 10
807.016
 20
438.713
  0
VERTEX
  8
Layer1
 10
807.057
 20
438.693
  0
VERTEX
  8
Layer1
 10
807.099
 20
438.675
  0
VERTEX
  8
Layer1
 10
807.141
 20
438.661
  0
VERTEX
  8
Layer1
 10
807.186
 20
438.649
  0
VERTEX
  8
Layer1
 10
807.231
 20
438.639
  0
VERTEX
  8
Layer1
 10
807.275
 20
438.633
  0
VERTEX
  8
Layer1
 10
807.321
 20
438.63
  0
VERTEX
  8
Layer1
 10
807.367
 20
438.629
  0
VERTEX
  8
Layer1
 10
807.411
 20
438.631
  0
VERTEX
  8
Layer1
 10
807.457
 20
438.637
  0
VERTEX
  8
Layer1
 10
807.502
 20
438.645
  0
VERTEX
  8
Layer1
 10
807.545
 20
438.656
  0
VERTEX
  8
Layer1
 10
807.59
 20
438.669
  0
VERTEX
  8
Layer1
 10
807.631
 20
438.686
  0
VERTEX
  8
Layer1
 10
807.673
 20
438.705
  0
VERTEX
  8
Layer1
 10
807.713
 20
438.727
  0
VERTEX
  8
Layer1
 10
807.752
 20
438.751
  0
VERTEX
  8
Layer1
 10
807.789
 20
438.777
  0
VERTEX
  8
Layer1
 10
807.823
 20
438.806
  0
SEQEND
  0
LINE
  8
Layer1
  6
CONTINUOUS
 62
7
 10
810.569
 20
440.052
 11
810.569
 21
436.93
  0
LINE
  8
Layer1
  6
CONTINUOUS
 62
7
 10
816.48
 20
440.052
 11
816.48
 21
436.93
  0
LINE
  8
Layer1
  6
CONTINUOUS
 62
7
 10
811.375
 20
426.577
 11
815.763
 21
426.577
  0
LINE
  8
Layer1
  6
CONTINUOUS
 62
7
 10
810.569
 20
427.126
 11
816.569
 21
427.126
  0
LINE
  8
Layer1
  6
CONTINUOUS
 62
7
 10
811.375
 20
426.577
 11
810.569
 21
427.126
  0
LINE
  8
Layer1
  6
CONTINUOUS
 62
7
 10
815.763
 20
426.577
 11
816.569
 21
427.126
  0
LINE
  8
Layer1
  6
CONTINUOUS
 62
7
 10
818.68
 20
432.997
 11
818.68
 21
436.084
  0
LINE
  8
Layer1
  6
CONTINUOUS
 62
7
 10
818.68
 20
436.084
 11
817.562
 21
436.73
  0
LINE
  8
Layer1
  6
CONTINUOUS
 62
7
 10
817.562
 20
436.93
 11
809.659
 21
436.93
  0
LINE
  8
Layer1
  6
CONTINUOUS
 62
7
 10
809.659
 20
436.73
 11
808.541
 21
436.084
  0
LINE
  8
Layer1
  6
CONTINUOUS
 62
7
 10
808.541
 20
436.084
 11
808.541
 21
432.997
  0
LINE
  8
Layer1
  6
CONTINUOUS
 62
7
 10
816.144
 20
432.997
 11
816.144
 21
436.084
  0
LINE
  8
Layer1
  6
CONTINUOUS
 62
7
 10
811.077
 20
432.997
 11
811.077
 21
436.084
  0
POLYLINE
  8
Layer1
  6
CONTINUOUS
 62
7
 66
1
 10
0
 20
0
 30
0
  0
VERTEX
  8
Layer1
 10
816.146
 20
436.084
  0
VERTEX
  8
Layer1
 10
816.043
 20
436.116
  0
VERTEX
  8
Layer1
 10
815.939
 20
436.146
  0
VERTEX
  8
Layer1
 10
815.837
 20
436.175
  0
VERTEX
  8
Layer1
 10
815.733
 20
436.203
  0
VERTEX
  8
Layer1
 10
815.629
 20
436.23
  0
VERTEX
  8
Layer1
 10
815.524
 20
436.255
  0
VERTEX
  8
Layer1
 10
815.42
 20
436.278
  0
VERTEX
  8
Layer1
 10
815.315
 20
436.301
  0
VERTEX
  8
Layer1
 10
815.209
 20
436.322
  0
VERTEX
  8
Layer1
 10
815.105
 20
436.342
  0
VERTEX
  8
Layer1
 10
814.998
 20
436.36
  0
VERTEX
  8
Layer1
 10
814.892
 20
436.377
  0
VERTEX
  8
Layer1
 10
814.786
 20
436.393
  0
VERTEX
  8
Layer1
 10
814.68
 20
436.407
  0
VERTEX
  8
Layer1
 10
814.573
 20
436.421
  0
VERTEX
  8
Layer1
 10
814.467
 20
436.432
  0
VERTEX
  8
Layer1
 10
814.361
 20
436.442
  0
VERTEX
  8
Layer1
 10
814.254
 20
436.451
  0
VERTEX
  8
Layer1
 10
814.147
 20
436.459
  0
VERTEX
  8
Layer1
 10
814.04
 20
436.465
  0
VERTEX
  8
Layer1
 10
813.933
 20
436.47
  0
VERTEX
  8
Layer1
 10
813.824
 20
436.473
  0
VERTEX
  8
Layer1
 10
813.717
 20
436.475
  0
VERTEX
  8
Layer1
 10
813.611
 20
436.476
  0
VERTEX
  8
Layer1
 10
813.504
 20
436.475
  0
VERTEX
  8
Layer1
 10
813.396
 20
436.473
  0
VERTEX
  8
Layer1
 10
813.289
 20
436.47
  0
VERTEX
  8
Layer1
 10
813.182
 20
436.465
  0
VERTEX
  8
Layer1
 10
813.074
 20
436.459
  0
VERTEX
  8
Layer1
 10
812.967
 20
436.451
  0
VERTEX
  8
Layer1
 10
812.861
 20
436.442
  0
VERTEX
  8
Layer1
 10
812.754
 20
436.432
  0
VERTEX
  8
Layer1
 10
812.647
 20
436.421
  0
VERTEX
  8
Layer1
 10
812.541
 20
436.407
  0
VERTEX
  8
Layer1
 10
812.435
 20
436.393
  0
VERTEX
  8
Layer1
 10
812.327
 20
436.377
  0
VERTEX
  8
Layer1
 10
812.223
 20
436.36
  0
VERTEX
  8
Layer1
 10
812.117
 20
436.342
  0
VERTEX
  8
Layer1
 10
812.01
 20
436.322
  0
VERTEX
  8
Layer1
 10
811.906
 20
436.301
  0
VERTEX
  8
Layer1
 10
811.801
 20
436.278
  0
VERTEX
  8
Layer1
 10
811.697
 20
436.255
  0
VERTEX
  8
Layer1
 10
811.592
 20
436.23
  0
VERTEX
  8
Layer1
 10
811.487
 20
436.203
  0
VERTEX
  8
Layer1
 10
811.385
 20
436.175
  0
VERTEX
  8
Layer1
 10
811.282
 20
436.146
  0
VERTEX
  8
Layer1
 10
811.178
 20
436.116
  0
VERTEX
  8
Layer1
 10
811.076
 20
436.084
  0
SEQEND
  0
POLYLINE
  8
Layer1
  6
CONTINUOUS
 62
7
 66
1
 10
0
 20
0
 30
0
  0
VERTEX
  8
Layer1
 10
818.679
 20
436.084
  0
VERTEX
  8
Layer1
 10
818.634
 20
436.115
  0
VERTEX
  8
Layer1
 10
818.586
 20
436.145
  0
VERTEX
  8
Layer1
 10
818.538
 20
436.174
  0
VERTEX
  8
Layer1
 10
818.488
 20
436.201
  0
VERTEX
  8
Layer1
 10
818.439
 20
436.227
  0
VERTEX
  8
Layer1
 10
818.389
 20
436.252
  0
VERTEX
  8
Layer1
 10
818.338
 20
436.276
  0
VERTEX
  8
Layer1
 10
818.286
 20
436.299
  0
VERTEX
  8
Layer1
 10
818.235
 20
436.32
  0
VERTEX
  8
Layer1
 10
818.183
 20
436.34
  0
VERTEX
  8
Layer1
 10
818.13
 20
436.358
  0
VERTEX
  8
Layer1
 10
818.076
 20
436.376
  0
VERTEX
  8
Layer1
 10
818.022
 20
436.392
  0
VERTEX
  8
Layer1
 10
817.967
 20
436.406
  0
VERTEX
  8
Layer1
 10
817.914
 20
436.419
  0
VERTEX
  8
Layer1
 10
817.859
 20
436.431
  0
VERTEX
  8
Layer1
 10
817.803
 20
436.442
  0
VERTEX
  8
Layer1
 10
817.747
 20
436.451
  0
VERTEX
  8
Layer1
 10
817.693
 20
436.458
  0
VERTEX
  8
Layer1
 10
817.637
 20
436.465
  0
VERTEX
  8
Layer1
 10
817.581
 20
436.47
  0
VERTEX
  8
Layer1
 10
817.524
 20
436.473
  0
VERTEX
  8
Layer1
 10
817.468
 20
436.475
  0
VERTEX
  8
Layer1
 10
817.413
 20
436.476
  0
VERTEX
  8
Layer1
 10
817.356
 20
436.475
  0
VERTEX
  8
Layer1
 10
817.301
 20
436.473
  0
VERTEX
  8
Layer1
 10
817.245
 20
436.47
  0
VERTEX
  8
Layer1
 10
817.188
 20
436.465
  0
VERTEX
  8
Layer1
 10
817.132
 20
436.458
  0
VERTEX
  8
Layer1
 10
817.077
 20
436.451
  0
VERTEX
  8
Layer1
 10
817.022
 20
436.442
  0
VERTEX
  8
Layer1
 10
816.967
 20
436.431
  0
VERTEX
  8
Layer1
 10
816.911
 20
436.419
  0
VERTEX
  8
Layer1
 10
816.856
 20
436.406
  0
VERTEX
  8
Layer1
 10
816.803
 20
436.392
  0
VERTEX
  8
Layer1
 10
816.748
 20
436.376
  0
VERTEX
  8
Layer1
 10
816.696
 20
436.358
  0
VERTEX
  8
Layer1
 10
816.642
 20
436.34
  0
VERTEX
  8
Layer1
 10
816.591
 20
436.32
  0
VERTEX
  8
Layer1
 10
816.539
 20
436.299
  0
VERTEX
  8
Layer1
 10
816.486
 20
436.276
  0
VERTEX
  8
Layer1
 10
816.436
 20
436.252
  0
VERTEX
  8
Layer1
 10
816.385
 20
436.227
  0
VERTEX
  8
Layer1
 10
816.337
 20
436.201
  0
VERTEX
  8
Layer1
 10
816.288
 20
436.174
  0
VERTEX
  8
Layer1
 10
816.238
 20
436.145
  0
VERTEX
  8
Layer1
 10
816.192
 20
436.115
  0
VERTEX
  8
Layer1
 10
816.144
 20
436.084
  0
SEQEND
  0
POLYLINE
  8
Layer1
  6
CONTINUOUS
 62
7
 66
1
 10
0
 20
0
 30
0
  0
VERTEX
  8
Layer1
 10
811.077
 20
436.084
  0
VERTEX
  8
Layer1
 10
811.029
 20
436.115
  0
VERTEX
  8
Layer1
 10
810.981
 20
436.145
  0
VERTEX
  8
Layer1
 10
810.933
 20
436.174
  0
VERTEX
  8
Layer1
 10
810.885
 20
436.201
  0
VERTEX
  8
Layer1
 10
810.836
 20
436.227
  0
VERTEX
  8
Layer1
 10
810.784
 20
436.252
  0
VERTEX
  8
Layer1
 10
810.735
 20
436.276
  0
VERTEX
  8
Layer1
 10
810.683
 20
436.299
  0
VERTEX
  8
Layer1
 10
810.63
 20
436.32
  0
VERTEX
  8
Layer1
 10
810.579
 20
436.34
  0
VERTEX
  8
Layer1
 10
810.525
 20
436.358
  0
VERTEX
  8
Layer1
 10
810.471
 20
436.376
  0
VERTEX
  8
Layer1
 10
810.418
 20
436.392
  0
VERTEX
  8
Layer1
 10
810.363
 20
436.406
  0
VERTEX
  8
Layer1
 10
810.31
 20
436.419
  0
VERTEX
  8
Layer1
 10
810.255
 20
436.431
  0
VERTEX
  8
Layer1
 10
810.199
 20
436.442
  0
VERTEX
  8
Layer1
 10
810.144
 20
436.451
  0
VERTEX
  8
Layer1
 10
810.089
 20
436.458
  0
VERTEX
  8
Layer1
 10
810.033
 20
436.465
  0
VERTEX
  8
Layer1
 10
809.976
 20
436.47
  0
VERTEX
  8
Layer1
 10
809.92
 20
436.473
  0
VERTEX
  8
Layer1
 10
809.865
 20
436.475
  0
VERTEX
  8
Layer1
 10
809.808
 20
436.476
  0
VERTEX
  8
Layer1
 10
809.753
 20
436.475
  0
VERTEX
  8
Layer1
 10
809.697
 20
436.473
  0
VERTEX
  8
Layer1
 10
809.64
 20
436.47
  0
VERTEX
  8
Layer1
 10
809.584
 20
436.465
  0
VERTEX
  8
Layer1
 10
809.529
 20
436.458
  0
VERTEX
  8
Layer1
 10
809.474
 20
436.451
  0
VERTEX
  8
Layer1
 10
809.418
 20
436.442
  0
VERTEX
  8
Layer1
 10
809.362
 20
436.431
  0
VERTEX
  8
Layer1
 10
809.308
 20
436.419
  0
VERTEX
  8
Layer1
 10
809.254
 20
436.406
  0
VERTEX
  8
Layer1
 10
809.198
 20
436.392
  0
VERTEX
  8
Layer1
 10
809.146
 20
436.376
  0
VERTEX
  8
Layer1
 10
809.092
 20
436.358
  0
VERTEX
  8
Layer1
 10
809.039
 20
436.34
  0
VERTEX
  8
Layer1
 10
808.986
 20
436.32
  0
VERTEX
  8
Layer1
 10
808.935
 20
436.299
  0
VERTEX
  8
Layer1
 10
808.882
 20
436.276
  0
VERTEX
  8
Layer1
 10
808.832
 20
436.252
  0
VERTEX
  8
Layer1
 10
808.782
 20
436.227
  0
VERTEX
  8
Layer1
 10
808.733
 20
436.201
  0
VERTEX
  8
Layer1
 10
808.683
 20
436.174
  0
VERTEX
  8
Layer1
 10
808.635
 20
436.145
  0
VERTEX
  8
Layer1
 10
808.588
 20
436.115
  0
VERTEX
  8
Layer1
 10
808.541
 20
436.084
  0
SEQEND
  0
POLYLINE
  8
Layer1
  6
CONTINUOUS
 62
7
 66
1
 10
0
 20
0
 30
0
 70
1
  0
VERTEX
  8
Layer1
 10
818.875
 20
440.04
  0
VERTEX
  8
Layer1
 10
818.87
 20
440.111
  0
VERTEX
  8
Layer1
 10
818.856
 20
440.181
  0
VERTEX
  8
Layer1
 10
818.833
 20
440.249
  0
VERTEX
  8
Layer1
 10
818.802
 20
440.313
  0
VERTEX
  8
Layer1
 10
818.763
 20
440.372
  0
VERTEX
  8
Layer1
 10
818.715
 20
440.426
  0
VERTEX
  8
Layer1
 10
818.661
 20
440.473
  0
VERTEX
  8
Layer1
 10
818.601
 20
440.513
  0
VERTEX
  8
Layer1
 10
818.538
 20
440.544
  0
VERTEX
  8
Layer1
 10
818.471
 20
440.567
  0
VERTEX
  8
Layer1
 10
818.4
 20
440.581
  0
VERTEX
  8
Layer1
 10
818.329
 20
440.586
  0
VERTEX
  8
Layer1
 10
818.257
 20
440.581
  0
VERTEX
  8
Layer1
 10
818.188
 20
440.567
  0
VERTEX
  8
Layer1
 10
818.12
 20
440.544
  0
VERTEX
  8
Layer1
 10
818.055
 20
440.513
  0
VERTEX
  8
Layer1
 10
817.996
 20
440.473
  0
VERTEX
  8
Layer1
 10
817.943
 20
440.426
  0
VERTEX
  8
Layer1
 10
817.896
 20
440.372
  0
VERTEX
  8
Layer1
 10
817.856
 20
440.313
  0
VERTEX
  8
Layer1
 10
817.824
 20
440.249
  0
VERTEX
  8
Layer1
 10
817.802
 20
440.181
  0
VERTEX
  8
Layer1
 10
817.788
 20
440.111
  0
VERTEX
  8
Layer1
 10
817.783
 20
440.04
  0
VERTEX
  8
Layer1
 10
817.788
 20
439.968
  0
VERTEX
  8
Layer1
 10
817.802
 20
439.898
  0
VERTEX
  8
Layer1
 10
817.824
 20
439.831
  0
VERTEX
  8
Layer1
 10
817.856
 20
439.767
  0
VERTEX
  8
Layer1
 10
817.896
 20
439.707
  0
VERTEX
  8
Layer1
 10
817.943
 20
439.654
  0
VERTEX
  8
Layer1
 10
817.996
 20
439.607
  0
VERTEX
  8
Layer1
 10
818.055
 20
439.567
  0
VERTEX
  8
Layer1
 10
818.12
 20
439.535
  0
VERTEX
  8
Layer1
 10
818.188
 20
439.512
  0
VERTEX
  8
Layer1
 10
818.257
 20
439.498
  0
VERTEX
  8
Layer1
 10
818.329
 20
439.494
  0
VERTEX
  8
Layer1
 10
818.4
 20
439.498
  0
VERTEX
  8
Layer1
 10
818.471
 20
439.512
  0
VERTEX
  8
Layer1
 10
818.538
 20
439.535
  0
VERTEX
  8
Layer1
 10
818.601
 20
439.567
  0
VERTEX
  8
Layer1
 10
818.661
 20
439.607
  0
VERTEX
  8
Layer1
 10
818.715
 20
439.654
  0
VERTEX
  8
Layer1
 10
818.763
 20
439.707
  0
VERTEX
  8
Layer1
 10
818.802
 20
439.767
  0
VERTEX
  8
Layer1
 10
818.833
 20
439.831
  0
VERTEX
  8
Layer1
 10
818.856
 20
439.898
  0
VERTEX
  8
Layer1
 10
818.87
 20
439.968
  0
SEQEND
  0
LINE
  8
Layer1
  6
CONTINUOUS
 62
7
 10
810.569
 20
427.126
 11
810.569
 21
432.997
  0
LINE
  8
Layer1
  6
CONTINUOUS
 62
7
 10
816.569
 20
427.126
 11
816.569
 21
432.997
  0
LINE
  8
Layer1
  6
CONTINUOUS
 62
7
 10
808.541
 20
432.997
 11
818.68
 21
432.997
  0
LINE
  8
Layer1
  6
PHANTOM1
 62
7
 10
898.135
 20
465.197
 11
853.13
 21
465.197
  0
LINE
  8
Layer1
  6
PHANTOM1
 62
7
 10
898.123
 20
449.197
 11
853.13
 21
449.197
  0
LINE
  8
Layer1
  6
CONTINUOUS
 62
7
 10
774.111
 20
367.997
 11
829.558
 21
367.997
  0
LINE
  8
Layer1
  6
CONTINUOUS
 62
7
 10
788.509
 20
367.997
 11
788.509
 21
349.997
  0
LINE
  8
Layer1
  6
CONTINUOUS
 62
7
 10
829.592
 20
369.997
 11
874.131
 21
369.997
  0
LINE
  8
Layer1
  6
DASHED1
 62
7
 10
836.169
 20
349.997
 11
838.489
 21
349.997
  0
LINE
  8
Layer1
  6
CONTINUOUS
 62
7
 10
898.13
 20
390.696
 11
853.13
 21
444.325
  0
LINE
  8
Layer1
  6
CONTINUOUS
 62
7
 10
886.13
 20
404.997
 11
895.085
 21
404.997
  0
LINE
  8
Layer1
  6
CONTINUOUS
 62
7
 10
853.13
 20
493.987
 11
853.13
 21
444.325
  0
ARC
  8
Layer1
  6
CONTINUOUS
 62
7
 10
895.085
 20
407.997
 40
3
 50
270
 51
2.03555e-013
  0
LINE
  8
Layer1
  6
CONTINUOUS
 62
7
 10
898.13
 20
371
 11
897.128
 21
369.997
  0
LINE
  8
Layer1
  6
CONTINUOUS
 62
7
 10
899.085
 20
364.997
 11
909.13
 21
364.997
  0
LINE
  8
Layer1
  6
CONTINUOUS
 62
7
 10
910.13
 20
365.997
 11
910.13
 21
426.997
  0
LINE
  8
Layer1
  6
CONTINUOUS
 62
7
 10
899.085
 20
427.997
 11
909.13
 21
427.997
  0
LINE
  8
Layer1
  6
CONTINUOUS
 62
7
 10
909.13
 20
427.997
 11
910.13
 21
426.997
  0
LINE
  8
Layer1
  6
CONTINUOUS
 62
7
 10
910.13
 20
365.997
 11
909.13
 21
364.997
  0
LINE
  8
Layer1
  6
CONTINUOUS
 62
7
 10
899.085
 20
364.997
 11
898.13
 21
365.952
  0
LINE
  8
Layer1
  6
CONTINUOUS
 62
7
 10
898.13
 20
427.042
 11
899.085
 21
427.997
  0
LINE
  8
Layer1
  6
CONTINUOUS
 62
7
 10
853.13
 20
480.008
 11
854.14
 21
478.997
  0
LINE
  8
Layer1
  6
CONTINUOUS
 62
7
 10
853.13
 20
493.987
 11
854.14
 21
494.997
  0
LINE
  8
Layer1
  6
CONTINUOUS
 62
7
 10
863.085
 20
490.211
 11
863.085
 21
487.296
  0
LINE
  8
Layer1
  6
CONTINUOUS
 62
7
 10
863.085
 20
484.92
 11
863.085
 21
477.47
  0
LINE
  8
Layer1
  6
CONTINUOUS
 62
7
 10
857.64
 20
494.997
 11
868.64
 21
494.997
  0
LINE
  8
Layer1
  6
CONTINUOUS
 62
7
 10
888.085
 20
490.319
 11
888.085
 21
487.296
  0
LINE
  8
Layer1
  6
CONTINUOUS
 62
7
 10
888.085
 20
484.92
 11
888.085
 21
477.686
  0
LINE
  8
Layer1
  6
CONTINUOUS
 62
7
 10
853.111
 20
431.997
 11
853.111
 21
421.04
  0
LINE
  8
Layer1
  6
CONTINUOUS
 62
7
 10
773.13
 20
431.017
 11
773.13
 21
421.04
  0
LINE
  8
Layer1
  6
CONTINUOUS
 62
7
 10
829.126
 20
432.997
 11
821.927
 21
425.797
  0
LINE
  8
Layer1
  6
CONTINUOUS
 62
7
 10
774.173
 20
419.997
 11
773.13
 21
421.04
  0
LINE
  8
Layer1
  6
CONTINUOUS
 62
7
 10
775.111
 20
432.997
 11
773.13
 21
431.017
  0
LINE
  8
Layer1
  6
CONTINUOUS
 62
7
 10
833.126
 20
432.997
 11
825.927
 21
425.797
  0
LINE
  8
Layer1
  6
CONTINUOUS
 62
7
 10
825.127
 20
432.997
 11
817.927
 21
425.797
  0
LINE
  8
Layer1
  6
CONTINUOUS
 62
7
 10
827.111
 20
425.997
 11
800.111
 21
425.997
  0
LINE
  8
Layer1
  6
CONTINUOUS
 62
7
 10
809.127
 20
432.997
 11
801.927
 21
425.797
  0
LINE
  8
Layer1
  6
CONTINUOUS
 62
7
 10
798.611
 20
422.681
 11
795.927
 21
419.997
  0
LINE
  8
Layer1
  6
CONTINUOUS
 62
7
 10
852.111
 20
432.997
 11
775.111
 21
432.997
  0
LINE
  8
Layer1
  6
CONTINUOUS
 62
7
 10
805.127
 20
432.997
 11
803.361
 21
431.231
  0
LINE
  8
Layer1
  6
CONTINUOUS
 62
7
 10
800.486
 20
432.356
 11
794.865
 21
426.735
  0
LINE
  8
Layer1
  6
CONTINUOUS
 62
7
 10
797.127
 20
432.997
 11
793.833
 21
429.704
  0
LINE
  8
Layer1
  6
CONTINUOUS
 62
7
 10
828.611
 20
420.997
 11
828.611
 21
424.497
  0
LINE
  8
Layer1
  6
CONTINUOUS
 62
7
 10
798.611
 20
420.997
 11
798.611
 21
424.497
  0
LINE
  8
Layer1
  6
CENTER2
 62
7
 10
813.611
 20
437.156
 11
813.611
 21
414.736
  0
LINE
  8
Layer1
  6
CONTINUOUS
 62
7
 10
821.127
 20
432.997
 11
816.611
 21
428.481
  0
ARC
  8
Layer1
  6
CONTINUOUS
 62
7
 10
827.111
 20
424.497
 40
1.5
 50
2.03555e-013
 51
90
  0
ARC
  8
Layer1
  6
CONTINUOUS
 62
7
 10
800.111
 20
424.497
 40
1.5
 50
90
 51
180
  0
LINE
  8
Layer1
  6
CONTINUOUS
 62
7
 10
797.611
 20
419.997
 11
795.927
 21
419.997
  0
ARC
  8
Layer1
  6
CONTINUOUS
 62
7
 10
829.611
 20
420.997
 40
1
 50
180
 51
270
  0
ARC
  8
Layer1
  6
CONTINUOUS
 62
7
 10
797.611
 20
420.997
 40
1
 50
270
 51
2.03555e-013
  0
LINE
  8
Layer1
  6
CENTER1
 62
7
 10
802.111
 20
435.86
 11
802.111
 21
427.434
  0
LINE
  8
Layer1
  6
CONTINUOUS
 62
7
 10
800.111
 20
432.997
 11
800.861
 21
431.698
  0
LINE
  8
Layer1
  6
CONTINUOUS
 62
7
 10
801.157
 20
429.027
 11
794.701
 21
422.571
  0
LINE
  8
Layer1
  6
CONTINUOUS
 62
7
 10
800.861
 20
429.198
 11
800.861
 21
430.152
  0
LINE
  8
Layer1
  6
CONTINUOUS
 62
7
 10
804.111
 20
432.997
 11
803.361
 21
431.698
  0
LINE
  8
Layer1
  6
CONTINUOUS
 62
7
 10
803.361
 20
429.198
 11
803.361
 21
430.005
  0
LINE
  8
Layer1
  6
CONTINUOUS
 62
7
 10
803.361
 20
429.198
 11
802.63
 21
429.198
  0
LINE
  8
Layer1
  6
CONTINUOUS
 62
7
 10
801.486
 20
429.198
 11
800.861
 21
429.198
  0
LINE
  8
Layer1
  6
CONTINUOUS
 62
7
 10
800.861
 20
429.198
 11
801.157
 21
429.027
  0
LINE
  8
Layer1
  6
CONTINUOUS
 62
7
 10
803.361
 20
431.698
 11
802.533
 21
431.698
  0
LINE
  8
Layer1
  6
CONTINUOUS
 62
7
 10
816.111
 20
431.997
 11
816.111
 21
425.797
  0
LINE
  8
Layer1
  6
CONTINUOUS
 62
7
 10
811.111
 20
431.997
 11
811.111
 21
425.797
  0
LINE
  8
Layer1
  6
CONTINUOUS
 62
7
 10
810.611
 20
431.997
 11
810.611
 21
425.797
  0
LINE
  8
Layer1
  6
CONTINUOUS
 62
7
 10
816.611
 20
431.997
 11
816.611
 21
425.797
  0
LINE
  8
Layer1
  6
CONTINUOUS
 62
7
 10
810.611
 20
426.481
 11
809.927
 21
425.797
  0
LINE
  8
Layer1
  6
CONTINUOUS
 62
7
 10
816.611
 20
431.997
 11
810.611
 21
431.997
  0
LINE
  8
Layer1
  6
CONTINUOUS
 62
7
 10
810.611
 20
431.997
 11
809.611
 21
432.997
  0
LINE
  8
Layer1
  6
CONTINUOUS
 62
7
 10
816.611
 20
431.997
 11
817.611
 21
432.997
  0
LINE
  8
Layer1
  6
CONTINUOUS
 62
7
 10
813.611
 20
431.997
 11
813.611
 21
431.384
  0
LINE
  8
Layer1
  6
CONTINUOUS
 62
7
 10
838.635
 20
426.505
 11
831.927
 21
419.797
  0
LINE
  8
Layer1
  6
CONTINUOUS
 62
7
 10
841.126
 20
432.997
 11
828.611
 21
420.481
  0
LINE
  8
Layer1
  6
CONTINUOUS
 62
7
 10
828.803
 20
424.674
 11
837.126
 21
432.997
  0
POLYLINE
  8
Layer1
  6
CONTINUOUS
 62
7
 66
1
 10
0
 20
0
 30
0
  0
VERTEX
  8
Layer1
 10
793.091
 20
432.997
  0
VERTEX
  8
Layer1
 10
793.117
 20
432.831
  0
VERTEX
  8
Layer1
 10
793.142
 20
432.664
  0
VERTEX
  8
Layer1
 10
793.168
 20
432.498
  0
VERTEX
  8
Layer1
 10
793.195
 20
432.331
  0
VERTEX
  8
Layer1
 10
793.223
 20
432.165
  0
VERTEX
  8
Layer1
 10
793.25
 20
431.999
  0
VERTEX
  8
Layer1
 10
793.279
 20
431.833
  0
VERTEX
  8
Layer1
 10
793.31
 20
431.668
  0
VERTEX
  8
Layer1
 10
793.342
 20
431.502
  0
VERTEX
  8
Layer1
 10
793.375
 20
431.337
  0
VERTEX
  8
Layer1
 10
793.41
 20
431.172
  0
VERTEX
  8
Layer1
 10
793.447
 20
431.008
  0
VERTEX
  8
Layer1
 10
793.486
 20
430.844
  0
VERTEX
  8
Layer1
 10
793.528
 20
430.68
  0
VERTEX
  8
Layer1
 10
793.571
 20
430.517
  0
VERTEX
  8
Layer1
 10
793.618
 20
430.354
  0
VERTEX
  8
Layer1
 10
793.667
 20
430.192
  0
VERTEX
  8
Layer1
 10
793.718
 20
430.03
  0
VERTEX
  8
Layer1
 10
793.774
 20
429.869
  0
VERTEX
  8
Layer1
 10
793.832
 20
429.709
  0
VERTEX
  8
Layer1
 10
793.892
 20
429.549
  0
VERTEX
  8
Layer1
 10
793.957
 20
429.39
  0
VERTEX
  8
Layer1
 10
794.024
 20
429.231
  0
VERTEX
  8
Layer1
 10
794.092
 20
429.073
  0
VERTEX
  8
Layer1
 10
794.161
 20
428.914
  0
VERTEX
  8
Layer1
 10
794.231
 20
428.757
  0
VERTEX
  8
Layer1
 10
794.3
 20
428.599
  0
VERTEX
  8
Layer1
 10
794.368
 20
428.441
  0
VERTEX
  8
Layer1
 10
794.433
 20
428.283
  0
VERTEX
  8
Layer1
 10
794.498
 20
428.125
  0
VERTEX
  8
Layer1
 10
794.56
 20
427.967
  0
VERTEX
  8
Layer1
 10
794.618
 20
427.809
  0
VERTEX
  8
Layer1
 10
794.67
 20
427.65
  0
VERTEX
  8
Layer1
 10
794.719
 20
427.49
  0
VERTEX
  8
Layer1
 10
794.764
 20
427.33
  0
VERTEX
  8
Layer1
 10
794.801
 20
427.17
  0
VERTEX
  8
Layer1
 10
794.832
 20
427.008
  0
VERTEX
  8
Layer1
 10
794.855
 20
426.846
  0
VERTEX
  8
Layer1
 10
794.87
 20
426.683
  0
VERTEX
  8
Layer1
 10
794.878
 20
426.519
  0
VERTEX
  8
Layer1
 10
794.878
 20
426.354
  0
VERTEX
  8
Layer1
 10
794.871
 20
426.188
  0
VERTEX
  8
Layer1
 10
794.86
 20
426.022
  0
VERTEX
  8
Layer1
 10
794.843
 20
425.855
  0
VERTEX
  8
Layer1
 10
794.823
 20
425.687
  0
VERTEX
  8
Layer1
 10
794.801
 20
425.519
  0
VERTEX
  8
Layer1
 10
794.775
 20
425.351
  0
VERTEX
  8
Layer1
 10
794.75
 20
425.182
  0
VERTEX
  8
Layer1
 10
794.723
 20
425.013
  0
VERTEX
  8
Layer1
 10
794.697
 20
424.843
  0
VERTEX
  8
Layer1
 10
794.673
 20
424.674
  0
VERTEX
  8
Layer1
 10
794.651
 20
424.504
  0
VERTEX
  8
Layer1
 10
794.632
 20
424.335
  0
VERTEX
  8
Layer1
 10
794.619
 20
424.166
  0
VERTEX
  8
Layer1
 10
794.609
 20
423.997
  0
VERTEX
  8
Layer1
 10
794.605
 20
423.828
  0
VERTEX
  8
Layer1
 10
794.606
 20
423.66
  0
VERTEX
  8
Layer1
 10
794.612
 20
423.491
  0
VERTEX
  8
Layer1
 10
794.622
 20
423.323
  0
VERTEX
  8
Layer1
 10
794.637
 20
423.155
  0
VERTEX
  8
Layer1
 10
794.654
 20
422.988
  0
VERTEX
  8
Layer1
 10
794.673
 20
422.82
  0
VERTEX
  8
Layer1
 10
794.696
 20
422.653
  0
VERTEX
  8
Layer1
 10
794.718
 20
422.485
  0
VERTEX
  8
Layer1
 10
794.743
 20
422.318
  0
VERTEX
  8
Layer1
 10
794.766
 20
422.15
  0
VERTEX
  8
Layer1
 10
794.791
 20
421.983
  0
VERTEX
  8
Layer1
 10
794.814
 20
421.816
  0
VERTEX
  8
Layer1
 10
794.837
 20
421.648
  0
VERTEX
  8
Layer1
 10
794.856
 20
421.481
  0
VERTEX
  8
Layer1
 10
794.873
 20
421.313
  0
VERTEX
  8
Layer1
 10
794.889
 20
421.145
  0
VERTEX
  8
Layer1
 10
794.899
 20
420.977
  0
VERTEX
  8
Layer1
 10
794.907
 20
420.809
  0
VERTEX
  8
Layer1
 10
794.91
 20
420.641
  0
VERTEX
  8
Layer1
 10
794.911
 20
420.472
  0
VERTEX
  8
Layer1
 10
794.91
 20
420.304
  0
VERTEX
  8
Layer1
 10
794.908
 20
420.135
  0
VERTEX
  8
Layer1
 10
794.904
 20
419.966
  0
VERTEX
  8
Layer1
 10
794.899
 20
419.797
  0
SEQEND
  0
LINE
  8
Layer1
  6
CONTINUOUS
 62
7
 10
801.646
 20
431.698
 11
800.861
 21
431.698
  0
LINE
  8
Layer1
  6
CONTINUOUS
 62
7
 10
803.361
 20
430.99
 11
803.361
 21
431.698
  0
LINE
  8
Layer1
  6
CONTINUOUS
 62
7
 10
800.861
 20
430.891
 11
800.861
 21
431.698
  0
LINE
  8
Layer1
  6
CONTINUOUS
 62
7
 10
803.361
 20
429.198
 11
802.63
 21
428.777
  0
LINE
  8
Layer1
  6
CONTINUOUS
 62
7
 10
801.646
 20
428.745
 11
802.111
 21
428.477
  0
LINE
  8
Layer1
  6
CENTER1
 62
7
 10
843.611
 20
416.395
 11
843.611
 21
435.863
  0
LINE
  8
Layer1
  6
CENTER1
 62
7
 10
783.611
 20
435.426
 11
783.611
 21
417.424
  0
LINE
  8
Layer1
  6
CONTINUOUS
 62
7
 10
910.13
 20
405.361
 11
917.63
 21
405.361
  0
LINE
  8
Layer1
  6
CONTINUOUS
 62
7
 10
910.13
 20
418.361
 11
917.63
 21
418.361
  0
LINE
  8
Layer1
  6
CONTINUOUS
 62
7
 10
917.63
 20
405.361
 11
917.63
 21
418.361
  0
LINE
  8
Layer1
  6
CONTINUOUS
 62
7
 10
918.13
 20
405.861
 11
918.13
 21
417.861
  0
LINE
  8
Layer1
  6
CONTINUOUS
 62
7
 10
917.63
 20
405.361
 11
918.13
 21
405.861
  0
LINE
  8
Layer1
  6
CONTINUOUS
 62
7
 10
917.63
 20
418.361
 11
918.13
 21
417.861
  0
LINE
  8
Layer1
  6
CONTINUOUS
 62
7
 10
910.13
 20
418.361
 11
910.13
 21
405.361
  0
LINE
  8
Layer1
  6
CONTINUOUS
 62
7
 10
910.707
 20
417.361
 11
917.053
 21
417.361
  0
LINE
  8
Layer1
  6
CONTINUOUS
 62
7
 10
911.284
 20
416.361
 11
916.476
 21
416.361
  0
LINE
  8
Layer1
  6
CONTINUOUS
 62
7
 10
911.861
 20
415.361
 11
915.899
 21
415.361
  0
LINE
  8
Layer1
  6
CONTINUOUS
 62
7
 10
912.438
 20
414.361
 11
915.322
 21
414.361
  0
LINE
  8
Layer1
  6
CONTINUOUS
 62
7
 10
910.13
 20
367.107
 11
917.63
 21
367.107
  0
LINE
  8
Layer1
  6
CONTINUOUS
 62
7
 10
910.13
 20
380.107
 11
917.63
 21
380.107
  0
LINE
  8
Layer1
  6
CONTINUOUS
 62
7
 10
917.63
 20
367.107
 11
917.63
 21
380.107
  0
LINE
  8
Layer1
  6
CONTINUOUS
 62
7
 10
918.13
 20
367.607
 11
918.13
 21
379.607
  0
LINE
  8
Layer1
  6
CONTINUOUS
 62
7
 10
917.63
 20
367.107
 11
918.13
 21
367.607
  0
LINE
  8
Layer1
  6
CONTINUOUS
 62
7
 10
917.63
 20
380.107
 11
918.13
 21
379.607
  0
LINE
  8
Layer1
  6
CONTINUOUS
 62
7
 10
910.13
 20
380.107
 11
910.13
 21
367.107
  0
LINE
  8
Layer1
  6
CONTINUOUS
 62
7
 10
910.707
 20
379.107
 11
917.053
 21
379.107
  0
LINE
  8
Layer1
  6
CONTINUOUS
 62
7
 10
911.284
 20
378.107
 11
916.476
 21
378.107
  0
LINE
  8
Layer1
  6
CONTINUOUS
 62
7
 10
911.861
 20
377.107
 11
915.899
 21
377.107
  0
LINE
  8
Layer1
  6
CONTINUOUS
 62
7
 10
912.438
 20
376.107
 11
915.322
 21
376.107
  0
LINE
  8
Layer1
  6
DASHED1
 62
7
 10
898.13
 20
383.297
 11
909.797
 21
383.297
  0
LINE
  8
Layer1
  6
DASHED1
 62
7
 10
898.13
 20
376.697
 11
909.797
 21
376.697
  0
LINE
  8
Layer1
  6
DASHED1
 62
7
 10
898.173
 20
383.997
 11
910.13
 21
383.997
  0
LINE
  8
Layer1
  6
DASHED1
 62
7
 10
898.173
 20
375.997
 11
909.467
 21
375.997
  0
LINE
  8
Layer1
  6
CONTINUOUS
 62
7
 10
910.13
 20
386.497
 11
917.63
 21
386.497
  0
LINE
  8
Layer1
  6
CONTINUOUS
 62
7
 10
910.13
 20
399.497
 11
917.63
 21
399.497
  0
LINE
  8
Layer1
  6
CONTINUOUS
 62
7
 10
917.63
 20
386.497
 11
917.63
 21
399.497
  0
LINE
  8
Layer1
  6
CONTINUOUS
 62
7
 10
918.13
 20
386.997
 11
918.13
 21
398.997
  0
LINE
  8
Layer1
  6
CONTINUOUS
 62
7
 10
917.63
 20
386.497
 11
918.13
 21
386.997
  0
LINE
  8
Layer1
  6
CONTINUOUS
 62
7
 10
917.63
 20
399.497
 11
918.13
 21
398.997
  0
LINE
  8
Layer1
  6
CONTINUOUS
 62
7
 10
910.13
 20
399.497
 11
910.13
 21
386.497
  0
LINE
  8
Layer1
  6
CONTINUOUS
 62
7
 10
910.707
 20
398.497
 11
917.053
 21
398.497
  0
LINE
  8
Layer1
  6
CONTINUOUS
 62
7
 10
911.284
 20
397.497
 11
916.476
 21
397.497
  0
LINE
  8
Layer1
  6
CONTINUOUS
 62
7
 10
911.861
 20
396.497
 11
915.899
 21
396.497
  0
LINE
  8
Layer1
  6
CONTINUOUS
 62
7
 10
912.438
 20
395.497
 11
915.322
 21
395.497
  0
LINE
  8
Layer1
  6
CONTINUOUS
 62
7
 10
848.611
 20
426.529
 11
848.611
 21
432.129
  0
LINE
  8
Layer1
  6
CONTINUOUS
 62
7
 10
838.611
 20
426.529
 11
838.611
 21
432.129
  0
LINE
  8
Layer1
  6
CONTINUOUS
 62
7
 10
848.611
 20
432.129
 11
838.611
 21
432.129
  0
LINE
  8
Layer1
  6
CONTINUOUS
 62
7
 10
848.211
 20
432.529
 11
839.01
 21
432.529
  0
LINE
  8
Layer1
  6
CONTINUOUS
 62
7
 10
848.611
 20
432.129
 11
848.211
 21
432.529
  0
LINE
  8
Layer1
  6
CONTINUOUS
 62
7
 10
838.611
 20
432.129
 11
839.01
 21
432.529
  0
LINE
  8
Layer1
  6
CONTINUOUS
 62
7
 10
838.611
 20
426.529
 11
848.611
 21
426.529
  0
LINE
  8
Layer1
  6
CONTINUOUS
 62
7
 10
839.611
 20
431.569
 11
839.611
 21
427.089
  0
LINE
  8
Layer1
  6
CONTINUOUS
 62
7
 10
840.611
 20
431.009
 11
840.611
 21
427.649
  0
LINE
  8
Layer1
  6
CONTINUOUS
 62
7
 10
841.611
 20
430.449
 11
841.611
 21
428.209
  0
LINE
  8
Layer1
  6
CONTINUOUS
 62
7
 10
846.611
 20
426.506
 11
846.611
 21
419.997
  0
LINE
  8
Layer1
  6
CONTINUOUS
 62
7
 10
840.611
 20
426.413
 11
840.611
 21
419.997
  0
LINE
  8
Layer1
  6
CONTINUOUS
 62
7
 10
836.114
 20
420.184
 11
840.611
 21
424.681
  0
LINE
  8
Layer1
  6
CONTINUOUS
 62
7
 10
852.625
 20
432.496
 11
848.765
 21
428.636
  0
LINE
  8
Layer1
  6
CONTINUOUS
 62
7
 10
853.141
 20
429.012
 11
846.611
 21
422.481
  0
LINE
  8
Layer1
  6
CONTINUOUS
 62
7
 10
848.147
 20
420.217
 11
853.111
 21
425.116
  0
LINE
  8
Layer1
  6
PHANTOM1
 62
7
 10
890.081
 20
369.743
 11
847.912
 21
419.997
  0
POLYLINE
  8
Layer1
  6
CONTINUOUS
 62
7
 66
1
 10
0
 20
0
 30
0
  0
VERTEX
  8
Layer1
 10
720.568
 20
349.997
  0
VERTEX
  8
Layer1
 10
745.568
 20
349.997
  0
SEQEND
  0
POLYLINE
  8
Layer1
  6
CONTINUOUS
 62
7
 66
1
 10
0
 20
0
 30
0
 70
1
  0
VERTEX
  8
Layer1
 10
724.432
 20
348.962
  0
VERTEX
  8
Layer1
 10
720.568
 20
349.997
  0
VERTEX
  8
Layer1
 10
724.432
 20
351.033
  0
SEQEND
  0
POLYLINE
  8
Layer1
  6
CONTINUOUS
 62
7
 66
1
 10
0
 20
0
 30
0
 70
1
  0
VERTEX
  8
Layer1
 10
741.704
 20
351.033
  0
VERTEX
  8
Layer1
 10
745.568
 20
349.997
  0
VERTEX
  8
Layer1
 10
741.704
 20
348.962
  0
SEQEND
  0
TEXT
  8
Layer1
 62
7
 10
733.851
 20
337.998
 72
1
 11
733.851
 21
337.998
 40
6
 41
1
  1
25ストローク 
  0
LINE
  8
Layer1
  6
CONTINUOUS
 62
7
 10
898.128
 20
349.997
 11
951.971
 21
349.997
  0
TEXT
  8
Layer1
 62
7
 10
963.681
 20
394.011
 72
1
 11
963.681
 21
394.011
 40
6
 41
1
 50
90
  1
 115.2 
  0
LINE
  8
Layer1
  6
CONTINUOUS
 62
7
 10
898.135
 20
465.197
 11
965.681
 21
465.197
  0
LINE
  8
Layer1
  6
CONTINUOUS
 62
7
 10
898.082
 20
349.997
 11
965.681
 21
349.997
  0
POLYLINE
  8
Layer1
  6
CONTINUOUS
 62
7
 66
1
 10
0
 20
0
 30
0
  0
VERTEX
  8
Layer1
 10
963.681
 20
465.197
  0
VERTEX
  8
Layer1
 10
963.681
 20
349.997
  0
SEQEND
  0
POLYLINE
  8
Layer1
  6
CONTINUOUS
 62
7
 66
1
 10
0
 20
0
 30
0
 70
1
  0
VERTEX
  8
Layer1
 10
962.128
 20
459.402
  0
VERTEX
  8
Layer1
 10
963.681
 20
465.197
  0
VERTEX
  8
Layer1
 10
965.234
 20
459.402
  0
SEQEND
  0
POLYLINE
  8
Layer1
  6
CONTINUOUS
 62
7
 66
1
 10
0
 20
0
 30
0
 70
1
  0
VERTEX
  8
Layer1
 10
965.234
 20
355.793
  0
VERTEX
  8
Layer1
 10
963.681
 20
349.997
  0
VERTEX
  8
Layer1
 10
962.128
 20
355.793
  0
SEQEND
  0
TEXT
  8
Layer1
 62
7
 10
977.693
 20
422.497
 72
1
 11
977.693
 21
422.497
 40
6
 41
1
 50
90
  1
 145 
  0
LINE
  8
Layer1
  6
CONTINUOUS
 62
7
 10
897.16
 20
494.997
 11
979.693
 21
494.997
  0
LINE
  8
Layer1
  6
CONTINUOUS
 62
7
 10
963.681
 20
349.997
 11
979.693
 21
349.997
  0
POLYLINE
  8
Layer1
  6
CONTINUOUS
 62
7
 66
1
 10
0
 20
0
 30
0
  0
VERTEX
  8
Layer1
 10
977.693
 20
494.997
  0
VERTEX
  8
Layer1
 10
977.693
 20
349.997
  0
SEQEND
  0
POLYLINE
  8
Layer1
  6
CONTINUOUS
 62
7
 66
1
 10
0
 20
0
 30
0
 70
1
  0
VERTEX
  8
Layer1
 10
976.14
 20
489.202
  0
VERTEX
  8
Layer1
 10
977.693
 20
494.997
  0
VERTEX
  8
Layer1
 10
979.245
 20
489.202
  0
SEQEND
  0
POLYLINE
  8
Layer1
  6
CONTINUOUS
 62
7
 66
1
 10
0
 20
0
 30
0
 70
1
  0
VERTEX
  8
Layer1
 10
979.245
 20
355.793
  0
VERTEX
  8
Layer1
 10
977.693
 20
349.997
  0
VERTEX
  8
Layer1
 10
976.14
 20
355.793
  0
SEQEND
  0
TEXT
  8
Layer1
 62
7
 10
961.501
 20
429.342
 72
1
 11
961.501
 21
429.342
 40
6
 41
1
 50
90
  1
(シャットハイト） 
  0
TEXT
  8
Layer1
 62
7
 10
977.693
 20
455.128
 72
1
 11
977.693
 21
455.128
 40
6
 41
1
 50
90
  1
(オープンハイト）
  0
TEXT
  8
Layer1
 62
7
 10
875.558
 20
451.952
 72
1
 11
875.558
 21
451.952
 40
6
 41
1
 50
19.9758
  1
 40°
  0
ARC
  8
Layer1
  6
CONTINUOUS
 62
7
 10
898.072
 20
390.012
 40
65.9048
 50
89.9517
 51
130
  0
LINE
  8
Layer1
  6
CONTINUOUS
 62
7
 10
898.13
 20
409.031
 11
898.13
 21
444.444
  0
LINE
  8
Layer1
  6
CONTINUOUS
 62
7
 10
886.13
 20
351.174
 11
886.13
 21
373.174
  0
LINE
  8
Layer1
  6
CONTINUOUS
 62
7
 10
874.13
 20
351.174
 11
874.13
 21
373.174
  0
LINE
  8
Layer1
  6
CONTINUOUS
 62
7
 10
874.13
 20
373.174
 11
886.13
 21
373.174
  0
LINE
  8
Layer1
  6
CONTINUOUS
 62
7
 10
897.128
 20
369.997
 11
886.671
 21
369.997
  0
LINE
  8
Layer1
  6
DASHED1
 62
7
 10
877.13
 20
363.784
 11
877.13
 21
385.174
  0
LINE
  8
Layer1
  6
DASHED1
 62
7
 10
883.13
 20
374.174
 11
883.13
 21
385.174
  0
LINE
  8
Layer1
  6
DASHED1
 62
7
 10
877.13
 20
385.174
 11
883.13
 21
385.174
  0
LINE
  8
Layer1
  6
DASHED1
 62
7
 10
877.63
 20
363.8
 11
877.63
 21
388.731
  0
LINE
  8
Layer1
  6
DASHED1
 62
7
 10
882.63
 20
364.161
 11
882.63
 21
388.731
  0
LINE
  8
Layer1
  6
CONTINUOUS
 62
7
 10
880.13
 20
390.174
 11
882.63
 21
388.731
  0
LINE
  8
Layer1
  6
CONTINUOUS
 62
7
 10
880.13
 20
390.174
 11
877.63
 21
388.731
  0
LINE
  8
Layer1
  6
DASHED1
 62
7
 10
877.63
 20
388.731
 11
882.63
 21
388.731
  0
LINE
  8
Layer1
  6
CONTINUOUS
 62
7
 10
882.63
 20
388.731
 11
882.309
 21
388.731
  0
LINE
  8
Layer1
  6
CONTINUOUS
 62
7
 10
883.13
 20
385.174
 11
882.005
 21
385.174
  0
LINE
  8
Layer1
  6
CONTINUOUS
 62
7
 10
877.13
 20
385.174
 11
877.13
 21
384.274
  0
LINE
  8
Layer1
  6
DASHED1
 62
7
 10
883.13
 20
385.174
 11
883.13
 21
364.555
  0
LINE
  8
Layer1
  6
CONTINUOUS
 62
7
 10
876.13
 20
373.174
 11
884.13
 21
373.174
  0
LINE
  8
Layer1
  6
CONTINUOUS
 62
7
 10
886.13
 20
351.174
 11
874.13
 21
351.174
  0
LINE
  8
Layer1
  6
PHANTOM1
 62
7
 10
874.13
 20
349.997
 11
874.13
 21
354.497
  0
LINE
  8
Layer1
  6
CONTINUOUS
 62
7
 10
886.716
 20
349.997
 11
886.716
 21
369.997
  0
LINE
  8
Layer1
  6
CONTINUOUS
 62
7
 10
884.13
 20
352.174
 11
876.13
 21
352.174
  0
LINE
  8
Layer1
  6
CONTINUOUS
 62
7
 10
875.13
 20
353.174
 11
875.13
 21
358.174
  0
LINE
  8
Layer1
  6
CONTINUOUS
 62
7
 10
885.13
 20
353.174
 11
885.13
 21
358.174
  0
LINE
  8
Layer1
  6
CONTINUOUS
 62
7
 10
874.63
 20
358.174
 11
885.63
 21
358.174
  0
LINE
  8
Layer1
  6
CONTINUOUS
 62
7
 10
876.13
 20
352.174
 11
875.13
 21
353.174
  0
LINE
  8
Layer1
  6
CONTINUOUS
 62
7
 10
884.13
 20
352.174
 11
885.13
 21
353.174
  0
LINE
  8
Layer1
  6
CONTINUOUS
 62
7
 10
875.13
 20
353.174
 11
885.13
 21
353.174
  0
LINE
  8
Layer1
  6
CONTINUOUS
 62
7
 10
883.13
 20
385.174
 11
882.63
 21
386.04
  0
LINE
  8
Layer1
  6
CONTINUOUS
 62
7
 10
877.13
 20
385.174
 11
877.63
 21
386.04
  0
LINE
  8
Layer1
  6
DASHED1
 62
7
 10
877.63
 20
386.04
 11
882.63
 21
386.04
  0
POLYLINE
  8
Layer1
  6
CONTINUOUS
 62
7
 66
1
 10
0
 20
0
 30
0
  0
VERTEX
  8
Layer1
 10
874.13
 20
362.174
  0
VERTEX
  8
Layer1
 10
874.317
 20
362.315
  0
VERTEX
  8
Layer1
 10
874.504
 20
362.454
  0
VERTEX
  8
Layer1
 10
874.691
 20
362.592
  0
VERTEX
  8
Layer1
 10
874.878
 20
362.728
  0
VERTEX
  8
Layer1
 10
875.064
 20
362.859
  0
VERTEX
  8
Layer1
 10
875.254
 20
362.986
  0
VERTEX
  8
Layer1
 10
875.442
 20
363.107
  0
VERTEX
  8
Layer1
 10
875.631
 20
363.222
  0
VERTEX
  8
Layer1
 10
875.822
 20
363.329
  0
VERTEX
  8
Layer1
 10
876.013
 20
363.428
  0
VERTEX
  8
Layer1
 10
876.205
 20
363.517
  0
VERTEX
  8
Layer1
 10
876.398
 20
363.596
  0
VERTEX
  8
Layer1
 10
876.592
 20
363.664
  0
VERTEX
  8
Layer1
 10
876.788
 20
363.72
  0
VERTEX
  8
Layer1
 10
876.985
 20
363.763
  0
VERTEX
  8
Layer1
 10
877.183
 20
363.792
  0
VERTEX
  8
Layer1
 10
877.383
 20
363.806
  0
VERTEX
  8
Layer1
 10
877.585
 20
363.804
  0
VERTEX
  8
Layer1
 10
877.788
 20
363.786
  0
VERTEX
  8
Layer1
 10
877.992
 20
363.752
  0
VERTEX
  8
Layer1
 10
878.198
 20
363.707
  0
VERTEX
  8
Layer1
 10
878.405
 20
363.653
  0
VERTEX
  8
Layer1
 10
878.614
 20
363.592
  0
VERTEX
  8
Layer1
 10
878.822
 20
363.527
  0
VERTEX
  8
Layer1
 10
879.029
 20
363.462
  0
VERTEX
  8
Layer1
 10
879.237
 20
363.398
  0
VERTEX
  8
Layer1
 10
879.445
 20
363.339
  0
VERTEX
  8
Layer1
 10
879.65
 20
363.288
  0
VERTEX
  8
Layer1
 10
879.856
 20
363.247
  0
VERTEX
  8
Layer1
 10
880.058
 20
363.219
  0
VERTEX
  8
Layer1
 10
880.26
 20
363.207
  0
VERTEX
  8
Layer1
 10
880.46
 20
363.212
  0
VERTEX
  8
Layer1
 10
880.658
 20
363.231
  0
VERTEX
  8
Layer1
 10
880.852
 20
363.266
  0
VERTEX
  8
Layer1
 10
881.047
 20
363.314
  0
VERTEX
  8
Layer1
 10
881.239
 20
363.375
  0
VERTEX
  8
Layer1
 10
881.429
 20
363.448
  0
VERTEX
  8
Layer1
 10
881.619
 20
363.533
  0
VERTEX
  8
Layer1
 10
881.806
 20
363.628
  0
VERTEX
  8
Layer1
 10
881.991
 20
363.732
  0
VERTEX
  8
Layer1
 10
882.176
 20
363.845
  0
VERTEX
  8
Layer1
 10
882.359
 20
363.966
  0
VERTEX
  8
Layer1
 10
882.539
 20
364.094
  0
VERTEX
  8
Layer1
 10
882.72
 20
364.227
  0
VERTEX
  8
Layer1
 10
882.899
 20
364.367
  0
VERTEX
  8
Layer1
 10
883.077
 20
364.51
  0
VERTEX
  8
Layer1
 10
883.253
 20
364.657
  0
VERTEX
  8
Layer1
 10
883.428
 20
364.807
  0
VERTEX
  8
Layer1
 10
883.602
 20
364.959
  0
VERTEX
  8
Layer1
 10
883.775
 20
365.111
  0
VERTEX
  8
Layer1
 10
883.948
 20
365.264
  0
VERTEX
  8
Layer1
 10
884.12
 20
365.416
  0
VERTEX
  8
Layer1
 10
884.29
 20
365.567
  0
VERTEX
  8
Layer1
 10
884.461
 20
365.715
  0
VERTEX
  8
Layer1
 10
884.63
 20
365.86
  0
VERTEX
  8
Layer1
 10
884.798
 20
366.001
  0
VERTEX
  8
Layer1
 10
884.966
 20
366.138
  0
VERTEX
  8
Layer1
 10
885.133
 20
366.272
  0
VERTEX
  8
Layer1
 10
885.299
 20
366.403
  0
VERTEX
  8
Layer1
 10
885.467
 20
366.532
  0
VERTEX
  8
Layer1
 10
885.633
 20
366.659
  0
VERTEX
  8
Layer1
 10
885.798
 20
366.785
  0
VERTEX
  8
Layer1
 10
885.965
 20
366.91
  0
VERTEX
  8
Layer1
 10
886.13
 20
367.035
  0
SEQEND
  0
LINE
  8
Layer1
  6
CONTINUOUS
 62
7
 10
883.13
 20
364.555
 11
883.13
 21
358.174
  0
LINE
  8
Layer1
  6
CONTINUOUS
 62
7
 10
882.63
 20
364.161
 11
882.63
 21
358.174
  0
LINE
  8
Layer1
  6
CONTINUOUS
 62
7
 10
877.63
 20
363.801
 11
877.63
 21
358.174
  0
LINE
  8
Layer1
  6
CONTINUOUS
 62
7
 10
877.13
 20
363.784
 11
877.13
 21
358.174
  0
LINE
  8
Layer1
  6
CONTINUOUS
 62
7
 10
875.13
 20
358.174
 11
875.13
 21
353.174
  0
LINE
  8
Layer1
  6
CONTINUOUS
 62
7
 10
885.13
 20
358.174
 11
885.13
 21
353.174
  0
LINE
  8
Layer1
  6
CONTINUOUS
 62
7
 10
874.63
 20
351.174
 11
874.63
 21
358.174
  0
LINE
  8
Layer1
  6
CONTINUOUS
 62
7
 10
885.63
 20
351.174
 11
885.63
 21
358.174
  0
LINE
  8
Layer1
  6
CONTINUOUS
 62
7
 10
875.63
 20
357.924
 11
875.63
 21
353.424
  0
LINE
  8
Layer1
  6
CONTINUOUS
 62
7
 10
876.63
 20
357.424
 11
876.63
 21
353.924
  0
LINE
  8
Layer1
  6
CONTINUOUS
 62
7
 10
877.63
 20
356.924
 11
877.63
 21
354.424
  0
LINE
  8
Layer1
  6
CONTINUOUS
 62
7
 10
880.13
 20
358.174
 11
880.13
 21
353.174
  0
LINE
  8
Layer1
  6
CONTINUOUS
 62
7
 10
874.13
 20
367.997
 11
874.13
 21
349.997
  0
LINE
  8
Layer1
  6
DASHED1
 62
7
 10
859.835
 20
349.997
 11
862.153
 21
349.997
  0
LINE
  8
Layer1
  6
CONTINUOUS
 62
7
 10
874.13
 20
367.997
 11
872.198
 21
367.997
  0
LINE
  8
Layer1
  6
DASHED1
 62
7
 10
858.289
 20
363.503
 11
860.607
 21
363.503
  0
LINE
  8
Layer1
  6
DASHED1
 62
7
 10
859.835
 20
354.515
 11
862.153
 21
354.515
  0
LINE
  8
Layer1
  6
DASHED1
 62
7
 10
860.607
 20
367.997
 11
860.607
 21
363.503
  0
LINE
  8
Layer1
  6
DASHED1
 62
7
 10
862.153
 20
354.515
 11
862.153
 21
349.997
  0
LINE
  8
Layer1
  6
DASHED1
 62
7
 10
860.607
 20
363.503
 11
862.153
 21
354.515
  0
LINE
  8
Layer1
  6
DASHED1
 62
7
 10
860.801
 20
367.997
 11
861.38
 21
359.009
  0
LINE
  8
Layer1
  6
CONTINUOUS
 62
7
 10
864.471
 20
349.997
 11
866.789
 21
349.997
  0
LINE
  8
Layer1
  6
CONTINUOUS
 62
7
 10
865.244
 20
367.997
 11
862.926
 21
367.997
  0
LINE
  8
Layer1
  6
CONTINUOUS
 62
7
 10
862.926
 20
363.503
 11
865.244
 21
363.503
  0
LINE
  8
Layer1
  6
CONTINUOUS
 62
7
 10
864.471
 20
354.515
 11
866.789
 21
354.515
  0
LINE
  8
Layer1
  6
CONTINUOUS
 62
7
 10
865.244
 20
367.997
 11
865.244
 21
363.503
  0
LINE
  8
Layer1
  6
CONTINUOUS
 62
7
 10
862.926
 20
367.997
 11
862.926
 21
363.503
  0
LINE
  8
Layer1
  6
CONTINUOUS
 62
7
 10
864.471
 20
354.515
 11
864.471
 21
349.997
  0
LINE
  8
Layer1
  6
CONTINUOUS
 62
7
 10
866.789
 20
354.515
 11
866.789
 21
349.997
  0
LINE
  8
Layer1
  6
CONTINUOUS
 62
7
 10
862.926
 20
363.503
 11
864.471
 21
354.515
  0
LINE
  8
Layer1
  6
CONTINUOUS
 62
7
 10
865.244
 20
363.503
 11
866.789
 21
354.515
  0
LINE
  8
Layer1
  6
CONTINUOUS
 62
7
 10
863.698
 20
359.009
 11
864.471
 21
349.997
  0
LINE
  8
Layer1
  6
CONTINUOUS
 62
7
 10
865.437
 20
367.997
 11
866.016
 21
359.009
  0
LINE
  8
Layer1
  6
CONTINUOUS
 62
7
 10
869.107
 20
349.997
 11
871.426
 21
349.997
  0
LINE
  8
Layer1
  6
CONTINUOUS
 62
7
 10
869.88
 20
367.997
 11
867.562
 21
367.997
  0
LINE
  8
Layer1
  6
CONTINUOUS
 62
7
 10
867.562
 20
363.503
 11
869.88
 21
363.503
  0
LINE
  8
Layer1
  6
CONTINUOUS
 62
7
 10
869.107
 20
354.515
 11
871.426
 21
354.515
  0
LINE
  8
Layer1
  6
CONTINUOUS
 62
7
 10
869.88
 20
367.997
 11
869.88
 21
363.503
  0
LINE
  8
Layer1
  6
CONTINUOUS
 62
7
 10
867.562
 20
367.997
 11
867.562
 21
363.503
  0
LINE
  8
Layer1
  6
CONTINUOUS
 62
7
 10
869.107
 20
354.515
 11
869.107
 21
349.997
  0
LINE
  8
Layer1
  6
CONTINUOUS
 62
7
 10
871.426
 20
354.515
 11
871.426
 21
349.997
  0
LINE
  8
Layer1
  6
CONTINUOUS
 62
7
 10
867.562
 20
363.503
 11
869.107
 21
354.515
  0
LINE
  8
Layer1
  6
CONTINUOUS
 62
7
 10
869.88
 20
363.503
 11
871.426
 21
354.515
  0
LINE
  8
Layer1
  6
CONTINUOUS
 62
7
 10
868.335
 20
359.009
 11
869.107
 21
349.997
  0
LINE
  8
Layer1
  6
CONTINUOUS
 62
7
 10
870.073
 20
367.997
 11
870.653
 21
359.009
  0
LINE
  8
Layer1
  6
CONTINUOUS
 62
7
 10
873.744
 20
349.997
 11
874.13
 21
349.997
  0
LINE
  8
Layer1
  6
CONTINUOUS
 62
7
 10
872.198
 20
363.503
 11
874.13
 21
363.497
  0
LINE
  8
Layer1
  6
CONTINUOUS
 62
7
 10
873.744
 20
354.515
 11
874.13
 21
354.497
  0
LINE
  8
Layer1
  6
CONTINUOUS
 62
7
 10
872.198
 20
367.997
 11
872.198
 21
363.503
  0
LINE
  8
Layer1
  6
CONTINUOUS
 62
7
 10
873.744
 20
354.515
 11
873.744
 21
349.997
  0
LINE
  8
Layer1
  6
CONTINUOUS
 62
7
 10
872.198
 20
363.503
 11
873.744
 21
354.515
  0
LINE
  8
Layer1
  6
CONTINUOUS
 62
7
 10
872.971
 20
359.009
 11
873.744
 21
349.997
  0
LINE
  8
Layer1
  6
DASHED1
 62
7
 10
860.607
 20
367.997
 11
858.289
 21
367.997
  0
LINE
  8
Layer1
  6
CONTINUOUS
 62
7
 10
859.835
 20
349.997
 11
862.153
 21
349.997
  0
LINE
  8
Layer1
  6
CONTINUOUS
 62
7
 10
860.607
 20
367.997
 11
858.289
 21
367.997
  0
LINE
  8
Layer1
  6
CONTINUOUS
 62
7
 10
858.289
 20
363.503
 11
860.607
 21
363.503
  0
LINE
  8
Layer1
  6
CONTINUOUS
 62
7
 10
859.835
 20
354.515
 11
862.153
 21
354.515
  0
LINE
  8
Layer1
  6
CONTINUOUS
 62
7
 10
860.607
 20
367.997
 11
860.607
 21
363.503
  0
LINE
  8
Layer1
  6
CONTINUOUS
 62
7
 10
858.289
 20
367.997
 11
858.289
 21
363.503
  0
LINE
  8
Layer1
  6
CONTINUOUS
 62
7
 10
859.835
 20
354.515
 11
859.835
 21
349.997
  0
LINE
  8
Layer1
  6
CONTINUOUS
 62
7
 10
862.153
 20
354.515
 11
862.153
 21
349.997
  0
LINE
  8
Layer1
  6
CONTINUOUS
 62
7
 10
858.289
 20
363.503
 11
859.835
 21
354.515
  0
LINE
  8
Layer1
  6
CONTINUOUS
 62
7
 10
860.607
 20
363.503
 11
862.153
 21
354.515
  0
LINE
  8
Layer1
  6
CONTINUOUS
 62
7
 10
859.062
 20
359.009
 11
859.835
 21
349.997
  0
LINE
  8
Layer1
  6
CONTINUOUS
 62
7
 10
860.801
 20
367.997
 11
861.38
 21
359.009
  0
LINE
  8
Layer1
  6
CONTINUOUS
 62
7
 10
773.13
 20
350.997
 11
774.13
 21
349.997
  0
LINE
  8
Layer1
  6
CONTINUOUS
 62
7
 10
769.568
 20
419.997
 11
873.543
 21
419.997
  0
LINE
  8
Layer1
  6
CONTINUOUS
 62
7
 10
745.63
 20
370.997
 11
745.63
 21
418.997
  0
LINE
  8
Layer1
  6
CONTINUOUS
 62
7
 10
767.63
 20
369.997
 11
746.63
 21
369.997
  0
LINE
  8
Layer1
  6
CONTINUOUS
 62
7
 10
767.63
 20
419.997
 11
746.63
 21
419.997
  0
LINE
  8
Layer1
  6
CONTINUOUS
 62
7
 10
768.63
 20
418.997
 11
768.63
 21
415.497
  0
LINE
  8
Layer1
  6
CONTINUOUS
 62
7
 10
745.63
 20
418.997
 11
746.63
 21
419.997
  0
LINE
  8
Layer1
  6
CONTINUOUS
 62
7
 10
745.63
 20
370.997
 11
746.63
 21
369.997
  0
LINE
  8
Layer1
  6
CONTINUOUS
 62
7
 10
767.63
 20
369.997
 11
768.63
 21
370.997
  0
LINE
  8
Layer1
  6
CONTINUOUS
 62
7
 10
768.63
 20
370.997
 11
769.63
 21
369.997
  0
LINE
  8
Layer1
  6
CONTINUOUS
 62
7
 10
767.63
 20
419.997
 11
768.63
 21
418.997
  0
LINE
  8
Layer1
  6
CONTINUOUS
 62
7
 10
768.63
 20
418.997
 11
769.63
 21
419.997
  0
LINE
  8
Layer1
  6
CENTER1
 62
7
 10
799.24
 20
412.497
 11
738.743
 21
412.497
  0
LINE
  8
Layer1
  6
CENTER1
 62
7
 10
795.687
 20
377.497
 11
739.709
 21
377.497
  0
LINE
  8
Layer1
  6
CONTINUOUS
 62
7
 10
746.63
 20
408.497
 11
746.63
 21
416.497
  0
LINE
  8
Layer1
  6
CONTINUOUS
 62
7
 10
747.63
 20
417.497
 11
752.63
 21
417.497
  0
LINE
  8
Layer1
  6
CONTINUOUS
 62
7
 10
747.63
 20
407.497
 11
752.63
 21
407.497
  0
LINE
  8
Layer1
  6
CONTINUOUS
 62
7
 10
752.63
 20
417.997
 11
752.63
 21
406.997
  0
LINE
  8
Layer1
  6
DASHED1
 62
7
 10
785.63
 20
415.497
 11
771.38
 21
415.497
  0
LINE
  8
Layer1
  6
DASHED1
 62
7
 10
785.63
 20
409.497
 11
770.688
 21
409.497
  0
LINE
  8
Layer1
  6
CONTINUOUS
 62
7
 10
752.63
 20
414.997
 11
773.168
 21
414.997
  0
LINE
  8
Layer1
  6
CONTINUOUS
 62
7
 10
752.63
 20
409.997
 11
770.938
 21
409.997
  0
LINE
  8
Layer1
  6
CONTINUOUS
 62
7
 10
746.63
 20
408.497
 11
747.63
 21
407.497
  0
LINE
  8
Layer1
  6
CONTINUOUS
 62
7
 10
752.63
 20
417.997
 11
745.63
 21
417.997
  0
LINE
  8
Layer1
  6
CONTINUOUS
 62
7
 10
752.63
 20
406.997
 11
745.63
 21
406.997
  0
LINE
  8
Layer1
  6
CONTINUOUS
 62
7
 10
747.63
 20
417.497
 11
747.63
 21
407.497
  0
POLYLINE
  8
Layer1
  6
CONTINUOUS
 62
7
 66
1
 10
0
 20
0
 30
0
  0
VERTEX
  8
Layer1
 10
771.25
 20
419.997
  0
VERTEX
  8
Layer1
 10
771.257
 20
419.677
  0
VERTEX
  8
Layer1
 10
771.265
 20
419.357
  0
VERTEX
  8
Layer1
 10
771.273
 20
419.036
  0
VERTEX
  8
Layer1
 10
771.282
 20
418.713
  0
VERTEX
  8
Layer1
 10
771.29
 20
418.389
  0
VERTEX
  8
Layer1
 10
771.298
 20
418.062
  0
VERTEX
  8
Layer1
 10
771.308
 20
417.732
  0
VERTEX
  8
Layer1
 10
771.317
 20
417.4
  0
VERTEX
  8
Layer1
 10
771.327
 20
417.063
  0
VERTEX
  8
Layer1
 10
771.338
 20
416.723
  0
VERTEX
  8
Layer1
 10
771.35
 20
416.378
  0
VERTEX
  8
Layer1
 10
771.361
 20
416.028
  0
VERTEX
  8
Layer1
 10
771.373
 20
415.673
  0
VERTEX
  8
Layer1
 10
771.388
 20
415.311
  0
VERTEX
  8
Layer1
 10
771.403
 20
414.944
  0
VERTEX
  8
Layer1
 10
771.417
 20
414.571
  0
VERTEX
  8
Layer1
 10
771.428
 20
414.195
  0
VERTEX
  8
Layer1
 10
771.438
 20
413.816
  0
VERTEX
  8
Layer1
 10
771.444
 20
413.438
  0
VERTEX
  8
Layer1
 10
771.444
 20
413.06
  0
VERTEX
  8
Layer1
 10
771.437
 20
412.685
  0
VERTEX
  8
Layer1
 10
771.42
 20
412.314
  0
VERTEX
  8
Layer1
 10
771.394
 20
411.949
  0
VERTEX
  8
Layer1
 10
771.358
 20
411.591
  0
VERTEX
  8
Layer1
 10
771.308
 20
411.242
  0
VERTEX
  8
Layer1
 10
771.245
 20
410.903
  0
VERTEX
  8
Layer1
 10
771.167
 20
410.577
  0
VERTEX
  8
Layer1
 10
771.072
 20
410.264
  0
VERTEX
  8
Layer1
 10
770.958
 20
409.966
  0
VERTEX
  8
Layer1
 10
770.826
 20
409.684
  0
VERTEX
  8
Layer1
 10
770.673
 20
409.421
  0
VERTEX
  8
Layer1
 10
770.496
 20
409.178
  0
VERTEX
  8
Layer1
 10
770.298
 20
408.956
  0
VERTEX
  8
Layer1
 10
770.074
 20
408.756
  0
VERTEX
  8
Layer1
 10
769.826
 20
408.58
  0
VERTEX
  8
Layer1
 10
769.554
 20
408.422
  0
VERTEX
  8
Layer1
 10
769.266
 20
408.281
  0
VERTEX
  8
Layer1
 10
768.963
 20
408.15
  0
VERTEX
  8
Layer1
 10
768.647
 20
408.027
  0
VERTEX
  8
Layer1
 10
768.322
 20
407.908
  0
VERTEX
  8
Layer1
 10
767.994
 20
407.788
  0
VERTEX
  8
Layer1
 10
767.663
 20
407.665
  0
VERTEX
  8
Layer1
 10
767.334
 20
407.533
  0
VERTEX
  8
Layer1
 10
767.01
 20
407.388
  0
VERTEX
  8
Layer1
 10
766.696
 20
407.229
  0
VERTEX
  8
Layer1
 10
766.39
 20
407.053
  0
VERTEX
  8
Layer1
 10
766.092
 20
406.864
  0
VERTEX
  8
Layer1
 10
765.801
 20
406.664
  0
VERTEX
  8
Layer1
 10
765.516
 20
406.455
  0
VERTEX
  8
Layer1
 10
765.236
 20
406.241
  0
VERTEX
  8
Layer1
 10
764.962
 20
406.024
  0
VERTEX
  8
Layer1
 10
764.689
 20
405.805
  0
VERTEX
  8
Layer1
 10
764.418
 20
405.588
  0
VERTEX
  8
Layer1
 10
764.149
 20
405.376
  0
VERTEX
  8
Layer1
 10
763.88
 20
405.169
  0
VERTEX
  8
Layer1
 10
763.611
 20
404.973
  0
VERTEX
  8
Layer1
 10
763.34
 20
404.787
  0
VERTEX
  8
Layer1
 10
763.064
 20
404.616
  0
VERTEX
  8
Layer1
 10
762.785
 20
404.462
  0
VERTEX
  8
Layer1
 10
762.502
 20
404.327
  0
VERTEX
  8
Layer1
 10
762.212
 20
404.213
  0
VERTEX
  8
Layer1
 10
761.916
 20
404.124
  0
VERTEX
  8
Layer1
 10
761.611
 20
404.061
  0
VERTEX
  8
Layer1
 10
761.298
 20
404.023
  0
VERTEX
  8
Layer1
 10
760.978
 20
404.007
  0
VERTEX
  8
Layer1
 10
760.654
 20
404.011
  0
VERTEX
  8
Layer1
 10
760.322
 20
404.03
  0
VERTEX
  8
Layer1
 10
759.987
 20
404.061
  0
VERTEX
  8
Layer1
 10
759.649
 20
404.103
  0
VERTEX
  8
Layer1
 10
759.307
 20
404.15
  0
VERTEX
  8
Layer1
 10
758.964
 20
404.202
  0
VERTEX
  8
Layer1
 10
758.619
 20
404.253
  0
VERTEX
  8
Layer1
 10
758.274
 20
404.302
  0
VERTEX
  8
Layer1
 10
757.928
 20
404.344
  0
VERTEX
  8
Layer1
 10
757.584
 20
404.378
  0
VERTEX
  8
Layer1
 10
757.244
 20
404.399
  0
VERTEX
  8
Layer1
 10
756.904
 20
404.406
  0
VERTEX
  8
Layer1
 10
756.57
 20
404.393
  0
VERTEX
  8
Layer1
 10
756.238
 20
404.361
  0
VERTEX
  8
Layer1
 10
755.911
 20
404.309
  0
VERTEX
  8
Layer1
 10
755.589
 20
404.241
  0
VERTEX
  8
Layer1
 10
755.269
 20
404.156
  0
VERTEX
  8
Layer1
 10
754.951
 20
404.058
  0
VERTEX
  8
Layer1
 10
754.635
 20
403.947
  0
VERTEX
  8
Layer1
 10
754.323
 20
403.826
  0
VERTEX
  8
Layer1
 10
754.013
 20
403.695
  0
VERTEX
  8
Layer1
 10
753.702
 20
403.558
  0
VERTEX
  8
Layer1
 10
753.394
 20
403.415
  0
VERTEX
  8
Layer1
 10
753.087
 20
403.268
  0
VERTEX
  8
Layer1
 10
752.779
 20
403.119
  0
VERTEX
  8
Layer1
 10
752.471
 20
402.969
  0
VERTEX
  8
Layer1
 10
752.163
 20
402.82
  0
VERTEX
  8
Layer1
 10
751.855
 20
402.674
  0
VERTEX
  8
Layer1
 10
751.544
 20
402.533
  0
VERTEX
  8
Layer1
 10
751.234
 20
402.397
  0
VERTEX
  8
Layer1
 10
750.92
 20
402.27
  0
VERTEX
  8
Layer1
 10
750.605
 20
402.152
  0
VERTEX
  8
Layer1
 10
750.286
 20
402.045
  0
VERTEX
  8
Layer1
 10
749.967
 20
401.95
  0
VERTEX
  8
Layer1
 10
749.642
 20
401.867
  0
VERTEX
  8
Layer1
 10
749.318
 20
401.795
  0
VERTEX
  8
Layer1
 10
748.99
 20
401.734
  0
VERTEX
  8
Layer1
 10
748.659
 20
401.681
  0
VERTEX
  8
Layer1
 10
748.327
 20
401.636
  0
VERTEX
  8
Layer1
 10
747.994
 20
401.599
  0
VERTEX
  8
Layer1
 10
747.659
 20
401.567
  0
VERTEX
  8
Layer1
 10
747.322
 20
401.542
  0
VERTEX
  8
Layer1
 10
746.985
 20
401.521
  0
VERTEX
  8
Layer1
 10
746.647
 20
401.503
  0
VERTEX
  8
Layer1
 10
746.308
 20
401.488
  0
VERTEX
  8
Layer1
 10
745.968
 20
401.475
  0
VERTEX
  8
Layer1
 10
745.63
 20
401.463
  0
SEQEND
  0
LINE
  8
Layer1
  6
CONTINUOUS
 62
7
 10
768.63
 20
409.497
 11
768.63
 21
370.997
  0
LINE
  8
Layer1
  6
CONTINUOUS
 62
7
 10
773.192
 20
419.017
 11
774.173
 21
419.997
  0
LINE
  8
Layer1
  6
CONTINUOUS
 62
7
 10
771.38
 20
415.497
 11
752.63
 21
415.497
  0
LINE
  8
Layer1
  6
DASHED1
 62
7
 10
773.168
 20
414.997
 11
786.13
 21
414.997
  0
LINE
  8
Layer1
  6
DASHED1
 62
7
 10
770.938
 20
409.997
 11
786.13
 21
409.997
  0
LINE
  8
Layer1
  6
CONTINUOUS
 62
7
 10
770.688
 20
409.497
 11
752.63
 21
409.497
  0
LINE
  8
Layer1
  6
CONTINUOUS
 62
7
 10
747.63
 20
417.497
 11
752.63
 21
417.497
  0
LINE
  8
Layer1
  6
CONTINUOUS
 62
7
 10
746.63
 20
416.497
 11
747.63
 21
417.497
  0
LINE
  8
Layer1
  6
CONTINUOUS
 62
7
 10
752.63
 20
417.497
 11
747.63
 21
417.497
  0
LINE
  8
Layer1
  6
CONTINUOUS
 62
7
 10
752.38
 20
416.997
 11
747.88
 21
416.997
  0
LINE
  8
Layer1
  6
CONTINUOUS
 62
7
 10
751.88
 20
415.997
 11
748.38
 21
415.997
  0
LINE
  8
Layer1
  6
CONTINUOUS
 62
7
 10
751.38
 20
414.997
 11
748.88
 21
414.997
  0
LINE
  8
Layer1
  6
CONTINUOUS
 62
7
 10
773.111
 20
368.997
 11
774.111
 21
367.997
  0
LINE
  8
Layer1
  6
CONTINUOUS
 62
7
 10
774.13
 20
368.029
 11
773.13
 21
367.029
  0
LINE
  8
Layer1
  6
PHANTOM1
 62
7
 10
720.63
 20
370.997
 11
720.63
 21
418.997
  0
LINE
  8
Layer1
  6
PHANTOM1
 62
7
 10
742.63
 20
369.997
 11
721.63
 21
369.997
  0
LINE
  8
Layer1
  6
PHANTOM1
 62
7
 10
742.63
 20
419.997
 11
721.63
 21
419.997
  0
LINE
  8
Layer1
  6
PHANTOM1
 62
7
 10
720.63
 20
418.997
 11
721.63
 21
419.997
  0
LINE
  8
Layer1
  6
PHANTOM1
 62
7
 10
720.63
 20
370.997
 11
721.63
 21
369.997
  0
LINE
  8
Layer1
  6
PHANTOM1
 62
7
 10
743.63
 20
370.997
 11
743.63
 21
418.997
  0
LINE
  8
Layer1
  6
PHANTOM1
 62
7
 10
743.63
 20
418.997
 11
742.63
 21
419.997
  0
LINE
  8
Layer1
  6
PHANTOM1
 62
7
 10
743.63
 20
370.997
 11
742.63
 21
369.997
  0
LINE
  8
Layer1
  6
CONTINUOUS
 62
7
 10
720.63
 20
366.997
 11
720.63
 21
347.997
  0
LINE
  8
Layer1
  6
CONTINUOUS
 62
7
 10
745.63
 20
366.997
 11
745.63
 21
347.997
  0
TEXT
  8
Layer1
 62
7
 10
757.13
 20
443.021
 72
1
 11
757.13
 21
443.021
 40
6
 41
1
  1
 23 
  0
TEXT
  8
Layer1
 62
7
 10
785.461
 20
443.075
 72
1
 11
785.461
 21
443.075
 40
6
 41
1
  1
 4.5 
  0
LINE
  8
Layer1
  6
CONTINUOUS
 62
7
 10
768.63
 20
418.997
 11
768.63
 21
445.021
  0
LINE
  8
Layer1
  6
CONTINUOUS
 62
7
 10
745.63
 20
418.997
 11
745.63
 21
445.021
  0
POLYLINE
  8
Layer1
  6
CONTINUOUS
 62
7
 66
1
 10
0
 20
0
 30
0
  0
VERTEX
  8
Layer1
 10
768.63
 20
443.021
  0
VERTEX
  8
Layer1
 10
745.63
 20
443.021
  0
SEQEND
  0
POLYLINE
  8
Layer1
  6
CONTINUOUS
 62
7
 66
1
 10
0
 20
0
 30
0
 70
1
  0
VERTEX
  8
Layer1
 10
764.765
 20
444.057
  0
VERTEX
  8
Layer1
 10
768.63
 20
443.021
  0
VERTEX
  8
Layer1
 10
764.765
 20
441.986
  0
SEQEND
  0
POLYLINE
  8
Layer1
  6
CONTINUOUS
 62
7
 66
1
 10
0
 20
0
 30
0
 70
1
  0
VERTEX
  8
Layer1
 10
749.494
 20
441.986
  0
VERTEX
  8
Layer1
 10
745.63
 20
443.021
  0
VERTEX
  8
Layer1
 10
749.494
 20
444.057
  0
SEQEND
  0
POLYLINE
  8
Layer1
  6
CONTINUOUS
 62
7
 66
1
 10
0
 20
0
 30
0
  0
VERTEX
  8
Layer1
 10
783.171
 20
443.021
  0
VERTEX
  8
Layer1
 10
773.171
 20
443.021
  0
SEQEND
  0
POLYLINE
  8
Layer1
  6
CONTINUOUS
 62
7
 66
1
 10
0
 20
0
 30
0
 70
1
  0
VERTEX
  8
Layer1
 10
777.035
 20
441.986
  0
VERTEX
  8
Layer1
 10
773.171
 20
443.021
  0
VERTEX
  8
Layer1
 10
777.035
 20
444.057
  0
SEQEND
  0
LINE
  8
Layer1
  6
CONTINUOUS
 62
7
 10
773.171
 20
443.021
 11
768.63
 21
443.021
  0
LINE
  8
Layer1
  6
CONTINUOUS
 62
7
 10
773.13
 20
350.997
 11
773.13
 21
419.017
  0
LINE
  8
Layer1
  6
CONTINUOUS
 62
7
 10
773.13
 20
431.217
 11
773.13
 21
444.78
  0
LINE
  8
Layer1
  6
CONTINUOUS
 62
7
 10
852.111
 20
432.997
 11
853.111
 21
431.997
  0
ARC
  8
Layer1
  6
CONTINUOUS
 62
7
 10
829.611
 20
420.997
 40
1
 50
180
 51
270
  0
LINE
  8
Layer1
  6
CONTINUOUS
 62
7
 10
852.076
 20
419.997
 11
853.117
 21
421.04
  0
LINE
  8
Layer1
  6
CENTER1
 62
7
 10
894.663
 20
379.997
 11
918.558
 21
379.997
  0
LINE
  8
Layer1
  6
CONTINUOUS
 62
7
 10
898.13
 20
493.997
 11
898.13
 21
349.997
  0
LINE
  8
Layer1
  6
DASHED1
 62
7
 10
853.717
 20
457.628
 11
873.384
 21
434.189
  0
LINE
  8
Layer1
  6
DASHED1
 62
7
 10
853.717
 20
471.629
 11
881.693
 21
438.288
  0
LINE
  8
Layer1
  6
CONTINUOUS
 62
7
 10
886.88
 20
430.551
 11
897.265
 21
418.174
  0
LINE
  8
Layer1
  6
DASHED1
 62
7
 10
898.13
 20
387.585
 11
870.998
 21
419.92
  0
LINE
  8
Layer1
  6
CONTINUOUS
 62
7
 10
870.551
 20
423.564
 11
884.34
 21
435.134
  0
POLYLINE
  8
Layer1
  6
CONTINUOUS
 62
7
 66
1
 10
0
 20
0
 30
0
  0
VERTEX
  8
Layer1
 10
868.333
 20
426.207
  0
VERTEX
  8
Layer1
 10
868.412
 20
426.716
  0
VERTEX
  8
Layer1
 10
868.492
 20
427.223
  0
VERTEX
  8
Layer1
 10
868.577
 20
427.725
  0
VERTEX
  8
Layer1
 10
868.668
 20
428.222
  0
VERTEX
  8
Layer1
 10
868.769
 20
428.71
  0
VERTEX
  8
Layer1
 10
868.879
 20
429.188
  0
VERTEX
  8
Layer1
 10
869
 20
429.654
  0
VERTEX
  8
Layer1
 10
869.136
 20
430.105
  0
VERTEX
  8
Layer1
 10
869.289
 20
430.54
  0
VERTEX
  8
Layer1
 10
869.462
 20
430.956
  0
VERTEX
  8
Layer1
 10
869.654
 20
431.351
  0
VERTEX
  8
Layer1
 10
869.869
 20
431.724
  0
VERTEX
  8
Layer1
 10
870.109
 20
432.071
  0
VERTEX
  8
Layer1
 10
870.375
 20
432.392
  0
VERTEX
  8
Layer1
 10
870.669
 20
432.685
  0
VERTEX
  8
Layer1
 10
870.991
 20
432.952
  0
VERTEX
  8
Layer1
 10
871.337
 20
433.197
  0
VERTEX
  8
Layer1
 10
871.705
 20
433.421
  0
VERTEX
  8
Layer1
 10
872.094
 20
433.628
  0
VERTEX
  8
Layer1
 10
872.5
 20
433.822
  0
VERTEX
  8
Layer1
 10
872.922
 20
434.004
  0
VERTEX
  8
Layer1
 10
873.357
 20
434.179
  0
VERTEX
  8
Layer1
 10
873.804
 20
434.349
  0
VERTEX
  8
Layer1
 10
874.261
 20
434.517
  0
VERTEX
  8
Layer1
 10
874.725
 20
434.686
  0
VERTEX
  8
Layer1
 10
875.193
 20
434.859
  0
VERTEX
  8
Layer1
 10
875.664
 20
435.039
  0
VERTEX
  8
Layer1
 10
876.138
 20
435.229
  0
VERTEX
  8
Layer1
 10
876.607
 20
435.432
  0
VERTEX
  8
Layer1
 10
877.075
 20
435.651
  0
VERTEX
  8
Layer1
 10
877.537
 20
435.888
  0
VERTEX
  8
Layer1
 10
877.992
 20
436.139
  0
VERTEX
  8
Layer1
 10
878.443
 20
436.401
  0
VERTEX
  8
Layer1
 10
878.89
 20
436.669
  0
VERTEX
  8
Layer1
 10
879.331
 20
436.939
  0
VERTEX
  8
Layer1
 10
879.768
 20
437.207
  0
VERTEX
  8
Layer1
 10
880.2
 20
437.47
  0
VERTEX
  8
Layer1
 10
880.629
 20
437.723
  0
VERTEX
  8
Layer1
 10
881.053
 20
437.962
  0
VERTEX
  8
Layer1
 10
881.475
 20
438.184
  0
VERTEX
  8
Layer1
 10
881.893
 20
438.383
  0
VERTEX
  8
Layer1
 10
882.308
 20
438.557
  0
VERTEX
  8
Layer1
 10
882.721
 20
438.701
  0
VERTEX
  8
Layer1
 10
883.13
 20
438.811
  0
VERTEX
  8
Layer1
 10
883.538
 20
438.883
  0
VERTEX
  8
Layer1
 10
883.943
 20
438.913
  0
VERTEX
  8
Layer1
 10
884.346
 20
438.897
  0
VERTEX
  8
Layer1
 10
884.749
 20
438.831
  0
VERTEX
  8
Layer1
 10
885.149
 20
438.717
  0
VERTEX
  8
Layer1
 10
885.548
 20
438.56
  0
VERTEX
  8
Layer1
 10
885.948
 20
438.366
  0
VERTEX
  8
Layer1
 10
886.349
 20
438.143
  0
VERTEX
  8
Layer1
 10
886.75
 20
437.895
  0
VERTEX
  8
Layer1
 10
887.153
 20
437.629
  0
VERTEX
  8
Layer1
 10
887.557
 20
437.352
  0
VERTEX
  8
Layer1
 10
887.963
 20
437.068
  0
VERTEX
  8
Layer1
 10
888.374
 20
436.786
  0
VERTEX
  8
Layer1
 10
888.787
 20
436.51
  0
VERTEX
  8
Layer1
 10
889.205
 20
436.247
  0
VERTEX
  8
Layer1
 10
889.626
 20
436.002
  0
VERTEX
  8
Layer1
 10
890.053
 20
435.778
  0
VERTEX
  8
Layer1
 10
890.484
 20
435.573
  0
VERTEX
  8
Layer1
 10
890.918
 20
435.386
  0
VERTEX
  8
Layer1
 10
891.356
 20
435.216
  0
VERTEX
  8
Layer1
 10
891.799
 20
435.062
  0
VERTEX
  8
Layer1
 10
892.245
 20
434.924
  0
VERTEX
  8
Layer1
 10
892.693
 20
434.8
  0
VERTEX
  8
Layer1
 10
893.145
 20
434.688
  0
VERTEX
  8
Layer1
 10
893.601
 20
434.589
  0
VERTEX
  8
Layer1
 10
894.058
 20
434.501
  0
VERTEX
  8
Layer1
 10
894.516
 20
434.423
  0
VERTEX
  8
Layer1
 10
894.979
 20
434.354
  0
VERTEX
  8
Layer1
 10
895.442
 20
434.294
  0
VERTEX
  8
Layer1
 10
895.907
 20
434.24
  0
VERTEX
  8
Layer1
 10
896.373
 20
434.192
  0
VERTEX
  8
Layer1
 10
896.841
 20
434.15
  0
VERTEX
  8
Layer1
 10
897.308
 20
434.111
  0
VERTEX
  8
Layer1
 10
897.778
 20
434.076
  0
VERTEX
  8
Layer1
 10
898.246
 20
434.042
  0
VERTEX
  8
Layer1
 10
898.717
 20
434.009
  0
SEQEND
  0
LINE
  8
Layer1
  6
CONTINUOUS
 62
7
 10
873.384
 20
434.189
 11
877.446
 21
429.349
  0
LINE
  8
Layer1
  6
CONTINUOUS
 62
7
 10
881.693
 20
438.288
 11
898.13
 21
418.699
  0
LINE
  8
Layer1
  6
CONTINUOUS
 62
7
 10
888.457
 20
399.892
 11
889.606
 21
400.856
  0
LINE
  8
Layer1
  6
CONTINUOUS
 62
7
 10
897.265
 20
407.284
 11
897.265
 21
418.174
  0
LINE
  8
Layer1
  6
CONTINUOUS
 62
7
 10
879.28
 20
424.828
 11
886.176
 21
430.613
  0
LINE
  8
Layer1
  6
CONTINUOUS
 62
7
 10
886.176
 20
430.613
 11
886.88
 21
430.551
  0
LINE
  8
Layer1
  6
CONTINUOUS
 62
7
 10
872.386
 20
419.043
 11
872.325
 21
418.338
  0
LINE
  8
Layer1
  6
CONTINUOUS
 62
7
 10
888.457
 20
399.892
 11
887.751
 21
399.953
  0
LINE
  8
Layer1
  6
CONTINUOUS
 62
7
 10
879.28
 20
424.828
 11
873.535
 21
420.007
  0
LINE
  8
Layer1
  6
CONTINUOUS
 62
7
 10
886.365
 20
412.496
 11
892.149
 21
405.602
  0
LINE
  8
Layer1
  6
CONTINUOUS
 62
7
 10
897.265
 20
409.894
 11
892.149
 21
405.602
  0
LINE
  8
Layer1
  6
CONTINUOUS
 62
7
 10
895.558
 20
420.21
 11
886.365
 21
412.496
  0
LINE
  8
Layer1
  6
CONTINUOUS
 62
7
 10
887.49
 20
411.156
 11
883.659
 21
407.942
  0
LINE
  8
Layer1
  6
CONTINUOUS
 62
7
 10
891.024
 20
406.942
 11
887.195
 21
403.728
  0
LINE
  8
Layer1
  6
CENTER1
 62
7
 10
893.741
 20
428.475
 11
875.312
 21
413.012
  0
LINE
  8
Layer1
  6
CENTER1
 62
7
 10
895.614
 20
414.383
 11
873.016
 21
395.421
  0
LINE
  8
Layer1
  6
CONTINUOUS
 62
7
 10
881.196
 20
426.435
 11
888.322
 21
417.942
  0
LINE
  8
Layer1
  6
DASHED1
 62
7
 10
873.535
 20
420.007
 11
872.386
 21
419.043
  0
LINE
  8
Layer1
  6
CONTINUOUS
 62
7
 10
889.606
 20
400.856
 11
897.265
 21
407.284
  0
POLYLINE
  8
Layer1
  6
CONTINUOUS
 62
7
 66
1
 10
0
 20
0
 30
0
  0
VERTEX
  8
Layer1
 10
893.546
 20
422.607
  0
VERTEX
  8
Layer1
 10
893.35
 20
422.275
  0
VERTEX
  8
Layer1
 10
893.152
 20
421.945
  0
VERTEX
  8
Layer1
 10
892.95
 20
421.619
  0
VERTEX
  8
Layer1
 10
892.742
 20
421.299
  0
VERTEX
  8
Layer1
 10
892.529
 20
420.986
  0
VERTEX
  8
Layer1
 10
892.308
 20
420.682
  0
VERTEX
  8
Layer1
 10
892.076
 20
420.389
  0
VERTEX
  8
Layer1
 10
891.832
 20
420.109
  0
VERTEX
  8
Layer1
 10
891.575
 20
419.845
  0
VERTEX
  8
Layer1
 10
891.302
 20
419.596
  0
VERTEX
  8
Layer1
 10
891.013
 20
419.366
  0
VERTEX
  8
Layer1
 10
890.707
 20
419.153
  0
VERTEX
  8
Layer1
 10
890.39
 20
418.955
  0
VERTEX
  8
Layer1
 10
890.062
 20
418.769
  0
VERTEX
  8
Layer1
 10
889.724
 20
418.593
  0
VERTEX
  8
Layer1
 10
889.38
 20
418.426
  0
VERTEX
  8
Layer1
 10
889.032
 20
418.263
  0
VERTEX
  8
Layer1
 10
888.682
 20
418.104
  0
VERTEX
  8
Layer1
 10
888.331
 20
417.946
  0
VERTEX
  8
Layer1
 10
887.984
 20
417.787
  0
VERTEX
  8
Layer1
 10
887.64
 20
417.624
  0
VERTEX
  8
Layer1
 10
887.303
 20
417.455
  0
VERTEX
  8
Layer1
 10
886.976
 20
417.277
  0
VERTEX
  8
Layer1
 10
886.66
 20
417.09
  0
VERTEX
  8
Layer1
 10
886.357
 20
416.889
  0
VERTEX
  8
Layer1
 10
886.071
 20
416.674
  0
VERTEX
  8
Layer1
 10
885.801
 20
416.442
  0
VERTEX
  8
Layer1
 10
885.547
 20
416.195
  0
VERTEX
  8
Layer1
 10
885.308
 20
415.933
  0
VERTEX
  8
Layer1
 10
885.083
 20
415.657
  0
VERTEX
  8
Layer1
 10
884.873
 20
415.368
  0
VERTEX
  8
Layer1
 10
884.676
 20
415.066
  0
VERTEX
  8
Layer1
 10
884.491
 20
414.752
  0
VERTEX
  8
Layer1
 10
884.317
 20
414.428
  0
VERTEX
  8
Layer1
 10
884.154
 20
414.093
  0
VERTEX
  8
Layer1
 10
884
 20
413.748
  0
VERTEX
  8
Layer1
 10
883.856
 20
413.395
  0
VERTEX
  8
Layer1
 10
883.721
 20
413.033
  0
VERTEX
  8
Layer1
 10
883.592
 20
412.664
  0
VERTEX
  8
Layer1
 10
883.471
 20
412.288
  0
VERTEX
  8
Layer1
 10
883.356
 20
411.907
  0
VERTEX
  8
Layer1
 10
883.248
 20
411.52
  0
VERTEX
  8
Layer1
 10
883.143
 20
411.129
  0
VERTEX
  8
Layer1
 10
883.042
 20
410.734
  0
VERTEX
  8
Layer1
 10
882.943
 20
410.337
  0
VERTEX
  8
Layer1
 10
882.847
 20
409.937
  0
VERTEX
  8
Layer1
 10
882.754
 20
409.535
  0
VERTEX
  8
Layer1
 10
882.659
 20
409.133
  0
SEQEND
  0
LINE
  8
Layer1
  6
DASHED1
 62
7
 10
887.195
 20
403.728
 11
886.046
 21
402.764
  0
LINE
  8
Layer1
  6
DASHED1
 62
7
 10
883.659
 20
407.942
 11
882.51
 21
406.977
  0
LINE
  8
Layer1
  6
CONTINUOUS
 62
7
 10
891.99
 20
405.793
 11
895.59
 21
408.814
  0
LINE
  8
Layer1
  6
CONTINUOUS
 62
7
 10
886.525
 20
412.305
 11
890.125
 21
415.326
  0
LINE
  8
Layer1
  6
CONTINUOUS
 62
7
 10
895.59
 20
408.814
 11
890.125
 21
415.326
  0
LINE
  8
Layer1
  6
CONTINUOUS
 62
7
 10
895.626
 20
409.237
 11
890.548
 21
415.289
  0
LINE
  8
Layer1
  6
CONTINUOUS
 62
7
 10
895.59
 20
408.814
 11
895.626
 21
409.237
  0
LINE
  8
Layer1
  6
CONTINUOUS
 62
7
 10
890.125
 20
415.326
 11
890.548
 21
415.289
  0
LINE
  8
Layer1
  6
DASHED1
 62
7
 10
887.65
 20
410.964
 11
873.019
 21
398.687
  0
LINE
  8
Layer1
  6
DASHED1
 62
7
 10
890.865
 20
407.134
 11
876.232
 21
394.857
  0
LINE
  8
Layer1
  6
DASHED1
 62
7
 10
873.019
 20
398.687
 11
876.232
 21
394.857
  0
LINE
  8
Layer1
  6
DASHED1
 62
7
 10
872.908
 20
397.419
 11
874.965
 21
394.968
  0
LINE
  8
Layer1
  6
DASHED1
 62
7
 10
873.019
 20
398.687
 11
872.908
 21
397.419
  0
LINE
  8
Layer1
  6
DASHED1
 62
7
 10
876.232
 20
394.857
 11
874.965
 21
394.968
  0
LINE
  8
Layer1
  6
DASHED1
 62
7
 10
887.908
 20
410.658
 11
872.97
 21
398.123
  0
LINE
  8
Layer1
  6
DASHED1
 62
7
 10
890.607
 20
407.44
 11
875.669
 21
394.906
  0
LINE
  8
Layer1
  6
CONTINUOUS
 62
7
 10
886.525
 20
412.305
 11
891.99
 21
405.793
  0
LINE
  8
Layer1
  6
CONTINUOUS
 62
7
 10
891.846
 20
406.979
 11
894.524
 21
409.225
  0
LINE
  8
Layer1
  6
CONTINUOUS
 62
7
 10
891.604
 20
408.081
 11
893.457
 21
409.636
  0
LINE
  8
Layer1
  6
CONTINUOUS
 62
7
 10
891.361
 20
409.182
 11
892.39
 21
410.046
  0
LINE
  8
Layer1
  6
CENTER2
 62
7
 10
572.881
 20
430.255
 11
572.881
 21
347.93
  0
LINE
  8
Layer1
  6
CONTINUOUS
 62
7
 10
612.381
 20
419.997
 11
597.381
 21
419.997
  0
LINE
  8
Layer1
  6
CONTINUOUS
 62
7
 10
612.381
 20
431.997
 11
612.381
 21
420.297
  0
LINE
  8
Layer1
  6
CONTINUOUS
 62
7
 10
533.381
 20
431.997
 11
533.381
 21
420.297
  0
LINE
  8
Layer1
  6
CONTINUOUS
 62
7
 10
612.381
 20
420.497
 11
611.881
 21
419.997
  0
LINE
  8
Layer1
  6
CONTINUOUS
 62
7
 10
533.881
 20
419.997
 11
533.381
 21
420.497
  0
LINE
  8
Layer1
  6
CONTINUOUS
 62
7
 10
534.381
 20
432.997
 11
533.381
 21
431.997
  0
LINE
  8
Layer1
  6
CONTINUOUS
 62
7
 10
611.381
 20
432.997
 11
612.381
 21
431.997
  0
LINE
  8
Layer1
  6
DASHED1
 62
7
 10
608.398
 20
432.997
 11
608.381
 21
432.981
  0
LINE
  8
Layer1
  6
CONTINUOUS
 62
7
 10
532.881
 20
419.997
 11
611.881
 21
419.997
  0
LINE
  8
Layer1
  6
CONTINUOUS
 62
7
 10
611.381
 20
432.997
 11
587.492
 21
432.997
  0
LINE
  8
Layer1
  6
CENTER2
 62
7
 10
572.881
 20
502.864
 11
572.881
 21
430.255
  0
LINE
  8
Layer1
  6
DASHED1
 62
7
 10
597.381
 20
406.397
 11
597.381
 21
432.997
  0
LINE
  8
Layer1
  6
DASHED1
 62
7
 10
548.381
 20
406.397
 11
549.782
 21
404.997
  0
LINE
  8
Layer1
  6
DASHED1
 62
7
 10
595.981
 20
404.997
 11
597.381
 21
406.397
  0
LINE
  8
Layer1
  6
DASHED1
 62
7
 10
548.381
 20
406.397
 11
548.381
 21
432.997
  0
LINE
  8
Layer1
  6
CONTINUOUS
 62
7
 10
569.016
 20
439.748
 11
576.861
 21
439.748
  0
LINE
  8
Layer1
  6
CONTINUOUS
 62
7
 10
568.688
 20
439.145
 11
577.163
 21
439.145
  0
LINE
  8
Layer1
  6
CONTINUOUS
 62
7
 10
568.593
 20
435.765
 11
577.043
 21
435.765
  0
LINE
  8
Layer1
  6
CONTINUOUS
 62
7
 10
577.766
 20
435.041
 11
567.87
 21
435.041
  0
LINE
  8
Layer1
  6
CONTINUOUS
 62
7
 10
577.766
 20
435.041
 11
577.766
 21
433.17
  0
LINE
  8
Layer1
  6
CONTINUOUS
 62
7
 10
567.87
 20
435.041
 11
567.87
 21
433.17
  0
POLYLINE
  8
Layer1
  6
CONTINUOUS
 62
7
 66
1
 10
0
 20
0
 30
0
  0
VERTEX
  8
Layer1
 10
572.812
 20
436.961
  0
VERTEX
  8
Layer1
 10
572.745
 20
437.018
  0
VERTEX
  8
Layer1
 10
572.679
 20
437.074
  0
VERTEX
  8
Layer1
 10
572.611
 20
437.127
  0
VERTEX
  8
Layer1
 10
572.542
 20
437.179
  0
VERTEX
  8
Layer1
 10
572.471
 20
437.229
  0
VERTEX
  8
Layer1
 10
572.399
 20
437.277
  0
VERTEX
  8
Layer1
 10
572.326
 20
437.323
  0
VERTEX
  8
Layer1
 10
572.25
 20
437.368
  0
VERTEX
  8
Layer1
 10
572.175
 20
437.41
  0
VERTEX
  8
Layer1
 10
572.099
 20
437.451
  0
VERTEX
  8
Layer1
 10
572.021
 20
437.489
  0
VERTEX
  8
Layer1
 10
571.942
 20
437.525
  0
VERTEX
  8
Layer1
 10
571.862
 20
437.56
  0
VERTEX
  8
Layer1
 10
571.782
 20
437.592
  0
VERTEX
  8
Layer1
 10
571.701
 20
437.622
  0
VERTEX
  8
Layer1
 10
571.619
 20
437.65
  0
VERTEX
  8
Layer1
 10
571.535
 20
437.676
  0
VERTEX
  8
Layer1
 10
571.452
 20
437.7
  0
VERTEX
  8
Layer1
 10
571.369
 20
437.722
  0
VERTEX
  8
Layer1
 10
571.284
 20
437.741
  0
VERTEX
  8
Layer1
 10
571.198
 20
437.758
  0
VERTEX
  8
Layer1
 10
571.113
 20
437.773
  0
VERTEX
  8
Layer1
 10
571.028
 20
437.786
  0
VERTEX
  8
Layer1
 10
570.942
 20
437.797
  0
VERTEX
  8
Layer1
 10
570.856
 20
437.805
  0
VERTEX
  8
Layer1
 10
570.769
 20
437.811
  0
VERTEX
  8
Layer1
 10
570.683
 20
437.815
  0
VERTEX
  8
Layer1
 10
570.596
 20
437.817
  0
VERTEX
  8
Layer1
 10
570.509
 20
437.816
  0
VERTEX
  8
Layer1
 10
570.421
 20
437.814
  0
VERTEX
  8
Layer1
 10
570.336
 20
437.808
  0
VERTEX
  8
Layer1
 10
570.248
 20
437.801
  0
VERTEX
  8
Layer1
 10
570.163
 20
437.792
  0
VERTEX
  8
Layer1
 10
570.077
 20
437.78
  0
VERTEX
  8
Layer1
 10
569.992
 20
437.766
  0
VERTEX
  8
Layer1
 10
569.907
 20
437.75
  0
VERTEX
  8
Layer1
 10
569.822
 20
437.731
  0
VERTEX
  8
Layer1
 10
569.737
 20
437.711
  0
VERTEX
  8
Layer1
 10
569.654
 20
437.688
  0
VERTEX
  8
Layer1
 10
569.571
 20
437.663
  0
VERTEX
  8
Layer1
 10
569.487
 20
437.636
  0
VERTEX
  8
Layer1
 10
569.407
 20
437.607
  0
VERTEX
  8
Layer1
 10
569.326
 20
437.576
  0
VERTEX
  8
Layer1
 10
569.245
 20
437.542
  0
VERTEX
  8
Layer1
 10
569.167
 20
437.507
  0
VERTEX
  8
Layer1
 10
569.089
 20
437.47
  0
VERTEX
  8
Layer1
 10
569.01
 20
437.43
  0
VERTEX
  8
Layer1
 10
568.935
 20
437.389
  0
SEQEND
  0
POLYLINE
  8
Layer1
  6
CONTINUOUS
 62
7
 66
1
 10
0
 20
0
 30
0
  0
VERTEX
  8
Layer1
 10
577.164
 20
437.334
  0
VERTEX
  8
Layer1
 10
577.077
 20
437.37
  0
VERTEX
  8
Layer1
 10
576.987
 20
437.403
  0
VERTEX
  8
Layer1
 10
576.899
 20
437.435
  0
VERTEX
  8
Layer1
 10
576.81
 20
437.466
  0
VERTEX
  8
Layer1
 10
576.719
 20
437.494
  0
VERTEX
  8
Layer1
 10
576.63
 20
437.521
  0
VERTEX
  8
Layer1
 10
576.538
 20
437.546
  0
VERTEX
  8
Layer1
 10
576.447
 20
437.569
  0
VERTEX
  8
Layer1
 10
576.355
 20
437.59
  0
VERTEX
  8
Layer1
 10
576.262
 20
437.609
  0
VERTEX
  8
Layer1
 10
576.169
 20
437.627
  0
VERTEX
  8
Layer1
 10
576.076
 20
437.642
  0
VERTEX
  8
Layer1
 10
575.983
 20
437.656
  0
VERTEX
  8
Layer1
 10
575.889
 20
437.668
  0
VERTEX
  8
Layer1
 10
575.794
 20
437.678
  0
VERTEX
  8
Layer1
 10
575.701
 20
437.686
  0
VERTEX
  8
Layer1
 10
575.606
 20
437.692
  0
VERTEX
  8
Layer1
 10
575.513
 20
437.697
  0
VERTEX
  8
Layer1
 10
575.418
 20
437.699
  0
VERTEX
  8
Layer1
 10
575.323
 20
437.7
  0
VERTEX
  8
Layer1
 10
575.23
 20
437.698
  0
VERTEX
  8
Layer1
 10
575.135
 20
437.695
  0
VERTEX
  8
Layer1
 10
575.041
 20
437.69
  0
VERTEX
  8
Layer1
 10
574.947
 20
437.683
  0
VERTEX
  8
Layer1
 10
574.852
 20
437.674
  0
VERTEX
  8
Layer1
 10
574.759
 20
437.663
  0
VERTEX
  8
Layer1
 10
574.665
 20
437.651
  0
VERTEX
  8
Layer1
 10
574.572
 20
437.636
  0
VERTEX
  8
Layer1
 10
574.478
 20
437.62
  0
VERTEX
  8
Layer1
 10
574.385
 20
437.602
  0
VERTEX
  8
Layer1
 10
574.293
 20
437.582
  0
VERTEX
  8
Layer1
 10
574.202
 20
437.56
  0
VERTEX
  8
Layer1
 10
574.111
 20
437.536
  0
VERTEX
  8
Layer1
 10
574.019
 20
437.511
  0
VERTEX
  8
Layer1
 10
573.928
 20
437.483
  0
VERTEX
  8
Layer1
 10
573.84
 20
437.454
  0
VERTEX
  8
Layer1
 10
573.75
 20
437.423
  0
VERTEX
  8
Layer1
 10
573.661
 20
437.391
  0
VERTEX
  8
Layer1
 10
573.573
 20
437.356
  0
VERTEX
  8
Layer1
 10
573.486
 20
437.32
  0
VERTEX
  8
Layer1
 10
573.399
 20
437.282
  0
VERTEX
  8
Layer1
 10
573.313
 20
437.242
  0
VERTEX
  8
Layer1
 10
573.23
 20
437.201
  0
VERTEX
  8
Layer1
 10
573.146
 20
437.158
  0
VERTEX
  8
Layer1
 10
573.062
 20
437.113
  0
VERTEX
  8
Layer1
 10
572.98
 20
437.067
  0
VERTEX
  8
Layer1
 10
572.899
 20
437.019
  0
VERTEX
  8
Layer1
 10
572.819
 20
436.969
  0
SEQEND
  0
LINE
  8
Layer1
  6
CONTINUOUS
 62
7
 10
569.281
 20
437.557
 11
568.947
 21
437.367
  0
LINE
  8
Layer1
  6
CONTINUOUS
 62
7
 10
569.016
 20
439.748
 11
568.157
 21
438.164
  0
LINE
  8
Layer1
  6
CONTINUOUS
 62
7
 10
576.861
 20
439.748
 11
577.748
 21
437.933
  0
LINE
  8
Layer1
  6
CONTINUOUS
 62
7
 10
576.679
 20
437.478
 11
577.164
 21
437.334
  0
POLYLINE
  8
Layer1
  6
CONTINUOUS
 62
7
 66
1
 10
0
 20
0
 30
0
  0
VERTEX
  8
Layer1
 10
568.157
 20
438.164
  0
VERTEX
  8
Layer1
 10
568.141
 20
438.137
  0
VERTEX
  8
Layer1
 10
568.129
 20
438.108
  0
VERTEX
  8
Layer1
 10
568.116
 20
438.079
  0
VERTEX
  8
Layer1
 10
568.106
 20
438.049
  0
VERTEX
  8
Layer1
 10
568.096
 20
438.019
  0
VERTEX
  8
Layer1
 10
568.09
 20
437.988
  0
VERTEX
  8
Layer1
 10
568.085
 20
437.957
  0
VERTEX
  8
Layer1
 10
568.081
 20
437.925
  0
VERTEX
  8
Layer1
 10
568.079
 20
437.894
  0
VERTEX
  8
Layer1
 10
568.079
 20
437.862
  0
VERTEX
  8
Layer1
 10
568.08
 20
437.83
  0
VERTEX
  8
Layer1
 10
568.083
 20
437.799
  0
VERTEX
  8
Layer1
 10
568.087
 20
437.768
  0
VERTEX
  8
Layer1
 10
568.095
 20
437.737
  0
VERTEX
  8
Layer1
 10
568.102
 20
437.706
  0
VERTEX
  8
Layer1
 10
568.112
 20
437.676
  0
VERTEX
  8
Layer1
 10
568.125
 20
437.647
  0
VERTEX
  8
Layer1
 10
568.138
 20
437.618
  0
VERTEX
  8
Layer1
 10
568.151
 20
437.59
  0
VERTEX
  8
Layer1
 10
568.168
 20
437.563
  0
VERTEX
  8
Layer1
 10
568.186
 20
437.536
  0
VERTEX
  8
Layer1
 10
568.205
 20
437.511
  0
VERTEX
  8
Layer1
 10
568.226
 20
437.487
  0
VERTEX
  8
Layer1
 10
568.246
 20
437.464
  0
VERTEX
  8
Layer1
 10
568.269
 20
437.442
  0
VERTEX
  8
Layer1
 10
568.293
 20
437.421
  0
VERTEX
  8
Layer1
 10
568.318
 20
437.402
  0
VERTEX
  8
Layer1
 10
568.345
 20
437.384
  0
VERTEX
  8
Layer1
 10
568.371
 20
437.368
  0
VERTEX
  8
Layer1
 10
568.399
 20
437.353
  0
VERTEX
  8
Layer1
 10
568.428
 20
437.339
  0
VERTEX
  8
Layer1
 10
568.457
 20
437.328
  0
VERTEX
  8
Layer1
 10
568.487
 20
437.318
  0
VERTEX
  8
Layer1
 10
568.519
 20
437.309
  0
VERTEX
  8
Layer1
 10
568.549
 20
437.302
  0
VERTEX
  8
Layer1
 10
568.581
 20
437.297
  0
VERTEX
  8
Layer1
 10
568.611
 20
437.294
  0
VERTEX
  8
Layer1
 10
568.644
 20
437.292
  0
VERTEX
  8
Layer1
 10
568.674
 20
437.292
  0
VERTEX
  8
Layer1
 10
568.707
 20
437.294
  0
VERTEX
  8
Layer1
 10
568.737
 20
437.297
  0
VERTEX
  8
Layer1
 10
568.769
 20
437.302
  0
VERTEX
  8
Layer1
 10
568.801
 20
437.309
  0
VERTEX
  8
Layer1
 10
568.831
 20
437.317
  0
VERTEX
  8
Layer1
 10
568.861
 20
437.328
  0
VERTEX
  8
Layer1
 10
568.89
 20
437.339
  0
VERTEX
  8
Layer1
 10
568.918
 20
437.353
  0
VERTEX
  8
Layer1
 10
568.947
 20
437.367
  0
SEQEND
  0
POLYLINE
  8
Layer1
  6
CONTINUOUS
 62
7
 66
1
 10
0
 20
0
 30
0
  0
VERTEX
  8
Layer1
 10
577.164
 20
437.334
  0
VERTEX
  8
Layer1
 10
577.185
 20
437.328
  0
VERTEX
  8
Layer1
 10
577.206
 20
437.324
  0
VERTEX
  8
Layer1
 10
577.226
 20
437.32
  0
VERTEX
  8
Layer1
 10
577.247
 20
437.317
  0
VERTEX
  8
Layer1
 10
577.269
 20
437.315
  0
VERTEX
  8
Layer1
 10
577.291
 20
437.314
  0
VERTEX
  8
Layer1
 10
577.312
 20
437.315
  0
VERTEX
  8
Layer1
 10
577.332
 20
437.316
  0
VERTEX
  8
Layer1
 10
577.355
 20
437.318
  0
VERTEX
  8
Layer1
 10
577.375
 20
437.321
  0
VERTEX
  8
Layer1
 10
577.397
 20
437.325
  0
VERTEX
  8
Layer1
 10
577.418
 20
437.33
  0
VERTEX
  8
Layer1
 10
577.438
 20
437.335
  0
VERTEX
  8
Layer1
 10
577.458
 20
437.342
  0
VERTEX
  8
Layer1
 10
577.478
 20
437.35
  0
VERTEX
  8
Layer1
 10
577.497
 20
437.358
  0
VERTEX
  8
Layer1
 10
577.516
 20
437.368
  0
VERTEX
  8
Layer1
 10
577.535
 20
437.378
  0
VERTEX
  8
Layer1
 10
577.553
 20
437.389
  0
VERTEX
  8
Layer1
 10
577.572
 20
437.401
  0
VERTEX
  8
Layer1
 10
577.589
 20
437.414
  0
VERTEX
  8
Layer1
 10
577.606
 20
437.428
  0
VERTEX
  8
Layer1
 10
577.621
 20
437.442
  0
VERTEX
  8
Layer1
 10
577.637
 20
437.457
  0
VERTEX
  8
Layer1
 10
577.651
 20
437.472
  0
VERTEX
  8
Layer1
 10
577.666
 20
437.489
  0
VERTEX
  8
Layer1
 10
577.678
 20
437.506
  0
VERTEX
  8
Layer1
 10
577.69
 20
437.523
  0
VERTEX
  8
Layer1
 10
577.702
 20
437.541
  0
VERTEX
  8
Layer1
 10
577.713
 20
437.56
  0
VERTEX
  8
Layer1
 10
577.723
 20
437.579
  0
VERTEX
  8
Layer1
 10
577.731
 20
437.598
  0
VERTEX
  8
Layer1
 10
577.74
 20
437.618
  0
VERTEX
  8
Layer1
 10
577.747
 20
437.638
  0
VERTEX
  8
Layer1
 10
577.754
 20
437.658
  0
VERTEX
  8
Layer1
 10
577.759
 20
437.679
  0
VERTEX
  8
Layer1
 10
577.764
 20
437.7
  0
VERTEX
  8
Layer1
 10
577.766
 20
437.721
  0
VERTEX
  8
Layer1
 10
577.769
 20
437.742
  0
VERTEX
  8
Layer1
 10
577.771
 20
437.764
  0
VERTEX
  8
Layer1
 10
577.772
 20
437.785
  0
VERTEX
  8
Layer1
 10
577.772
 20
437.807
  0
VERTEX
  8
Layer1
 10
577.769
 20
437.828
  0
VERTEX
  8
Layer1
 10
577.767
 20
437.849
  0
VERTEX
  8
Layer1
 10
577.765
 20
437.87
  0
VERTEX
  8
Layer1
 10
577.76
 20
437.891
  0
VERTEX
  8
Layer1
 10
577.755
 20
437.912
  0
VERTEX
  8
Layer1
 10
577.748
 20
437.933
  0
SEQEND
  0
LINE
  8
Layer1
  6
CONTINUOUS
 62
7
 10
575.885
 20
437.668
 11
575.885
 21
435.765
  0
LINE
  8
Layer1
  6
CONTINUOUS
 62
7
 10
569.741
 20
437.712
 11
569.741
 21
435.765
  0
LINE
  8
Layer1
  6
CONTINUOUS
 62
7
 10
568.593
 20
435.765
 11
567.87
 21
435.041
  0
LINE
  8
Layer1
  6
CONTINUOUS
 62
7
 10
577.043
 20
435.765
 11
577.766
 21
435.041
  0
LINE
  8
Layer1
  6
DASHED1
 62
7
 10
559.881
 20
404.997
 11
549.782
 21
404.997
  0
LINE
  8
Layer1
  6
CONTINUOUS
 62
7
 10
596.881
 20
419.997
 11
548.881
 21
419.997
  0
LINE
  8
Layer1
  6
DASHED1
 62
7
 10
612.881
 20
419.997
 11
613.881
 21
418.997
  0
LINE
  8
Layer1
  6
CONTINUOUS
 62
7
 10
583.881
 20
471.629
 11
561.881
 21
471.629
  0
LINE
  8
Layer1
  6
CONTINUOUS
 62
7
 10
583.881
 20
457.628
 11
578.881
 21
457.628
  0
LINE
  8
Layer1
  6
CONTINUOUS
 62
7
 10
561.881
 20
471.629
 11
561.881
 21
457.628
  0
LINE
  8
Layer1
  6
CONTINUOUS
 62
7
 10
583.881
 20
471.629
 11
583.881
 21
457.628
  0
LINE
  8
Layer1
  6
CONTINUOUS
 62
7
 10
566.881
 20
457.628
 11
566.881
 21
432.997
  0
LINE
  8
Layer1
  6
CONTINUOUS
 62
7
 10
566.881
 20
457.628
 11
561.881
 21
457.628
  0
LINE
  8
Layer1
  6
CONTINUOUS
 62
7
 10
578.881
 20
457.628
 11
578.881
 21
432.997
  0
LINE
  8
Layer1
  6
DASHED1
 62
7
 10
583.881
 20
406.997
 11
583.881
 21
416.353
  0
LINE
  8
Layer1
  6
DASHED1
 62
7
 10
561.881
 20
406.997
 11
561.881
 21
415.789
  0
ARC
  8
Layer1
  6
DASHED1
 62
7
 10
574.773
 20
416.081
 40
9.11381
 50
358.167
 51
63.2005
  0
ARC
  8
Layer1
  6
DASHED1
 62
7
 10
570.991
 20
416.081
 40
9.11381
 50
116.8
 51
181.833
  0
LINE
  8
Layer1
  6
DASHED1
 62
7
 10
583.881
 20
457.628
 11
583.881
 21
416.353
  0
LINE
  8
Layer1
  6
DASHED1
 62
7
 10
561.881
 20
457.628
 11
561.881
 21
415.789
  0
LINE
  8
Layer1
  6
CONTINUOUS
 62
7
 10
566.881
 20
432.997
 11
566.881
 21
424.216
  0
LINE
  8
Layer1
  6
CONTINUOUS
 62
7
 10
578.881
 20
432.997
 11
578.881
 21
424.216
  0
LINE
  8
Layer1
  6
DASHED1
 62
7
 10
585.881
 20
404.997
 11
595.981
 21
404.997
  0
LINE
  8
Layer1
  6
DASHED1
 62
7
 10
583.881
 20
406.997
 11
585.881
 21
404.997
  0
LINE
  8
Layer1
  6
DASHED1
 62
7
 10
561.881
 20
406.997
 11
559.881
 21
404.997
  0
LINE
  8
Layer1
  6
DASHED1
 62
7
 10
576.881
 20
401.266
 11
568.881
 21
401.266
  0
LINE
  8
Layer1
  6
CONTINUOUS
 62
7
 10
566.881
 20
431.864
 11
578.881
 21
431.864
  0
LINE
  8
Layer1
  6
DASHED1
 62
7
 10
582.881
 20
419.651
 11
562.881
 21
419.651
  0
LINE
  8
Layer1
  6
DASHED1
 62
7
 10
577.881
 20
402.266
 11
577.881
 21
419.651
  0
LINE
  8
Layer1
  6
DASHED1
 62
7
 10
567.881
 20
402.266
 11
567.881
 21
419.651
  0
LINE
  8
Layer1
  6
DASHED1
 62
7
 10
562.881
 20
430.864
 11
562.881
 21
419.997
  0
LINE
  8
Layer1
  6
DASHED1
 62
7
 10
582.881
 20
419.997
 11
582.881
 21
430.864
  0
LINE
  8
Layer1
  6
DASHED1
 62
7
 10
581.881
 20
408.596
 11
577.881
 21
408.596
  0
LINE
  8
Layer1
  6
DASHED1
 62
7
 10
563.881
 20
408.596
 11
567.881
 21
408.596
  0
LINE
  8
Layer1
  6
DASHED1
 62
7
 10
581.881
 20
431.864
 11
582.881
 21
430.864
  0
LINE
  8
Layer1
  6
DASHED1
 62
7
 10
582.881
 20
409.596
 11
581.881
 21
408.596
  0
LINE
  8
Layer1
  6
DASHED1
 62
7
 10
563.881
 20
408.596
 11
562.881
 21
409.596
  0
LINE
  8
Layer1
  6
DASHED1
 62
7
 10
562.881
 20
430.864
 11
563.881
 21
431.864
  0
LINE
  8
Layer1
  6
DASHED1
 62
7
 10
567.881
 20
402.266
 11
568.881
 21
401.266
  0
LINE
  8
Layer1
  6
DASHED1
 62
7
 10
577.881
 20
402.266
 11
576.881
 21
401.266
  0
LINE
  8
Layer1
  6
CONTINUOUS
 62
7
 10
578.881
 20
427.747
 11
566.881
 21
427.747
  0
LINE
  8
Layer1
  6
CONTINUOUS
 62
7
 10
577.881
 20
419.997
 11
577.881
 21
427.747
  0
LINE
  8
Layer1
  6
CONTINUOUS
 62
7
 10
567.881
 20
419.997
 11
567.881
 21
427.747
  0
POLYLINE
  8
Layer1
  6
CONTINUOUS
 62
7
 66
1
 10
0
 20
0
 30
0
  0
VERTEX
  8
Layer1
 10
587.492
 20
432.997
  0
VERTEX
  8
Layer1
 10
587.686
 20
432.69
  0
VERTEX
  8
Layer1
 10
587.877
 20
432.384
  0
VERTEX
  8
Layer1
 10
588.061
 20
432.08
  0
VERTEX
  8
Layer1
 10
588.233
 20
431.778
  0
VERTEX
  8
Layer1
 10
588.39
 20
431.481
  0
VERTEX
  8
Layer1
 10
588.531
 20
431.189
  0
VERTEX
  8
Layer1
 10
588.649
 20
430.902
  0
VERTEX
  8
Layer1
 10
588.741
 20
430.622
  0
VERTEX
  8
Layer1
 10
588.803
 20
430.351
  0
VERTEX
  8
Layer1
 10
588.833
 20
430.088
  0
VERTEX
  8
Layer1
 10
588.827
 20
429.835
  0
VERTEX
  8
Layer1
 10
588.782
 20
429.593
  0
VERTEX
  8
Layer1
 10
588.692
 20
429.363
  0
VERTEX
  8
Layer1
 10
588.56
 20
429.144
  0
VERTEX
  8
Layer1
 10
588.39
 20
428.935
  0
VERTEX
  8
Layer1
 10
588.188
 20
428.733
  0
VERTEX
  8
Layer1
 10
587.964
 20
428.537
  0
VERTEX
  8
Layer1
 10
587.719
 20
428.345
  0
VERTEX
  8
Layer1
 10
587.465
 20
428.154
  0
VERTEX
  8
Layer1
 10
587.204
 20
427.963
  0
VERTEX
  8
Layer1
 10
586.944
 20
427.77
  0
VERTEX
  8
Layer1
 10
586.689
 20
427.572
  0
VERTEX
  8
Layer1
 10
586.449
 20
427.368
  0
VERTEX
  8
Layer1
 10
586.23
 20
427.156
  0
VERTEX
  8
Layer1
 10
586.033
 20
426.934
  0
VERTEX
  8
Layer1
 10
585.861
 20
426.702
  0
VERTEX
  8
Layer1
 10
585.712
 20
426.46
  0
VERTEX
  8
Layer1
 10
585.584
 20
426.21
  0
VERTEX
  8
Layer1
 10
585.477
 20
425.952
  0
VERTEX
  8
Layer1
 10
585.391
 20
425.685
  0
VERTEX
  8
Layer1
 10
585.323
 20
425.411
  0
VERTEX
  8
Layer1
 10
585.274
 20
425.13
  0
VERTEX
  8
Layer1
 10
585.241
 20
424.841
  0
VERTEX
  8
Layer1
 10
585.224
 20
424.547
  0
VERTEX
  8
Layer1
 10
585.221
 20
424.247
  0
VERTEX
  8
Layer1
 10
585.231
 20
423.941
  0
VERTEX
  8
Layer1
 10
585.255
 20
423.63
  0
VERTEX
  8
Layer1
 10
585.291
 20
423.315
  0
VERTEX
  8
Layer1
 10
585.336
 20
422.995
  0
VERTEX
  8
Layer1
 10
585.39
 20
422.671
  0
VERTEX
  8
Layer1
 10
585.454
 20
422.345
  0
VERTEX
  8
Layer1
 10
585.524
 20
422.015
  0
VERTEX
  8
Layer1
 10
585.601
 20
421.682
  0
VERTEX
  8
Layer1
 10
585.683
 20
421.348
  0
VERTEX
  8
Layer1
 10
585.769
 20
421.012
  0
VERTEX
  8
Layer1
 10
585.859
 20
420.674
  0
VERTEX
  8
Layer1
 10
585.951
 20
420.336
  0
VERTEX
  8
Layer1
 10
586.043
 20
419.997
  0
SEQEND
  0
POLYLINE
  8
Layer1
  6
CONTINUOUS
 62
7
 66
1
 10
0
 20
0
 30
0
  0
VERTEX
  8
Layer1
 10
557.068
 20
432.997
  0
VERTEX
  8
Layer1
 10
557.214
 20
432.736
  0
VERTEX
  8
Layer1
 10
557.36
 20
432.474
  0
VERTEX
  8
Layer1
 10
557.5
 20
432.212
  0
VERTEX
  8
Layer1
 10
557.637
 20
431.95
  0
VERTEX
  8
Layer1
 10
557.765
 20
431.687
  0
VERTEX
  8
Layer1
 10
557.885
 20
431.424
  0
VERTEX
  8
Layer1
 10
557.993
 20
431.16
  0
VERTEX
  8
Layer1
 10
558.089
 20
430.896
  0
VERTEX
  8
Layer1
 10
558.168
 20
430.63
  0
VERTEX
  8
Layer1
 10
558.233
 20
430.364
  0
VERTEX
  8
Layer1
 10
558.279
 20
430.097
  0
VERTEX
  8
Layer1
 10
558.304
 20
429.828
  0
VERTEX
  8
Layer1
 10
558.308
 20
429.559
  0
VERTEX
  8
Layer1
 10
558.289
 20
429.288
  0
VERTEX
  8
Layer1
 10
558.251
 20
429.016
  0
VERTEX
  8
Layer1
 10
558.198
 20
428.743
  0
VERTEX
  8
Layer1
 10
558.131
 20
428.469
  0
VERTEX
  8
Layer1
 10
558.055
 20
428.194
  0
VERTEX
  8
Layer1
 10
557.972
 20
427.919
  0
VERTEX
  8
Layer1
 10
557.885
 20
427.643
  0
VERTEX
  8
Layer1
 10
557.798
 20
427.367
  0
VERTEX
  8
Layer1
 10
557.714
 20
427.091
  0
VERTEX
  8
Layer1
 10
557.634
 20
426.815
  0
VERTEX
  8
Layer1
 10
557.563
 20
426.539
  0
VERTEX
  8
Layer1
 10
557.503
 20
426.263
  0
VERTEX
  8
Layer1
 10
557.457
 20
425.987
  0
VERTEX
  8
Layer1
 10
557.428
 20
425.712
  0
VERTEX
  8
Layer1
 10
557.413
 20
425.437
  0
VERTEX
  8
Layer1
 10
557.412
 20
425.163
  0
VERTEX
  8
Layer1
 10
557.424
 20
424.889
  0
VERTEX
  8
Layer1
 10
557.449
 20
424.615
  0
VERTEX
  8
Layer1
 10
557.486
 20
424.342
  0
VERTEX
  8
Layer1
 10
557.535
 20
424.069
  0
VERTEX
  8
Layer1
 10
557.595
 20
423.796
  0
VERTEX
  8
Layer1
 10
557.664
 20
423.524
  0
VERTEX
  8
Layer1
 10
557.741
 20
423.252
  0
VERTEX
  8
Layer1
 10
557.827
 20
422.98
  0
VERTEX
  8
Layer1
 10
557.923
 20
422.708
  0
VERTEX
  8
Layer1
 10
558.024
 20
422.436
  0
VERTEX
  8
Layer1
 10
558.131
 20
422.165
  0
VERTEX
  8
Layer1
 10
558.245
 20
421.894
  0
VERTEX
  8
Layer1
 10
558.362
 20
421.623
  0
VERTEX
  8
Layer1
 10
558.486
 20
421.351
  0
VERTEX
  8
Layer1
 10
558.611
 20
421.081
  0
VERTEX
  8
Layer1
 10
558.741
 20
420.81
  0
VERTEX
  8
Layer1
 10
558.871
 20
420.539
  0
VERTEX
  8
Layer1
 10
559.004
 20
420.268
  0
VERTEX
  8
Layer1
 10
559.137
 20
419.997
  0
SEQEND
  0
ARC
  8
Layer1
  6
CONTINUOUS
 62
7
 10
570.505
 20
416.773
 40
8.27824
 50
115.966
 51
157.043
  0
LINE
  8
Layer1
  6
DASHED1
 62
7
 10
566.881
 20
427.747
 11
562.881
 21
427.747
  0
LINE
  8
Layer1
  6
DASHED1
 62
7
 10
563.881
 20
431.864
 11
566.881
 21
431.864
  0
ARC
  8
Layer1
  6
CONTINUOUS
 62
7
 10
575.257
 20
416.773
 40
8.27824
 50
22.957
 51
64.0345
  0
LINE
  8
Layer1
  6
DASHED1
 62
7
 10
578.881
 20
431.864
 11
581.881
 21
431.864
  0
LINE
  8
Layer1
  6
DASHED1
 62
7
 10
578.881
 20
427.747
 11
582.881
 21
427.747
  0
LINE
  8
Layer1
  6
CONTINUOUS
 62
7
 10
596.881
 20
419.997
 11
597.881
 21
418.997
  0
LINE
  8
Layer1
  6
CONTINUOUS
 62
7
 10
557.068
 20
432.997
 11
534.381
 21
432.997
  0
LINE
  8
Layer1
  6
PHANTOM1
 62
7
 10
557.068
 20
432.997
 11
587.492
 21
432.997
  0
LINE
  8
Layer1
  6
CONTINUOUS
 62
7
 10
597.381
 20
443.626
 11
578.881
 21
443.626
  0
LINE
  8
Layer1
  6
CONTINUOUS
 62
7
 10
566.881
 20
443.626
 11
548.381
 21
443.626
  0
LINE
  8
Layer1
  6
CONTINUOUS
 62
7
 10
613.381
 20
419.497
 11
611.881
 21
419.997
  0
TEXT
  8
Layer1
 62
7
 10
835.59
 20
720.433
 72
1
 11
835.59
 21
720.433
 40
6
 41
1
  1
125
  0
TEXT
  8
Layer1
 62
7
 10
529.58
 20
633.45
 73
3
 11
529.58
 21
633.45
 40
10
 41
1
  1
EMCR-50-50-25
  0
LINE
  8
Layer1
  6
CONTINUOUS
 62
7
 10
525.616
 20
637.342
 11
525.616
 21
619.902
  0
LINE
  8
Layer1
  6
CONTINUOUS
 62
7
 10
525.616
 20
619.902
 11
598.594
 21
619.902
  0
LINE
  8
Layer1
  6
CONTINUOUS
 62
7
 10
598.594
 20
637.342
 11
598.594
 21
619.902
  0
LINE
  8
Layer1
  6
CONTINUOUS
 62
7
 10
525.616
 20
637.342
 11
598.594
 21
637.342
  0
ENDSEC
  0
EOF
