  0
SECTION
  2
HEADER
  9
$EXTMIN
 10
0
 20
0
  9
$EXTMAX
 10
1485
 20
1050
  9
$LTSCALE
 40
1
  9
$LIMMIN
 10
0
 20
0
  9
$LIMMAX
 10
1485
 20
1050
  9
$DIMSCALE
 40
1
  0
ENDSEC
  0
SECTION
  2
TABLES
  0
TABLE
  2
LTYPE
 70
9
  0
LTYPE
  2
CONTINUOUS
 70
64
  3
----------
 72
65
 73
0
 40
0
  0
LTYPE
  2
DASHED1
 70
64
  3
--  --  --  --  --  --  --  --  
 72
65
 73
2
 40
2.5
 49
1.25
 49
-1.25
  0
LTYPE
  2
DASHED2
 70
64
  3
----    ----    ----    ----    
 72
65
 73
2
 40
5
 49
2.5
 49
-2.5
  0
LTYPE
  2
DASHED3
 70
64
  3
------  ------  ------  ------  
 72
65
 73
2
 40
5
 49
3.75
 49
-1.25
  0
LTYPE
  2
CENTER1
 70
64
  3
----- - ----- - ----- - ----- - 
 72
65
 73
4
 40
7.5
 49
3.75
 49
-1.25
 49
1.25
 49
-1.25
  0
LTYPE
  2
CENTER2
 70
64
  3
----------  --  ----------  --  
 72
65
 73
4
 40
13.75
 49
6.25
 49
-2.5
 49
2.5
 49
-2.5
  0
LTYPE
  2
PHANTOM1
 70
64
  3
--- - - --- - - --- - - --- - - 
 72
65
 73
6
 40
9.5
 49
3.25
 49
-1.25
 49
1.25
 49
-1.25
 49
1.25
 49
-1.25
  0
LTYPE
  2
PHANTOM2
 70
64
  3
--------  -  -  --------  -  -  
 72
65
 73
6
 40
18
 49
8
 49
-2.5
 49
1.25
 49
-2.5
 49
1.25
 49
-2.5
  0
LTYPE
  2
DOT
 70
64
  3
-   -   -   -   -   -   -   -   
 72
65
 73
2
 40
2.5
 49
0.625
 49
-1.875
  0
LTYPE
  2
HOJO
 70
64
  3
-   -   -   -   -   -   -   -   
 72
65
 73
2
 40
2.5
 49
0.625
 49
-1.875
  0
ENDTAB
  0
TABLE
  2
STYLE
 70
2
  0
STYLE
  2
STANDARD
 70
64
 40
0
 41
1
 42
0
 50
0
 71
0
  3
TXT
  4
BIGFONT
  0
STYLE
  2
TATEGAKI
 70
68
 40
0
 41
1
 42
0
 50
0
 71
0
  3
TXT
  4
EXTFONT
  0
ENDTAB
  0
TABLE
  2
LAYER
 70
1
  0
LAYER
  2
Layer1
 70
64
 62
7
  6
CONTINUOUS
  0
ENDTAB
  0
ENDSEC
  0
SECTION
  2
ENTITIES
  0
LINE
  8
Layer1
  6
CONTINUOUS
 62
7
 10
806.39
 20
432.614
 11
801.707
 21
427.93
  0
LINE
  8
Layer1
  6
CONTINUOUS
 62
7
 10
643.752
 20
352.13
 11
525.752
 21
352.13
  0
LINE
  8
Layer1
  6
CONTINUOUS
 62
7
 10
769.909
 20
352.13
 11
893.91
 21
352.13
  0
LINE
  8
Layer1
  6
CONTINUOUS
 62
7
 10
892.91
 20
700.859
 11
769.847
 21
700.859
  0
LINE
  8
Layer1
  6
CONTINUOUS
 62
7
 10
892.91
 20
580.859
 11
769.847
 21
580.859
  0
LINE
  8
Layer1
  6
CENTER2
 62
7
 10
738.809
 20
640.859
 11
914.107
 21
640.859
  0
CIRCLE
  8
Layer1
  6
CONTINUOUS
 62
7
 10
781.409
 20
690.859
 40
7
  0
CIRCLE
  8
Layer1
  6
CONTINUOUS
 62
7
 10
881.409
 20
690.859
 40
7
  0
CIRCLE
  8
Layer1
  6
CONTINUOUS
 62
7
 10
781.409
 20
590.859
 40
7
  0
CIRCLE
  8
Layer1
  6
CONTINUOUS
 62
7
 10
781.409
 20
690.859
 40
4.5
  0
CIRCLE
  8
Layer1
  6
CONTINUOUS
 62
7
 10
881.409
 20
690.859
 40
4.5
  0
LINE
  8
Layer1
  6
CONTINUOUS
 62
7
 10
768.847
 20
699.859
 11
769.847
 21
700.859
  0
LINE
  8
Layer1
  6
CONTINUOUS
 62
7
 10
768.847
 20
581.859
 11
769.847
 21
580.859
  0
LINE
  8
Layer1
  6
DASHED1
 62
7
 10
768.89
 20
365.13
 11
793.89
 21
365.13
  0
LINE
  8
Layer1
  6
DASHED1
 62
7
 10
768.89
 20
357.13
 11
793.89
 21
357.13
  0
LINE
  8
Layer1
  6
CONTINUOUS
 62
7
 10
893.91
 20
677.859
 11
893.91
 21
669.859
  0
LINE
  8
Layer1
  6
CONTINUOUS
 62
7
 10
905.91
 20
600.859
 11
905.91
 21
680.859
  0
LINE
  8
Layer1
  6
CONTINUOUS
 62
7
 10
894.91
 20
681.859
 11
904.91
 21
681.859
  0
LINE
  8
Layer1
  6
CONTINUOUS
 62
7
 10
894.91
 20
599.859
 11
904.91
 21
599.859
  0
LINE
  8
Layer1
  6
CONTINUOUS
 62
7
 10
904.91
 20
681.859
 11
905.91
 21
680.859
  0
LINE
  8
Layer1
  6
CONTINUOUS
 62
7
 10
905.91
 20
600.859
 11
904.91
 21
599.859
  0
LINE
  8
Layer1
  6
CONTINUOUS
 62
7
 10
893.91
 20
680.859
 11
893.91
 21
600.859
  0
LINE
  8
Layer1
  6
CONTINUOUS
 62
7
 10
893.91
 20
600.859
 11
894.91
 21
599.859
  0
LINE
  8
Layer1
  6
CONTINUOUS
 62
7
 10
893.91
 20
680.859
 11
894.91
 21
681.859
  0
LINE
  8
Layer1
  6
CONTINUOUS
 62
7
 10
765.409
 20
372.13
 11
768.909
 21
372.13
  0
LINE
  8
Layer1
  6
CONTINUOUS
 62
7
 10
811.89
 20
435.13
 11
811.89
 21
427.93
  0
LINE
  8
Layer1
  6
CONTINUOUS
 62
7
 10
806.89
 20
435.13
 11
806.89
 21
427.93
  0
LINE
  8
Layer1
  6
CONTINUOUS
 62
7
 10
806.35
 20
433.536
 11
806.35
 21
427.93
  0
LINE
  8
Layer1
  6
CONTINUOUS
 62
7
 10
812.39
 20
434.13
 11
812.39
 21
427.93
  0
LINE
  8
Layer1
  6
CENTER2
 62
7
 10
725.5
 20
397.13
 11
903.1
 21
397.13
  0
LINE
  8
Layer1
  6
DASHED1
 62
7
 10
784.89
 20
417.63
 11
784.89
 21
411.63
  0
LINE
  8
Layer1
  6
DASHED1
 62
7
 10
781.347
 20
417.13
 11
788.447
 21
417.13
  0
LINE
  8
Layer1
  6
DASHED1
 62
7
 10
781.347
 20
412.13
 11
788.447
 21
412.13
  0
LINE
  8
Layer1
  6
DASHED1
 62
7
 10
788.447
 20
417.13
 11
788.447
 21
412.13
  0
LINE
  8
Layer1
  6
DASHED1
 62
7
 10
788.447
 20
412.13
 11
788.447
 21
412.45
  0
LINE
  8
Layer1
  6
DASHED1
 62
7
 10
784.89
 20
411.63
 11
784.89
 21
412.755
  0
LINE
  8
Layer1
  6
CENTER1
 62
7
 10
824.39
 20
419.071
 11
824.39
 21
442.594
  0
POLYLINE
  8
Layer1
  6
CONTINUOUS
 62
7
 66
1
 10
0
 20
0
 30
0
  0
VERTEX
  8
Layer1
 10
790.678
 20
421.804
  0
VERTEX
  8
Layer1
 10
790.93
 20
420.97
  0
VERTEX
  8
Layer1
 10
791.185
 20
420.139
  0
VERTEX
  8
Layer1
 10
791.447
 20
419.314
  0
VERTEX
  8
Layer1
 10
791.721
 20
418.497
  0
VERTEX
  8
Layer1
 10
792.006
 20
417.693
  0
VERTEX
  8
Layer1
 10
792.31
 20
416.903
  0
VERTEX
  8
Layer1
 10
792.635
 20
416.13
  0
VERTEX
  8
Layer1
 10
792.985
 20
415.378
  0
VERTEX
  8
Layer1
 10
793.361
 20
414.65
  0
VERTEX
  8
Layer1
 10
793.769
 20
413.948
  0
VERTEX
  8
Layer1
 10
794.212
 20
413.275
  0
VERTEX
  8
Layer1
 10
794.693
 20
412.634
  0
VERTEX
  8
Layer1
 10
795.216
 20
412.028
  0
VERTEX
  8
Layer1
 10
795.784
 20
411.461
  0
VERTEX
  8
Layer1
 10
796.4
 20
410.934
  0
VERTEX
  8
Layer1
 10
797.068
 20
410.451
  0
VERTEX
  8
Layer1
 10
797.779
 20
410.005
  0
VERTEX
  8
Layer1
 10
798.515
 20
409.582
  0
VERTEX
  8
Layer1
 10
799.259
 20
409.169
  0
VERTEX
  8
Layer1
 10
799.994
 20
408.754
  0
VERTEX
  8
Layer1
 10
800.702
 20
408.323
  0
VERTEX
  8
Layer1
 10
801.367
 20
407.864
  0
VERTEX
  8
Layer1
 10
801.973
 20
407.362
  0
VERTEX
  8
Layer1
 10
802.5
 20
406.806
  0
VERTEX
  8
Layer1
 10
802.938
 20
406.184
  0
VERTEX
  8
Layer1
 10
803.289
 20
405.5
  0
VERTEX
  8
Layer1
 10
803.568
 20
404.764
  0
VERTEX
  8
Layer1
 10
803.793
 20
403.986
  0
VERTEX
  8
Layer1
 10
803.973
 20
403.175
  0
VERTEX
  8
Layer1
 10
804.126
 20
402.341
  0
VERTEX
  8
Layer1
 10
804.265
 20
401.494
  0
VERTEX
  8
Layer1
 10
804.404
 20
400.642
  0
VERTEX
  8
Layer1
 10
804.557
 20
399.797
  0
VERTEX
  8
Layer1
 10
804.736
 20
398.967
  0
VERTEX
  8
Layer1
 10
804.958
 20
398.162
  0
VERTEX
  8
Layer1
 10
805.222
 20
397.381
  0
VERTEX
  8
Layer1
 10
805.526
 20
396.625
  0
VERTEX
  8
Layer1
 10
805.87
 20
395.892
  0
VERTEX
  8
Layer1
 10
806.249
 20
395.181
  0
VERTEX
  8
Layer1
 10
806.661
 20
394.49
  0
VERTEX
  8
Layer1
 10
807.107
 20
393.819
  0
VERTEX
  8
Layer1
 10
807.582
 20
393.165
  0
VERTEX
  8
Layer1
 10
808.087
 20
392.529
  0
VERTEX
  8
Layer1
 10
808.616
 20
391.908
  0
VERTEX
  8
Layer1
 10
809.168
 20
391.301
  0
VERTEX
  8
Layer1
 10
809.744
 20
390.707
  0
VERTEX
  8
Layer1
 10
810.337
 20
390.125
  0
VERTEX
  8
Layer1
 10
810.949
 20
389.554
  0
VERTEX
  8
Layer1
 10
811.577
 20
388.992
  0
VERTEX
  8
Layer1
 10
812.217
 20
388.438
  0
VERTEX
  8
Layer1
 10
812.869
 20
387.891
  0
VERTEX
  8
Layer1
 10
813.529
 20
387.349
  0
VERTEX
  8
Layer1
 10
814.197
 20
386.812
  0
VERTEX
  8
Layer1
 10
814.87
 20
386.278
  0
VERTEX
  8
Layer1
 10
815.544
 20
385.746
  0
VERTEX
  8
Layer1
 10
816.221
 20
385.214
  0
VERTEX
  8
Layer1
 10
816.894
 20
384.682
  0
VERTEX
  8
Layer1
 10
817.566
 20
384.148
  0
VERTEX
  8
Layer1
 10
818.231
 20
383.61
  0
VERTEX
  8
Layer1
 10
818.885
 20
383.067
  0
VERTEX
  8
Layer1
 10
819.526
 20
382.516
  0
VERTEX
  8
Layer1
 10
820.149
 20
381.954
  0
VERTEX
  8
Layer1
 10
820.75
 20
381.379
  0
VERTEX
  8
Layer1
 10
821.322
 20
380.788
  0
VERTEX
  8
Layer1
 10
821.865
 20
380.178
  0
VERTEX
  8
Layer1
 10
822.37
 20
379.549
  0
VERTEX
  8
Layer1
 10
822.837
 20
378.896
  0
VERTEX
  8
Layer1
 10
823.261
 20
378.217
  0
VERTEX
  8
Layer1
 10
823.636
 20
377.51
  0
VERTEX
  8
Layer1
 10
823.961
 20
376.773
  0
VERTEX
  8
Layer1
 10
824.235
 20
376.007
  0
VERTEX
  8
Layer1
 10
824.465
 20
375.216
  0
VERTEX
  8
Layer1
 10
824.654
 20
374.402
  0
VERTEX
  8
Layer1
 10
824.809
 20
373.569
  0
VERTEX
  8
Layer1
 10
824.933
 20
372.72
  0
VERTEX
  8
Layer1
 10
825.029
 20
371.858
  0
VERTEX
  8
Layer1
 10
825.106
 20
370.985
  0
VERTEX
  8
Layer1
 10
825.164
 20
370.105
  0
VERTEX
  8
Layer1
 10
825.208
 20
369.221
  0
VERTEX
  8
Layer1
 10
825.246
 20
368.337
  0
VERTEX
  8
Layer1
 10
825.28
 20
367.454
  0
VERTEX
  8
Layer1
 10
825.316
 20
366.577
  0
VERTEX
  8
Layer1
 10
825.356
 20
365.708
  0
VERTEX
  8
Layer1
 10
825.408
 20
364.851
  0
VERTEX
  8
Layer1
 10
825.475
 20
364.008
  0
VERTEX
  8
Layer1
 10
825.559
 20
363.182
  0
VERTEX
  8
Layer1
 10
825.669
 20
362.378
  0
VERTEX
  8
Layer1
 10
825.808
 20
361.597
  0
VERTEX
  8
Layer1
 10
825.978
 20
360.842
  0
VERTEX
  8
Layer1
 10
826.188
 20
360.118
  0
VERTEX
  8
Layer1
 10
826.439
 20
359.427
  0
VERTEX
  8
Layer1
 10
826.737
 20
358.771
  0
VERTEX
  8
Layer1
 10
827.087
 20
358.155
  0
VERTEX
  8
Layer1
 10
827.492
 20
357.581
  0
VERTEX
  8
Layer1
 10
827.954
 20
357.048
  0
VERTEX
  8
Layer1
 10
828.467
 20
356.555
  0
VERTEX
  8
Layer1
 10
829.03
 20
356.099
  0
VERTEX
  8
Layer1
 10
829.64
 20
355.677
  0
VERTEX
  8
Layer1
 10
830.293
 20
355.288
  0
VERTEX
  8
Layer1
 10
830.986
 20
354.929
  0
VERTEX
  8
Layer1
 10
831.716
 20
354.598
  0
VERTEX
  8
Layer1
 10
832.48
 20
354.293
  0
VERTEX
  8
Layer1
 10
833.274
 20
354.011
  0
VERTEX
  8
Layer1
 10
834.097
 20
353.749
  0
VERTEX
  8
Layer1
 10
834.944
 20
353.506
  0
VERTEX
  8
Layer1
 10
835.813
 20
353.279
  0
VERTEX
  8
Layer1
 10
836.701
 20
353.067
  0
VERTEX
  8
Layer1
 10
837.603
 20
352.865
  0
VERTEX
  8
Layer1
 10
838.519
 20
352.674
  0
VERTEX
  8
Layer1
 10
839.443
 20
352.489
  0
VERTEX
  8
Layer1
 10
840.375
 20
352.308
  0
VERTEX
  8
Layer1
 10
841.308
 20
352.13
  0
SEQEND
  0
LINE
  8
Layer1
  6
CONTINUOUS
 62
7
 10
849.92
 20
497.13
 11
892.941
 21
497.13
  0
LINE
  8
Layer1
  6
CONTINUOUS
 62
7
 10
849.866
 20
481.13
 11
892.941
 21
481.13
  0
LINE
  8
Layer1
  6
CONTINUOUS
 62
7
 10
892.941
 20
497.13
 11
893.941
 21
496.13
  0
LINE
  8
Layer1
  6
CENTER2
 62
7
 10
871.403
 20
501.987
 11
871.403
 21
408.558
  0
LINE
  8
Layer1
  6
CONTINUOUS
 62
7
 10
892.941
 20
481.13
 11
893.941
 21
482.13
  0
LINE
  8
Layer1
  6
CENTER1
 62
7
 10
875.91
 20
349.316
 11
875.91
 21
394.74
  0
LINE
  8
Layer1
  6
CENTER1
 62
7
 10
781.409
 20
680.497
 11
781.409
 21
704.551
  0
LINE
  8
Layer1
  6
CENTER1
 62
7
 10
766.139
 20
690.859
 11
792.257
 21
690.859
  0
LINE
  8
Layer1
  6
CENTER1
 62
7
 10
881.409
 20
682.176
 11
881.409
 21
699.541
  0
LINE
  8
Layer1
  6
CENTER1
 62
7
 10
869.842
 20
690.859
 11
892.977
 21
690.859
  0
LINE
  8
Layer1
  6
CONTINUOUS
 62
7
 10
764.409
 20
616.859
 11
764.409
 21
664.859
  0
LINE
  8
Layer1
  6
CONTINUOUS
 62
7
 10
768.909
 20
581.859
 11
768.909
 21
699.859
  0
LINE
  8
Layer1
  6
CONTINUOUS
 62
7
 10
741.409
 20
616.859
 11
741.409
 21
664.859
  0
LINE
  8
Layer1
  6
CONTINUOUS
 62
7
 10
767.909
 20
615.859
 11
765.409
 21
615.859
  0
LINE
  8
Layer1
  6
DASHED1
 62
7
 10
788.447
 20
417.13
 11
789.89
 21
414.63
  0
LINE
  8
Layer1
  6
DASHED1
 62
7
 10
789.89
 20
414.63
 11
788.447
 21
412.13
  0
LINE
  8
Layer1
  6
DASHED1
 62
7
 10
782.347
 20
412.63
 11
782.347
 21
416.63
  0
LINE
  8
Layer1
  6
DASHED1
 62
7
 10
781.347
 20
417.63
 11
781.347
 21
411.63
  0
LINE
  8
Layer1
  6
DASHED1
 62
7
 10
781.347
 20
417.63
 11
782.347
 21
416.63
  0
LINE
  8
Layer1
  6
DASHED1
 62
7
 10
782.347
 20
412.63
 11
781.347
 21
411.63
  0
LINE
  8
Layer1
  6
DASHED1
 62
7
 10
784.89
 20
417.63
 11
781.347
 21
417.63
  0
LINE
  8
Layer1
  6
DASHED1
 62
7
 10
784.89
 20
411.63
 11
781.347
 21
411.63
  0
LINE
  8
Layer1
  6
DASHED1
 62
7
 10
784.89
 20
417.63
 11
785.756
 21
417.13
  0
LINE
  8
Layer1
  6
DASHED1
 62
7
 10
784.89
 20
411.63
 11
785.756
 21
412.13
  0
LINE
  8
Layer1
  6
DASHED1
 62
7
 10
785.756
 20
417.13
 11
785.756
 21
412.13
  0
LINE
  8
Layer1
  6
CENTER1
 62
7
 10
783.433
 20
354.401
 11
865.064
 21
354.401
  0
LINE
  8
Layer1
  6
CENTER1
 62
7
 10
865.481
 20
367.895
 11
782.26
 21
367.895
  0
LINE
  8
Layer1
  6
DASHED1
 62
7
 10
793.89
 20
357.13
 11
793.89
 21
365.13
  0
LINE
  8
Layer1
  6
CENTER1
 62
7
 10
790.313
 20
361.13
 11
760.982
 21
361.13
  0
LINE
  8
Layer1
  6
DASHED1
 62
7
 10
786.015
 20
352.142
 11
788.318
 21
352.142
  0
LINE
  8
Layer1
  6
DASHED1
 62
7
 10
786.783
 20
370.142
 11
784.481
 21
370.142
  0
LINE
  8
Layer1
  6
DASHED1
 62
7
 10
784.481
 20
365.648
 11
786.783
 21
365.648
  0
LINE
  8
Layer1
  6
DASHED1
 62
7
 10
786.015
 20
356.659
 11
788.318
 21
356.659
  0
LINE
  8
Layer1
  6
DASHED1
 62
7
 10
786.783
 20
370.142
 11
786.783
 21
365.648
  0
LINE
  8
Layer1
  6
DASHED1
 62
7
 10
784.481
 20
370.142
 11
784.481
 21
365.648
  0
LINE
  8
Layer1
  6
DASHED1
 62
7
 10
786.015
 20
356.659
 11
786.015
 21
352.142
  0
LINE
  8
Layer1
  6
DASHED1
 62
7
 10
788.318
 20
356.659
 11
788.318
 21
352.142
  0
LINE
  8
Layer1
  6
DASHED1
 62
7
 10
784.481
 20
365.648
 11
786.015
 21
356.659
  0
LINE
  8
Layer1
  6
DASHED1
 62
7
 10
786.783
 20
365.648
 11
788.318
 21
356.659
  0
LINE
  8
Layer1
  6
DASHED1
 62
7
 10
785.247
 20
361.154
 11
786.015
 21
352.142
  0
LINE
  8
Layer1
  6
DASHED1
 62
7
 10
786.975
 20
370.142
 11
787.549
 21
361.154
  0
LINE
  8
Layer1
  6
DASHED1
 62
7
 10
784.289
 20
352.142
 11
785.439
 21
352.142
  0
LINE
  8
Layer1
  6
DASHED1
 62
7
 10
785.439
 20
356.636
 11
784.289
 21
356.636
  0
LINE
  8
Layer1
  6
DASHED1
 62
7
 10
785.439
 20
352.142
 11
785.439
 21
356.636
  0
LINE
  8
Layer1
  6
DASHED1
 62
7
 10
785.439
 20
356.636
 11
784.673
 21
361.13
  0
LINE
  8
Layer1
  6
DASHED1
 62
7
 10
784.289
 20
352.142
 11
784.289
 21
361.13
  0
LINE
  8
Layer1
  6
DASHED1
 62
7
 10
784.673
 20
361.13
 11
784.289
 21
361.13
  0
LINE
  8
Layer1
  6
CONTINUOUS
 62
7
 10
905.91
 20
667.45
 11
913.41
 21
667.45
  0
LINE
  8
Layer1
  6
CONTINUOUS
 62
7
 10
905.91
 20
680.45
 11
913.41
 21
680.45
  0
LINE
  8
Layer1
  6
CONTINUOUS
 62
7
 10
913.41
 20
667.45
 11
913.41
 21
680.45
  0
LINE
  8
Layer1
  6
CONTINUOUS
 62
7
 10
913.91
 20
667.95
 11
913.91
 21
679.95
  0
LINE
  8
Layer1
  6
CONTINUOUS
 62
7
 10
913.41
 20
667.45
 11
913.91
 21
667.95
  0
LINE
  8
Layer1
  6
CONTINUOUS
 62
7
 10
913.41
 20
680.45
 11
913.91
 21
679.95
  0
LINE
  8
Layer1
  6
CONTINUOUS
 62
7
 10
905.91
 20
680.45
 11
905.91
 21
667.45
  0
LINE
  8
Layer1
  6
CONTINUOUS
 62
7
 10
906.487
 20
679.45
 11
912.833
 21
679.45
  0
LINE
  8
Layer1
  6
CONTINUOUS
 62
7
 10
907.064
 20
678.45
 11
912.256
 21
678.45
  0
LINE
  8
Layer1
  6
CONTINUOUS
 62
7
 10
907.64
 20
677.45
 11
911.679
 21
677.45
  0
LINE
  8
Layer1
  6
CONTINUOUS
 62
7
 10
908.217
 20
676.45
 11
911.102
 21
676.45
  0
LINE
  8
Layer1
  6
CONTINUOUS
 62
7
 10
905.91
 20
601.45
 11
913.41
 21
601.45
  0
LINE
  8
Layer1
  6
CONTINUOUS
 62
7
 10
905.91
 20
614.45
 11
913.41
 21
614.45
  0
LINE
  8
Layer1
  6
CONTINUOUS
 62
7
 10
913.41
 20
601.45
 11
913.41
 21
614.45
  0
LINE
  8
Layer1
  6
CONTINUOUS
 62
7
 10
913.91
 20
601.95
 11
913.91
 21
613.95
  0
LINE
  8
Layer1
  6
CONTINUOUS
 62
7
 10
913.41
 20
601.45
 11
913.91
 21
601.95
  0
LINE
  8
Layer1
  6
CONTINUOUS
 62
7
 10
913.41
 20
614.45
 11
913.91
 21
613.95
  0
LINE
  8
Layer1
  6
CONTINUOUS
 62
7
 10
905.91
 20
614.45
 11
905.91
 21
601.45
  0
LINE
  8
Layer1
  6
CONTINUOUS
 62
7
 10
906.487
 20
613.45
 11
912.833
 21
613.45
  0
LINE
  8
Layer1
  6
CONTINUOUS
 62
7
 10
907.064
 20
612.45
 11
912.256
 21
612.45
  0
LINE
  8
Layer1
  6
CONTINUOUS
 62
7
 10
907.64
 20
611.45
 11
911.679
 21
611.45
  0
LINE
  8
Layer1
  6
CONTINUOUS
 62
7
 10
908.217
 20
610.45
 11
911.102
 21
610.45
  0
LINE
  8
Layer1
  6
CENTER1
 62
7
 10
889.034
 20
414.13
 11
914.872
 21
414.13
  0
LINE
  8
Layer1
  6
CENTER1
 62
7
 10
886.818
 20
395.13
 11
914.034
 21
395.13
  0
LINE
  8
Layer1
  6
CENTER1
 62
7
 10
890.313
 20
376.13
 11
921.221
 21
376.13
  0
CIRCLE
  8
Layer1
  6
CONTINUOUS
 62
7
 10
808.545
 20
640.859
 40
3.76681
  0
ARC
  8
Layer1
  6
CONTINUOUS
 62
7
 10
804.072
 20
640.893
 40
1
 50
140.711
 51
225
  0
LINE
  8
Layer1
  6
CONTINUOUS
 62
7
 10
813.055
 20
642.503
 11
815.318
 21
642.503
  0
LINE
  8
Layer1
  6
CONTINUOUS
 62
7
 10
813.055
 20
639.017
 11
815.318
 21
639.017
  0
LINE
  8
Layer1
  6
CONTINUOUS
 62
7
 10
815.318
 20
642.503
 11
815.318
 21
639.017
  0
ARC
  8
Layer1
  6
CONTINUOUS
 62
7
 10
808.545
 20
640.859
 40
4.80058
 50
20.031
 51
140.098
  0
ARC
  8
Layer1
  6
CONTINUOUS
 62
7
 10
808.545
 20
640.859
 40
4.80058
 50
218.056
 51
337.793
  0
ARC
  8
Layer1
  6
CONTINUOUS
 62
7
 10
795.653
 20
633.608
 40
10.1292
 50
24.1178
 51
40.4581
  0
ARC
  8
Layer1
  6
CONTINUOUS
 62
7
 10
795.592
 20
648.099
 40
10.1292
 50
319.542
 51
335.882
  0
ARC
  8
Layer1
  6
CONTINUOUS
 62
7
 10
814.187
 20
642.503
 40
0.542282
 50
0
 51
180
  0
ARC
  8
Layer1
  6
CONTINUOUS
 62
7
 10
814.187
 20
639.017
 40
0.657613
 50
180
 51
2.03555e-013
  0
LINE
  8
Layer1
  6
CONTINUOUS
 62
7
 10
805.029
 20
444.5
 11
813.932
 21
444.5
  0
LINE
  8
Layer1
  6
CONTINUOUS
 62
7
 10
805.029
 20
442.185
 11
812.862
 21
442.185
  0
LINE
  8
Layer1
  6
CONTINUOUS
 62
7
 10
813.932
 20
444.5
 11
815.356
 21
442.838
  0
LINE
  8
Layer1
  6
CONTINUOUS
 62
7
 10
815.356
 20
442.185
 11
815.356
 21
442.838
  0
POLYLINE
  8
Layer1
  6
CONTINUOUS
 62
7
 66
1
 10
0
 20
0
 30
0
  0
VERTEX
  8
Layer1
 10
812.862
 20
442.185
  0
VERTEX
  8
Layer1
 10
812.865
 20
442.103
  0
VERTEX
  8
Layer1
 10
812.871
 20
442.021
  0
VERTEX
  8
Layer1
 10
812.885
 20
441.94
  0
VERTEX
  8
Layer1
 10
812.903
 20
441.86
  0
VERTEX
  8
Layer1
 10
812.925
 20
441.781
  0
VERTEX
  8
Layer1
 10
812.953
 20
441.704
  0
VERTEX
  8
Layer1
 10
812.987
 20
441.629
  0
VERTEX
  8
Layer1
 10
813.025
 20
441.557
  0
VERTEX
  8
Layer1
 10
813.068
 20
441.487
  0
VERTEX
  8
Layer1
 10
813.116
 20
441.42
  0
VERTEX
  8
Layer1
 10
813.168
 20
441.356
  0
VERTEX
  8
Layer1
 10
813.223
 20
441.296
  0
VERTEX
  8
Layer1
 10
813.283
 20
441.239
  0
VERTEX
  8
Layer1
 10
813.346
 20
441.187
  0
VERTEX
  8
Layer1
 10
813.413
 20
441.139
  0
VERTEX
  8
Layer1
 10
813.482
 20
441.095
  0
VERTEX
  8
Layer1
 10
813.554
 20
441.056
  0
VERTEX
  8
Layer1
 10
813.63
 20
441.022
  0
VERTEX
  8
Layer1
 10
813.706
 20
440.993
  0
VERTEX
  8
Layer1
 10
813.784
 20
440.969
  0
VERTEX
  8
Layer1
 10
813.865
 20
440.95
  0
VERTEX
  8
Layer1
 10
813.946
 20
440.937
  0
VERTEX
  8
Layer1
 10
814.028
 20
440.929
  0
VERTEX
  8
Layer1
 10
814.11
 20
440.926
  0
VERTEX
  8
Layer1
 10
814.192
 20
440.929
  0
VERTEX
  8
Layer1
 10
814.273
 20
440.937
  0
VERTEX
  8
Layer1
 10
814.353
 20
440.95
  0
VERTEX
  8
Layer1
 10
814.433
 20
440.969
  0
VERTEX
  8
Layer1
 10
814.512
 20
440.993
  0
VERTEX
  8
Layer1
 10
814.59
 20
441.022
  0
VERTEX
  8
Layer1
 10
814.664
 20
441.056
  0
VERTEX
  8
Layer1
 10
814.736
 20
441.095
  0
VERTEX
  8
Layer1
 10
814.805
 20
441.139
  0
VERTEX
  8
Layer1
 10
814.872
 20
441.187
  0
VERTEX
  8
Layer1
 10
814.935
 20
441.239
  0
VERTEX
  8
Layer1
 10
814.995
 20
441.296
  0
VERTEX
  8
Layer1
 10
815.05
 20
441.356
  0
VERTEX
  8
Layer1
 10
815.102
 20
441.42
  0
VERTEX
  8
Layer1
 10
815.149
 20
441.487
  0
VERTEX
  8
Layer1
 10
815.193
 20
441.557
  0
VERTEX
  8
Layer1
 10
815.231
 20
441.629
  0
VERTEX
  8
Layer1
 10
815.265
 20
441.704
  0
VERTEX
  8
Layer1
 10
815.293
 20
441.781
  0
VERTEX
  8
Layer1
 10
815.316
 20
441.86
  0
VERTEX
  8
Layer1
 10
815.333
 20
441.94
  0
VERTEX
  8
Layer1
 10
815.346
 20
442.021
  0
VERTEX
  8
Layer1
 10
815.353
 20
442.103
  0
VERTEX
  8
Layer1
 10
815.356
 20
442.185
  0
SEQEND
  0
LINE
  8
Layer1
  6
CONTINUOUS
 62
7
 10
805.029
 20
444.5
 11
802.615
 21
441.972
  0
LINE
  8
Layer1
  6
CONTINUOUS
 62
7
 10
805.029
 20
442.185
 11
803.603
 21
440.939
  0
POLYLINE
  8
Layer1
  6
CONTINUOUS
 62
7
 66
1
 10
0
 20
0
 30
0
  0
VERTEX
  8
Layer1
 10
802.615
 20
441.972
  0
VERTEX
  8
Layer1
 10
802.584
 20
441.938
  0
VERTEX
  8
Layer1
 10
802.557
 20
441.902
  0
VERTEX
  8
Layer1
 10
802.53
 20
441.865
  0
VERTEX
  8
Layer1
 10
802.507
 20
441.826
  0
VERTEX
  8
Layer1
 10
802.486
 20
441.785
  0
VERTEX
  8
Layer1
 10
802.468
 20
441.743
  0
VERTEX
  8
Layer1
 10
802.452
 20
441.701
  0
VERTEX
  8
Layer1
 10
802.439
 20
441.657
  0
VERTEX
  8
Layer1
 10
802.429
 20
441.613
  0
VERTEX
  8
Layer1
 10
802.423
 20
441.568
  0
VERTEX
  8
Layer1
 10
802.418
 20
441.522
  0
VERTEX
  8
Layer1
 10
802.417
 20
441.477
  0
VERTEX
  8
Layer1
 10
802.418
 20
441.431
  0
VERTEX
  8
Layer1
 10
802.423
 20
441.386
  0
VERTEX
  8
Layer1
 10
802.429
 20
441.341
  0
VERTEX
  8
Layer1
 10
802.441
 20
441.297
  0
VERTEX
  8
Layer1
 10
802.452
 20
441.253
  0
VERTEX
  8
Layer1
 10
802.468
 20
441.211
  0
VERTEX
  8
Layer1
 10
802.486
 20
441.169
  0
VERTEX
  8
Layer1
 10
802.507
 20
441.128
  0
VERTEX
  8
Layer1
 10
802.531
 20
441.089
  0
VERTEX
  8
Layer1
 10
802.558
 20
441.052
  0
VERTEX
  8
Layer1
 10
802.586
 20
441.016
  0
VERTEX
  8
Layer1
 10
802.616
 20
440.983
  0
VERTEX
  8
Layer1
 10
802.649
 20
440.951
  0
VERTEX
  8
Layer1
 10
802.683
 20
440.921
  0
VERTEX
  8
Layer1
 10
802.718
 20
440.893
  0
VERTEX
  8
Layer1
 10
802.756
 20
440.868
  0
VERTEX
  8
Layer1
 10
802.797
 20
440.846
  0
VERTEX
  8
Layer1
 10
802.837
 20
440.826
  0
VERTEX
  8
Layer1
 10
802.88
 20
440.808
  0
VERTEX
  8
Layer1
 10
802.923
 20
440.793
  0
VERTEX
  8
Layer1
 10
802.967
 20
440.781
  0
VERTEX
  8
Layer1
 10
803.01
 20
440.772
  0
VERTEX
  8
Layer1
 10
803.055
 20
440.766
  0
VERTEX
  8
Layer1
 10
803.101
 20
440.763
  0
VERTEX
  8
Layer1
 10
803.146
 20
440.762
  0
VERTEX
  8
Layer1
 10
803.192
 20
440.764
  0
VERTEX
  8
Layer1
 10
803.237
 20
440.769
  0
VERTEX
  8
Layer1
 10
803.281
 20
440.778
  0
VERTEX
  8
Layer1
 10
803.327
 20
440.788
  0
VERTEX
  8
Layer1
 10
803.37
 20
440.802
  0
VERTEX
  8
Layer1
 10
803.411
 20
440.819
  0
VERTEX
  8
Layer1
 10
803.453
 20
440.838
  0
VERTEX
  8
Layer1
 10
803.494
 20
440.859
  0
VERTEX
  8
Layer1
 10
803.531
 20
440.883
  0
VERTEX
  8
Layer1
 10
803.568
 20
440.91
  0
VERTEX
  8
Layer1
 10
803.603
 20
440.939
  0
SEQEND
  0
LINE
  8
Layer1
  6
CONTINUOUS
 62
7
 10
806.35
 20
442.185
 11
806.35
 21
439.062
  0
LINE
  8
Layer1
  6
CONTINUOUS
 62
7
 10
812.26
 20
442.185
 11
812.26
 21
439.062
  0
LINE
  8
Layer1
  6
CONTINUOUS
 62
7
 10
807.155
 20
428.71
 11
811.543
 21
428.71
  0
LINE
  8
Layer1
  6
CONTINUOUS
 62
7
 10
806.35
 20
429.258
 11
812.35
 21
429.258
  0
LINE
  8
Layer1
  6
CONTINUOUS
 62
7
 10
807.155
 20
428.71
 11
806.35
 21
429.258
  0
LINE
  8
Layer1
  6
CONTINUOUS
 62
7
 10
811.543
 20
428.71
 11
812.35
 21
429.258
  0
LINE
  8
Layer1
  6
CONTINUOUS
 62
7
 10
814.461
 20
435.13
 11
814.461
 21
438.217
  0
LINE
  8
Layer1
  6
CONTINUOUS
 62
7
 10
814.461
 20
438.217
 11
813.342
 21
438.862
  0
LINE
  8
Layer1
  6
CONTINUOUS
 62
7
 10
813.342
 20
439.062
 11
805.439
 21
439.062
  0
LINE
  8
Layer1
  6
CONTINUOUS
 62
7
 10
805.439
 20
438.862
 11
804.322
 21
438.217
  0
LINE
  8
Layer1
  6
CONTINUOUS
 62
7
 10
804.322
 20
438.217
 11
804.322
 21
435.13
  0
LINE
  8
Layer1
  6
CONTINUOUS
 62
7
 10
811.924
 20
435.13
 11
811.924
 21
438.217
  0
LINE
  8
Layer1
  6
CONTINUOUS
 62
7
 10
806.856
 20
435.13
 11
806.856
 21
438.217
  0
POLYLINE
  8
Layer1
  6
CONTINUOUS
 62
7
 66
1
 10
0
 20
0
 30
0
  0
VERTEX
  8
Layer1
 10
811.925
 20
438.217
  0
VERTEX
  8
Layer1
 10
811.822
 20
438.248
  0
VERTEX
  8
Layer1
 10
811.721
 20
438.279
  0
VERTEX
  8
Layer1
 10
811.616
 20
438.308
  0
VERTEX
  8
Layer1
 10
811.514
 20
438.336
  0
VERTEX
  8
Layer1
 10
811.409
 20
438.362
  0
VERTEX
  8
Layer1
 10
811.304
 20
438.387
  0
VERTEX
  8
Layer1
 10
811.201
 20
438.411
  0
VERTEX
  8
Layer1
 10
811.096
 20
438.434
  0
VERTEX
  8
Layer1
 10
810.991
 20
438.455
  0
VERTEX
  8
Layer1
 10
810.885
 20
438.475
  0
VERTEX
  8
Layer1
 10
810.779
 20
438.493
  0
VERTEX
  8
Layer1
 10
810.673
 20
438.51
  0
VERTEX
  8
Layer1
 10
810.567
 20
438.526
  0
VERTEX
  8
Layer1
 10
810.461
 20
438.54
  0
VERTEX
  8
Layer1
 10
810.355
 20
438.553
  0
VERTEX
  8
Layer1
 10
810.247
 20
438.565
  0
VERTEX
  8
Layer1
 10
810.14
 20
438.575
  0
VERTEX
  8
Layer1
 10
810.034
 20
438.584
  0
VERTEX
  8
Layer1
 10
809.927
 20
438.592
  0
VERTEX
  8
Layer1
 10
809.819
 20
438.598
  0
VERTEX
  8
Layer1
 10
809.712
 20
438.603
  0
VERTEX
  8
Layer1
 10
809.606
 20
438.606
  0
VERTEX
  8
Layer1
 10
809.497
 20
438.608
  0
VERTEX
  8
Layer1
 10
809.39
 20
438.609
  0
VERTEX
  8
Layer1
 10
809.284
 20
438.608
  0
VERTEX
  8
Layer1
 10
809.177
 20
438.606
  0
VERTEX
  8
Layer1
 10
809.068
 20
438.603
  0
VERTEX
  8
Layer1
 10
808.962
 20
438.598
  0
VERTEX
  8
Layer1
 10
808.855
 20
438.592
  0
VERTEX
  8
Layer1
 10
808.747
 20
438.584
  0
VERTEX
  8
Layer1
 10
808.64
 20
438.575
  0
VERTEX
  8
Layer1
 10
808.534
 20
438.565
  0
VERTEX
  8
Layer1
 10
808.428
 20
438.553
  0
VERTEX
  8
Layer1
 10
808.321
 20
438.54
  0
VERTEX
  8
Layer1
 10
808.215
 20
438.526
  0
VERTEX
  8
Layer1
 10
808.108
 20
438.51
  0
VERTEX
  8
Layer1
 10
808.002
 20
438.493
  0
VERTEX
  8
Layer1
 10
807.896
 20
438.475
  0
VERTEX
  8
Layer1
 10
807.792
 20
438.455
  0
VERTEX
  8
Layer1
 10
807.685
 20
438.434
  0
VERTEX
  8
Layer1
 10
807.582
 20
438.411
  0
VERTEX
  8
Layer1
 10
807.476
 20
438.387
  0
VERTEX
  8
Layer1
 10
807.372
 20
438.362
  0
VERTEX
  8
Layer1
 10
807.269
 20
438.336
  0
VERTEX
  8
Layer1
 10
807.164
 20
438.308
  0
VERTEX
  8
Layer1
 10
807.062
 20
438.279
  0
VERTEX
  8
Layer1
 10
806.958
 20
438.248
  0
VERTEX
  8
Layer1
 10
806.856
 20
438.217
  0
SEQEND
  0
POLYLINE
  8
Layer1
  6
CONTINUOUS
 62
7
 66
1
 10
0
 20
0
 30
0
  0
VERTEX
  8
Layer1
 10
814.461
 20
438.217
  0
VERTEX
  8
Layer1
 10
814.414
 20
438.248
  0
VERTEX
  8
Layer1
 10
814.366
 20
438.278
  0
VERTEX
  8
Layer1
 10
814.318
 20
438.306
  0
VERTEX
  8
Layer1
 10
814.269
 20
438.334
  0
VERTEX
  8
Layer1
 10
814.22
 20
438.36
  0
VERTEX
  8
Layer1
 10
814.169
 20
438.385
  0
VERTEX
  8
Layer1
 10
814.119
 20
438.409
  0
VERTEX
  8
Layer1
 10
814.067
 20
438.432
  0
VERTEX
  8
Layer1
 10
814.015
 20
438.453
  0
VERTEX
  8
Layer1
 10
813.962
 20
438.473
  0
VERTEX
  8
Layer1
 10
813.909
 20
438.491
  0
VERTEX
  8
Layer1
 10
813.856
 20
438.509
  0
VERTEX
  8
Layer1
 10
813.803
 20
438.524
  0
VERTEX
  8
Layer1
 10
813.747
 20
438.539
  0
VERTEX
  8
Layer1
 10
813.693
 20
438.552
  0
VERTEX
  8
Layer1
 10
813.639
 20
438.564
  0
VERTEX
  8
Layer1
 10
813.583
 20
438.575
  0
VERTEX
  8
Layer1
 10
813.529
 20
438.584
  0
VERTEX
  8
Layer1
 10
813.472
 20
438.591
  0
VERTEX
  8
Layer1
 10
813.417
 20
438.598
  0
VERTEX
  8
Layer1
 10
813.361
 20
438.603
  0
VERTEX
  8
Layer1
 10
813.304
 20
438.606
  0
VERTEX
  8
Layer1
 10
813.249
 20
438.608
  0
VERTEX
  8
Layer1
 10
813.193
 20
438.609
  0
VERTEX
  8
Layer1
 10
813.136
 20
438.608
  0
VERTEX
  8
Layer1
 10
813.081
 20
438.606
  0
VERTEX
  8
Layer1
 10
813.024
 20
438.603
  0
VERTEX
  8
Layer1
 10
812.968
 20
438.598
  0
VERTEX
  8
Layer1
 10
812.913
 20
438.591
  0
VERTEX
  8
Layer1
 10
812.857
 20
438.584
  0
VERTEX
  8
Layer1
 10
812.802
 20
438.575
  0
VERTEX
  8
Layer1
 10
812.746
 20
438.564
  0
VERTEX
  8
Layer1
 10
812.692
 20
438.552
  0
VERTEX
  8
Layer1
 10
812.637
 20
438.539
  0
VERTEX
  8
Layer1
 10
812.582
 20
438.524
  0
VERTEX
  8
Layer1
 10
812.529
 20
438.509
  0
VERTEX
  8
Layer1
 10
812.476
 20
438.491
  0
VERTEX
  8
Layer1
 10
812.423
 20
438.473
  0
VERTEX
  8
Layer1
 10
812.37
 20
438.453
  0
VERTEX
  8
Layer1
 10
812.318
 20
438.432
  0
VERTEX
  8
Layer1
 10
812.266
 20
438.409
  0
VERTEX
  8
Layer1
 10
812.217
 20
438.385
  0
VERTEX
  8
Layer1
 10
812.165
 20
438.36
  0
VERTEX
  8
Layer1
 10
812.116
 20
438.334
  0
VERTEX
  8
Layer1
 10
812.068
 20
438.306
  0
VERTEX
  8
Layer1
 10
812.019
 20
438.278
  0
VERTEX
  8
Layer1
 10
811.971
 20
438.248
  0
VERTEX
  8
Layer1
 10
811.925
 20
438.217
  0
SEQEND
  0
POLYLINE
  8
Layer1
  6
CONTINUOUS
 62
7
 66
1
 10
0
 20
0
 30
0
  0
VERTEX
  8
Layer1
 10
806.856
 20
438.217
  0
VERTEX
  8
Layer1
 10
806.809
 20
438.248
  0
VERTEX
  8
Layer1
 10
806.762
 20
438.278
  0
VERTEX
  8
Layer1
 10
806.713
 20
438.306
  0
VERTEX
  8
Layer1
 10
806.664
 20
438.334
  0
VERTEX
  8
Layer1
 10
806.616
 20
438.36
  0
VERTEX
  8
Layer1
 10
806.566
 20
438.385
  0
VERTEX
  8
Layer1
 10
806.515
 20
438.409
  0
VERTEX
  8
Layer1
 10
806.462
 20
438.432
  0
VERTEX
  8
Layer1
 10
806.41
 20
438.453
  0
VERTEX
  8
Layer1
 10
806.358
 20
438.473
  0
VERTEX
  8
Layer1
 10
806.305
 20
438.491
  0
VERTEX
  8
Layer1
 10
806.252
 20
438.509
  0
VERTEX
  8
Layer1
 10
806.198
 20
438.524
  0
VERTEX
  8
Layer1
 10
806.144
 20
438.539
  0
VERTEX
  8
Layer1
 10
806.09
 20
438.552
  0
VERTEX
  8
Layer1
 10
806.034
 20
438.564
  0
VERTEX
  8
Layer1
 10
805.98
 20
438.575
  0
VERTEX
  8
Layer1
 10
805.924
 20
438.584
  0
VERTEX
  8
Layer1
 10
805.869
 20
438.591
  0
VERTEX
  8
Layer1
 10
805.813
 20
438.598
  0
VERTEX
  8
Layer1
 10
805.756
 20
438.603
  0
VERTEX
  8
Layer1
 10
805.701
 20
438.606
  0
VERTEX
  8
Layer1
 10
805.644
 20
438.608
  0
VERTEX
  8
Layer1
 10
805.588
 20
438.609
  0
VERTEX
  8
Layer1
 10
805.533
 20
438.608
  0
VERTEX
  8
Layer1
 10
805.476
 20
438.606
  0
VERTEX
  8
Layer1
 10
805.42
 20
438.603
  0
VERTEX
  8
Layer1
 10
805.365
 20
438.598
  0
VERTEX
  8
Layer1
 10
805.308
 20
438.591
  0
VERTEX
  8
Layer1
 10
805.254
 20
438.584
  0
VERTEX
  8
Layer1
 10
805.197
 20
438.575
  0
VERTEX
  8
Layer1
 10
805.143
 20
438.564
  0
VERTEX
  8
Layer1
 10
805.087
 20
438.552
  0
VERTEX
  8
Layer1
 10
805.034
 20
438.539
  0
VERTEX
  8
Layer1
 10
804.98
 20
438.524
  0
VERTEX
  8
Layer1
 10
804.925
 20
438.509
  0
VERTEX
  8
Layer1
 10
804.871
 20
438.491
  0
VERTEX
  8
Layer1
 10
804.818
 20
438.473
  0
VERTEX
  8
Layer1
 10
804.766
 20
438.453
  0
VERTEX
  8
Layer1
 10
804.715
 20
438.432
  0
VERTEX
  8
Layer1
 10
804.664
 20
438.409
  0
VERTEX
  8
Layer1
 10
804.612
 20
438.385
  0
VERTEX
  8
Layer1
 10
804.563
 20
438.36
  0
VERTEX
  8
Layer1
 10
804.512
 20
438.334
  0
VERTEX
  8
Layer1
 10
804.463
 20
438.306
  0
VERTEX
  8
Layer1
 10
804.415
 20
438.278
  0
VERTEX
  8
Layer1
 10
804.367
 20
438.248
  0
VERTEX
  8
Layer1
 10
804.322
 20
438.217
  0
SEQEND
  0
POLYLINE
  8
Layer1
  6
CONTINUOUS
 62
7
 66
1
 10
0
 20
0
 30
0
 70
1
  0
VERTEX
  8
Layer1
 10
814.655
 20
442.173
  0
VERTEX
  8
Layer1
 10
814.65
 20
442.244
  0
VERTEX
  8
Layer1
 10
814.636
 20
442.314
  0
VERTEX
  8
Layer1
 10
814.614
 20
442.382
  0
VERTEX
  8
Layer1
 10
814.582
 20
442.446
  0
VERTEX
  8
Layer1
 10
814.543
 20
442.505
  0
VERTEX
  8
Layer1
 10
814.495
 20
442.559
  0
VERTEX
  8
Layer1
 10
814.442
 20
442.606
  0
VERTEX
  8
Layer1
 10
814.382
 20
442.645
  0
VERTEX
  8
Layer1
 10
814.318
 20
442.677
  0
VERTEX
  8
Layer1
 10
814.25
 20
442.7
  0
VERTEX
  8
Layer1
 10
814.18
 20
442.714
  0
VERTEX
  8
Layer1
 10
814.11
 20
442.719
  0
VERTEX
  8
Layer1
 10
814.038
 20
442.714
  0
VERTEX
  8
Layer1
 10
813.967
 20
442.7
  0
VERTEX
  8
Layer1
 10
813.9
 20
442.677
  0
VERTEX
  8
Layer1
 10
813.837
 20
442.645
  0
VERTEX
  8
Layer1
 10
813.776
 20
442.606
  0
VERTEX
  8
Layer1
 10
813.723
 20
442.559
  0
VERTEX
  8
Layer1
 10
813.675
 20
442.505
  0
VERTEX
  8
Layer1
 10
813.636
 20
442.446
  0
VERTEX
  8
Layer1
 10
813.605
 20
442.382
  0
VERTEX
  8
Layer1
 10
813.582
 20
442.314
  0
VERTEX
  8
Layer1
 10
813.568
 20
442.244
  0
VERTEX
  8
Layer1
 10
813.563
 20
442.173
  0
VERTEX
  8
Layer1
 10
813.568
 20
442.101
  0
VERTEX
  8
Layer1
 10
813.582
 20
442.031
  0
VERTEX
  8
Layer1
 10
813.605
 20
441.964
  0
VERTEX
  8
Layer1
 10
813.636
 20
441.9
  0
VERTEX
  8
Layer1
 10
813.675
 20
441.84
  0
VERTEX
  8
Layer1
 10
813.723
 20
441.786
  0
VERTEX
  8
Layer1
 10
813.776
 20
441.739
  0
VERTEX
  8
Layer1
 10
813.837
 20
441.7
  0
VERTEX
  8
Layer1
 10
813.9
 20
441.668
  0
VERTEX
  8
Layer1
 10
813.967
 20
441.645
  0
VERTEX
  8
Layer1
 10
814.038
 20
441.631
  0
VERTEX
  8
Layer1
 10
814.11
 20
441.627
  0
VERTEX
  8
Layer1
 10
814.18
 20
441.631
  0
VERTEX
  8
Layer1
 10
814.25
 20
441.645
  0
VERTEX
  8
Layer1
 10
814.318
 20
441.668
  0
VERTEX
  8
Layer1
 10
814.382
 20
441.7
  0
VERTEX
  8
Layer1
 10
814.442
 20
441.739
  0
VERTEX
  8
Layer1
 10
814.495
 20
441.786
  0
VERTEX
  8
Layer1
 10
814.543
 20
441.84
  0
VERTEX
  8
Layer1
 10
814.582
 20
441.9
  0
VERTEX
  8
Layer1
 10
814.614
 20
441.964
  0
VERTEX
  8
Layer1
 10
814.636
 20
442.031
  0
VERTEX
  8
Layer1
 10
814.65
 20
442.101
  0
SEQEND
  0
LINE
  8
Layer1
  6
CONTINUOUS
 62
7
 10
806.35
 20
429.258
 11
806.35
 21
435.13
  0
LINE
  8
Layer1
  6
CONTINUOUS
 62
7
 10
812.35
 20
429.258
 11
812.35
 21
435.13
  0
LINE
  8
Layer1
  6
CONTINUOUS
 62
7
 10
804.322
 20
435.13
 11
814.461
 21
435.13
  0
LINE
  8
Layer1
  6
PHANTOM1
 62
7
 10
893.915
 20
467.33
 11
848.91
 21
467.33
  0
LINE
  8
Layer1
  6
PHANTOM1
 62
7
 10
893.903
 20
451.33
 11
848.91
 21
451.33
  0
LINE
  8
Layer1
  6
CONTINUOUS
 62
7
 10
769.89
 20
370.13
 11
825.338
 21
370.13
  0
LINE
  8
Layer1
  6
CONTINUOUS
 62
7
 10
784.289
 20
370.13
 11
784.289
 21
352.13
  0
LINE
  8
Layer1
  6
CONTINUOUS
 62
7
 10
825.372
 20
372.13
 11
869.911
 21
372.13
  0
LINE
  8
Layer1
  6
DASHED1
 62
7
 10
831.951
 20
352.13
 11
834.269
 21
352.13
  0
LINE
  8
Layer1
  6
CONTINUOUS
 62
7
 10
893.91
 20
392.829
 11
848.91
 21
446.458
  0
LINE
  8
Layer1
  6
CONTINUOUS
 62
7
 10
881.91
 20
407.13
 11
890.866
 21
407.13
  0
LINE
  8
Layer1
  6
CONTINUOUS
 62
7
 10
848.91
 20
496.119
 11
848.91
 21
446.458
  0
ARC
  8
Layer1
  6
CONTINUOUS
 62
7
 10
890.866
 20
410.13
 40
3
 50
270
 51
0
  0
LINE
  8
Layer1
  6
CONTINUOUS
 62
7
 10
893.91
 20
373.132
 11
892.909
 21
372.13
  0
LINE
  8
Layer1
  6
CONTINUOUS
 62
7
 10
894.866
 20
367.13
 11
904.91
 21
367.13
  0
LINE
  8
Layer1
  6
CONTINUOUS
 62
7
 10
905.91
 20
368.13
 11
905.91
 21
429.13
  0
LINE
  8
Layer1
  6
CONTINUOUS
 62
7
 10
894.866
 20
430.13
 11
904.91
 21
430.13
  0
LINE
  8
Layer1
  6
CONTINUOUS
 62
7
 10
904.91
 20
430.13
 11
905.91
 21
429.13
  0
LINE
  8
Layer1
  6
CONTINUOUS
 62
7
 10
905.91
 20
368.13
 11
904.91
 21
367.13
  0
LINE
  8
Layer1
  6
CONTINUOUS
 62
7
 10
894.866
 20
367.13
 11
893.91
 21
368.085
  0
LINE
  8
Layer1
  6
CONTINUOUS
 62
7
 10
893.91
 20
429.175
 11
894.866
 21
430.13
  0
LINE
  8
Layer1
  6
CONTINUOUS
 62
7
 10
848.91
 20
482.141
 11
849.92
 21
481.13
  0
LINE
  8
Layer1
  6
CONTINUOUS
 62
7
 10
848.91
 20
496.119
 11
849.92
 21
497.13
  0
LINE
  8
Layer1
  6
CONTINUOUS
 62
7
 10
853.42
 20
497.13
 11
864.42
 21
497.13
  0
LINE
  8
Layer1
  6
CONTINUOUS
 62
7
 10
848.89
 20
434.13
 11
848.89
 21
423.173
  0
LINE
  8
Layer1
  6
CONTINUOUS
 62
7
 10
768.909
 20
433.149
 11
768.909
 21
423.173
  0
LINE
  8
Layer1
  6
CONTINUOUS
 62
7
 10
824.908
 20
435.13
 11
817.707
 21
427.93
  0
LINE
  8
Layer1
  6
CONTINUOUS
 62
7
 10
769.952
 20
422.13
 11
768.909
 21
423.173
  0
LINE
  8
Layer1
  6
CONTINUOUS
 62
7
 10
770.89
 20
435.13
 11
768.909
 21
433.149
  0
LINE
  8
Layer1
  6
CONTINUOUS
 62
7
 10
828.908
 20
435.13
 11
821.707
 21
427.93
  0
LINE
  8
Layer1
  6
CONTINUOUS
 62
7
 10
820.908
 20
435.13
 11
813.707
 21
427.93
  0
LINE
  8
Layer1
  6
CONTINUOUS
 62
7
 10
822.89
 20
428.13
 11
795.89
 21
428.13
  0
LINE
  8
Layer1
  6
CONTINUOUS
 62
7
 10
804.908
 20
435.13
 11
797.707
 21
427.93
  0
LINE
  8
Layer1
  6
CONTINUOUS
 62
7
 10
794.39
 20
424.814
 11
791.707
 21
422.13
  0
LINE
  8
Layer1
  6
CONTINUOUS
 62
7
 10
847.89
 20
435.13
 11
770.89
 21
435.13
  0
LINE
  8
Layer1
  6
CONTINUOUS
 62
7
 10
800.908
 20
435.13
 11
799.14
 21
433.364
  0
LINE
  8
Layer1
  6
CONTINUOUS
 62
7
 10
796.265
 20
434.489
 11
790.644
 21
428.868
  0
LINE
  8
Layer1
  6
CONTINUOUS
 62
7
 10
792.908
 20
435.13
 11
789.614
 21
431.837
  0
LINE
  8
Layer1
  6
CONTINUOUS
 62
7
 10
824.39
 20
423.13
 11
824.39
 21
426.63
  0
LINE
  8
Layer1
  6
CONTINUOUS
 62
7
 10
794.39
 20
423.13
 11
794.39
 21
426.63
  0
LINE
  8
Layer1
  6
CENTER2
 62
7
 10
809.39
 20
439.289
 11
809.39
 21
416.869
  0
LINE
  8
Layer1
  6
CONTINUOUS
 62
7
 10
816.908
 20
435.13
 11
812.39
 21
430.614
  0
ARC
  8
Layer1
  6
CONTINUOUS
 62
7
 10
822.89
 20
426.63
 40
1.5
 50
2.03555e-013
 51
90
  0
ARC
  8
Layer1
  6
CONTINUOUS
 62
7
 10
795.89
 20
426.63
 40
1.5
 50
90
 51
180
  0
LINE
  8
Layer1
  6
CONTINUOUS
 62
7
 10
793.39
 20
422.13
 11
791.707
 21
422.13
  0
ARC
  8
Layer1
  6
CONTINUOUS
 62
7
 10
825.39
 20
423.13
 40
1
 50
180
 51
270
  0
ARC
  8
Layer1
  6
CONTINUOUS
 62
7
 10
793.39
 20
423.13
 40
1
 50
270
 51
2.03555e-013
  0
LINE
  8
Layer1
  6
CENTER1
 62
7
 10
797.89
 20
437.993
 11
797.89
 21
429.567
  0
LINE
  8
Layer1
  6
CONTINUOUS
 62
7
 10
795.89
 20
435.13
 11
796.64
 21
433.831
  0
LINE
  8
Layer1
  6
CONTINUOUS
 62
7
 10
796.937
 20
431.16
 11
790.481
 21
424.704
  0
LINE
  8
Layer1
  6
CONTINUOUS
 62
7
 10
796.64
 20
431.331
 11
796.64
 21
432.285
  0
LINE
  8
Layer1
  6
CONTINUOUS
 62
7
 10
799.89
 20
435.13
 11
799.14
 21
433.831
  0
LINE
  8
Layer1
  6
CONTINUOUS
 62
7
 10
799.14
 20
431.331
 11
799.14
 21
432.138
  0
LINE
  8
Layer1
  6
CONTINUOUS
 62
7
 10
799.14
 20
431.331
 11
798.411
 21
431.331
  0
LINE
  8
Layer1
  6
CONTINUOUS
 62
7
 10
797.265
 20
431.331
 11
796.64
 21
431.331
  0
LINE
  8
Layer1
  6
CONTINUOUS
 62
7
 10
796.64
 20
431.331
 11
796.937
 21
431.16
  0
LINE
  8
Layer1
  6
CONTINUOUS
 62
7
 10
799.14
 20
433.831
 11
798.313
 21
433.831
  0
LINE
  8
Layer1
  6
CONTINUOUS
 62
7
 10
811.89
 20
434.13
 11
811.89
 21
427.93
  0
LINE
  8
Layer1
  6
CONTINUOUS
 62
7
 10
806.89
 20
434.13
 11
806.89
 21
427.93
  0
LINE
  8
Layer1
  6
CONTINUOUS
 62
7
 10
806.39
 20
434.13
 11
806.39
 21
427.93
  0
LINE
  8
Layer1
  6
CONTINUOUS
 62
7
 10
812.39
 20
434.13
 11
812.39
 21
427.93
  0
LINE
  8
Layer1
  6
CONTINUOUS
 62
7
 10
806.39
 20
428.614
 11
805.707
 21
427.93
  0
LINE
  8
Layer1
  6
CONTINUOUS
 62
7
 10
812.39
 20
434.13
 11
806.39
 21
434.13
  0
LINE
  8
Layer1
  6
CONTINUOUS
 62
7
 10
806.39
 20
434.13
 11
805.39
 21
435.13
  0
LINE
  8
Layer1
  6
CONTINUOUS
 62
7
 10
812.39
 20
434.13
 11
813.39
 21
435.13
  0
LINE
  8
Layer1
  6
CONTINUOUS
 62
7
 10
809.39
 20
434.13
 11
809.39
 21
433.517
  0
LINE
  8
Layer1
  6
CONTINUOUS
 62
7
 10
834.414
 20
428.638
 11
827.707
 21
421.93
  0
LINE
  8
Layer1
  6
CONTINUOUS
 62
7
 10
836.908
 20
435.13
 11
824.39
 21
422.614
  0
LINE
  8
Layer1
  6
CONTINUOUS
 62
7
 10
824.583
 20
426.807
 11
832.908
 21
435.13
  0
POLYLINE
  8
Layer1
  6
CONTINUOUS
 62
7
 66
1
 10
0
 20
0
 30
0
  0
VERTEX
  8
Layer1
 10
788.87
 20
435.13
  0
VERTEX
  8
Layer1
 10
788.896
 20
434.964
  0
VERTEX
  8
Layer1
 10
788.923
 20
434.797
  0
VERTEX
  8
Layer1
 10
788.948
 20
434.631
  0
VERTEX
  8
Layer1
 10
788.976
 20
434.464
  0
VERTEX
  8
Layer1
 10
789.002
 20
434.298
  0
VERTEX
  8
Layer1
 10
789.03
 20
434.132
  0
VERTEX
  8
Layer1
 10
789.059
 20
433.966
  0
VERTEX
  8
Layer1
 10
789.091
 20
433.8
  0
VERTEX
  8
Layer1
 10
789.121
 20
433.635
  0
VERTEX
  8
Layer1
 10
789.155
 20
433.47
  0
VERTEX
  8
Layer1
 10
789.191
 20
433.305
  0
VERTEX
  8
Layer1
 10
789.227
 20
433.141
  0
VERTEX
  8
Layer1
 10
789.266
 20
432.977
  0
VERTEX
  8
Layer1
 10
789.308
 20
432.813
  0
VERTEX
  8
Layer1
 10
789.351
 20
432.65
  0
VERTEX
  8
Layer1
 10
789.398
 20
432.487
  0
VERTEX
  8
Layer1
 10
789.447
 20
432.325
  0
VERTEX
  8
Layer1
 10
789.499
 20
432.163
  0
VERTEX
  8
Layer1
 10
789.553
 20
432.002
  0
VERTEX
  8
Layer1
 10
789.611
 20
431.842
  0
VERTEX
  8
Layer1
 10
789.673
 20
431.682
  0
VERTEX
  8
Layer1
 10
789.737
 20
431.523
  0
VERTEX
  8
Layer1
 10
789.804
 20
431.364
  0
VERTEX
  8
Layer1
 10
789.872
 20
431.205
  0
VERTEX
  8
Layer1
 10
789.942
 20
431.047
  0
VERTEX
  8
Layer1
 10
790.01
 20
430.889
  0
VERTEX
  8
Layer1
 10
790.079
 20
430.732
  0
VERTEX
  8
Layer1
 10
790.148
 20
430.574
  0
VERTEX
  8
Layer1
 10
790.215
 20
430.416
  0
VERTEX
  8
Layer1
 10
790.279
 20
430.258
  0
VERTEX
  8
Layer1
 10
790.34
 20
430.1
  0
VERTEX
  8
Layer1
 10
790.398
 20
429.941
  0
VERTEX
  8
Layer1
 10
790.452
 20
429.782
  0
VERTEX
  8
Layer1
 10
790.5
 20
429.623
  0
VERTEX
  8
Layer1
 10
790.543
 20
429.463
  0
VERTEX
  8
Layer1
 10
790.581
 20
429.303
  0
VERTEX
  8
Layer1
 10
790.611
 20
429.141
  0
VERTEX
  8
Layer1
 10
790.635
 20
428.979
  0
VERTEX
  8
Layer1
 10
790.65
 20
428.816
  0
VERTEX
  8
Layer1
 10
790.658
 20
428.652
  0
VERTEX
  8
Layer1
 10
790.658
 20
428.487
  0
VERTEX
  8
Layer1
 10
790.651
 20
428.321
  0
VERTEX
  8
Layer1
 10
790.64
 20
428.155
  0
VERTEX
  8
Layer1
 10
790.624
 20
427.988
  0
VERTEX
  8
Layer1
 10
790.603
 20
427.82
  0
VERTEX
  8
Layer1
 10
790.581
 20
427.652
  0
VERTEX
  8
Layer1
 10
790.555
 20
427.483
  0
VERTEX
  8
Layer1
 10
790.529
 20
427.315
  0
VERTEX
  8
Layer1
 10
790.504
 20
427.145
  0
VERTEX
  8
Layer1
 10
790.477
 20
426.976
  0
VERTEX
  8
Layer1
 10
790.453
 20
426.807
  0
VERTEX
  8
Layer1
 10
790.432
 20
426.637
  0
VERTEX
  8
Layer1
 10
790.413
 20
426.468
  0
VERTEX
  8
Layer1
 10
790.399
 20
426.299
  0
VERTEX
  8
Layer1
 10
790.389
 20
426.13
  0
VERTEX
  8
Layer1
 10
790.385
 20
425.961
  0
VERTEX
  8
Layer1
 10
790.386
 20
425.792
  0
VERTEX
  8
Layer1
 10
790.393
 20
425.624
  0
VERTEX
  8
Layer1
 10
790.403
 20
425.456
  0
VERTEX
  8
Layer1
 10
790.417
 20
425.288
  0
VERTEX
  8
Layer1
 10
790.434
 20
425.121
  0
VERTEX
  8
Layer1
 10
790.453
 20
424.953
  0
VERTEX
  8
Layer1
 10
790.476
 20
424.785
  0
VERTEX
  8
Layer1
 10
790.499
 20
424.618
  0
VERTEX
  8
Layer1
 10
790.523
 20
424.451
  0
VERTEX
  8
Layer1
 10
790.547
 20
424.283
  0
VERTEX
  8
Layer1
 10
790.572
 20
424.116
  0
VERTEX
  8
Layer1
 10
790.595
 20
423.949
  0
VERTEX
  8
Layer1
 10
790.616
 20
423.781
  0
VERTEX
  8
Layer1
 10
790.636
 20
423.613
  0
VERTEX
  8
Layer1
 10
790.654
 20
423.446
  0
VERTEX
  8
Layer1
 10
790.668
 20
423.278
  0
VERTEX
  8
Layer1
 10
790.679
 20
423.11
  0
VERTEX
  8
Layer1
 10
790.688
 20
422.942
  0
VERTEX
  8
Layer1
 10
790.692
 20
422.773
  0
VERTEX
  8
Layer1
 10
790.693
 20
422.605
  0
VERTEX
  8
Layer1
 10
790.691
 20
422.436
  0
VERTEX
  8
Layer1
 10
790.688
 20
422.268
  0
VERTEX
  8
Layer1
 10
790.683
 20
422.099
  0
VERTEX
  8
Layer1
 10
790.678
 20
421.93
  0
SEQEND
  0
LINE
  8
Layer1
  6
CONTINUOUS
 62
7
 10
797.427
 20
433.831
 11
796.64
 21
433.831
  0
LINE
  8
Layer1
  6
CONTINUOUS
 62
7
 10
799.14
 20
433.122
 11
799.14
 21
433.831
  0
LINE
  8
Layer1
  6
CONTINUOUS
 62
7
 10
796.64
 20
433.024
 11
796.64
 21
433.831
  0
LINE
  8
Layer1
  6
CONTINUOUS
 62
7
 10
799.14
 20
431.331
 11
798.411
 21
430.91
  0
LINE
  8
Layer1
  6
CONTINUOUS
 62
7
 10
797.427
 20
430.878
 11
797.89
 21
430.609
  0
LINE
  8
Layer1
  6
CENTER1
 62
7
 10
839.39
 20
418.528
 11
839.39
 21
437.995
  0
LINE
  8
Layer1
  6
CENTER1
 62
7
 10
779.39
 20
437.559
 11
779.39
 21
419.556
  0
LINE
  8
Layer1
  6
CONTINUOUS
 62
7
 10
893.91
 20
581.859
 11
893.91
 21
699.859
  0
LINE
  8
Layer1
  6
CONTINUOUS
 62
7
 10
892.91
 20
700.859
 11
893.91
 21
699.859
  0
LINE
  8
Layer1
  6
CONTINUOUS
 62
7
 10
893.91
 20
581.859
 11
892.91
 21
580.859
  0
CIRCLE
  8
Layer1
  6
CONTINUOUS
 62
7
 10
831.409
 20
690.859
 40
7
  0
CIRCLE
  8
Layer1
  6
CONTINUOUS
 62
7
 10
831.409
 20
690.859
 40
4.5
  0
LINE
  8
Layer1
  6
CENTER1
 62
7
 10
831.409
 20
682.204
 11
831.409
 21
699.569
  0
LINE
  8
Layer1
  6
CENTER1
 62
7
 10
819.129
 20
690.859
 11
843.635
 21
690.859
  0
LINE
  8
Layer1
  6
CONTINUOUS
 62
7
 10
849.866
 20
681.859
 11
892.91
 21
681.859
  0
LINE
  8
Layer1
  6
CONTINUOUS
 62
7
 10
849.866
 20
599.859
 11
892.91
 21
599.859
  0
LINE
  8
Layer1
  6
CONTINUOUS
 62
7
 10
893.91
 20
600.859
 11
893.91
 21
680.859
  0
LINE
  8
Layer1
  6
CONTINUOUS
 62
7
 10
848.91
 20
680.859
 11
848.91
 21
600.859
  0
LINE
  8
Layer1
  6
CONTINUOUS
 62
7
 10
892.91
 20
681.859
 11
893.91
 21
680.859
  0
LINE
  8
Layer1
  6
CONTINUOUS
 62
7
 10
893.91
 20
600.859
 11
892.91
 21
599.859
  0
LINE
  8
Layer1
  6
CONTINUOUS
 62
7
 10
849.866
 20
599.859
 11
848.866
 21
600.859
  0
LINE
  8
Layer1
  6
CONTINUOUS
 62
7
 10
848.866
 20
680.859
 11
849.866
 21
681.859
  0
LINE
  8
Layer1
  6
CENTER1
 62
7
 10
873.971
 20
608.359
 11
892.403
 21
608.359
  0
CIRCLE
  8
Layer1
  6
CONTINUOUS
 62
7
 10
883.91
 20
673.359
 40
4.5
  0
CIRCLE
  8
Layer1
  6
CONTINUOUS
 62
7
 10
883.91
 20
608.359
 40
4.5
  0
CIRCLE
  8
Layer1
  6
CONTINUOUS
 62
7
 10
858.91
 20
608.359
 40
4.5
  0
CIRCLE
  8
Layer1
  6
CONTINUOUS
 62
7
 10
858.91
 20
673.359
 40
4.5
  0
CIRCLE
  8
Layer1
  6
DASHED1
 62
7
 10
883.91
 20
673.359
 40
7
  0
CIRCLE
  8
Layer1
  6
DASHED1
 62
7
 10
883.91
 20
608.359
 40
7
  0
CIRCLE
  8
Layer1
  6
DASHED1
 62
7
 10
858.91
 20
608.359
 40
7
  0
CIRCLE
  8
Layer1
  6
DASHED1
 62
7
 10
858.91
 20
673.359
 40
7
  0
LINE
  8
Layer1
  6
CENTER1
 62
7
 10
883.91
 20
617.124
 11
883.91
 21
595.245
  0
LINE
  8
Layer1
  6
CENTER1
 62
7
 10
883.91
 20
680.562
 11
883.91
 21
659.791
  0
LINE
  8
Layer1
  6
CENTER1
 62
7
 10
848.866
 20
673.359
 11
867.425
 21
673.359
  0
LINE
  8
Layer1
  6
CENTER1
 62
7
 10
858.91
 20
616.049
 11
858.91
 21
596.663
  0
LINE
  8
Layer1
  6
CENTER1
 62
7
 10
858.91
 20
684.298
 11
858.91
 21
662.419
  0
LINE
  8
Layer1
  6
CENTER1
 62
7
 10
849.626
 20
608.359
 11
868.244
 21
608.359
  0
LINE
  8
Layer1
  6
CONTINUOUS
 62
7
 10
770.045
 20
599.859
 11
846.909
 21
599.859
  0
LINE
  8
Layer1
  6
CONTINUOUS
 62
7
 10
847.909
 20
600.859
 11
847.909
 21
680.859
  0
LINE
  8
Layer1
  6
CONTINUOUS
 62
7
 10
846.909
 20
681.859
 11
847.909
 21
680.859
  0
LINE
  8
Layer1
  6
CONTINUOUS
 62
7
 10
847.909
 20
600.859
 11
846.909
 21
599.859
  0
LINE
  8
Layer1
  6
CONTINUOUS
 62
7
 10
770.045
 20
599.859
 11
769.045
 21
600.859
  0
LINE
  8
Layer1
  6
CONTINUOUS
 62
7
 10
770.045
 20
681.859
 11
768.983
 21
680.859
  0
LINE
  8
Layer1
  6
CONTINUOUS
 62
7
 10
809.784
 20
640.859
 11
807.492
 21
640.859
  0
LINE
  8
Layer1
  6
CONTINUOUS
 62
7
 10
770.045
 20
681.859
 11
846.909
 21
681.859
  0
LINE
  8
Layer1
  6
CENTER1
 62
7
 10
800.437
 20
673.359
 11
792.799
 21
673.359
  0
LINE
  8
Layer1
  6
CENTER1
 62
7
 10
796.909
 20
612.293
 11
796.909
 21
604.523
  0
POLYLINE
  8
Layer1
  6
CONTINUOUS
 62
7
 66
1
 10
0
 20
0
 30
0
  0
VERTEX
  8
Layer1
 10
823.473
 20
649.388
  0
VERTEX
  8
Layer1
 10
823.459
 20
649.439
  0
VERTEX
  8
Layer1
 10
823.438
 20
649.502
  0
VERTEX
  8
Layer1
 10
823.417
 20
649.563
  0
VERTEX
  8
Layer1
 10
823.393
 20
649.624
  0
VERTEX
  8
Layer1
 10
823.366
 20
649.684
  0
VERTEX
  8
Layer1
 10
823.338
 20
649.743
  0
VERTEX
  8
Layer1
 10
823.308
 20
649.801
  0
VERTEX
  8
Layer1
 10
823.278
 20
649.859
  0
VERTEX
  8
Layer1
 10
823.244
 20
649.915
  0
VERTEX
  8
Layer1
 10
823.208
 20
649.97
  0
VERTEX
  8
Layer1
 10
823.192
 20
649.994
  0
SEQEND
  0
LINE
  8
Layer1
  6
DASHED1
 62
7
 10
793.545
 20
648.859
 11
793.545
 21
632.859
  0
LINE
  8
Layer1
  6
DASHED1
 62
7
 10
821.25
 20
630.859
 11
795.567
 21
630.859
  0
LINE
  8
Layer1
  6
DASHED1
 62
7
 10
821.048
 20
650.859
 11
795.545
 21
650.859
  0
LINE
  8
Layer1
  6
DASHED1
 62
7
 10
823.545
 20
648.646
 11
823.545
 21
632.939
  0
POLYLINE
  8
Layer1
  6
CONTINUOUS
 62
7
 66
1
 10
0
 20
0
 30
0
  0
VERTEX
  8
Layer1
 10
822.261
 20
630.991
  0
VERTEX
  8
Layer1
 10
822.31
 20
631.011
  0
VERTEX
  8
Layer1
 10
822.37
 20
631.037
  0
VERTEX
  8
Layer1
 10
822.429
 20
631.065
  0
VERTEX
  8
Layer1
 10
822.487
 20
631.095
  0
VERTEX
  8
Layer1
 10
822.545
 20
631.127
  0
VERTEX
  8
Layer1
 10
822.601
 20
631.16
  0
VERTEX
  8
Layer1
 10
822.656
 20
631.196
  0
VERTEX
  8
Layer1
 10
822.711
 20
631.233
  0
VERTEX
  8
Layer1
 10
822.762
 20
631.272
  0
VERTEX
  8
Layer1
 10
822.813
 20
631.313
  0
VERTEX
  8
Layer1
 10
822.864
 20
631.355
  0
VERTEX
  8
Layer1
 10
822.913
 20
631.399
  0
VERTEX
  8
Layer1
 10
822.959
 20
631.444
  0
VERTEX
  8
Layer1
 10
823.005
 20
631.491
  0
VERTEX
  8
Layer1
 10
823.048
 20
631.54
  0
VERTEX
  8
Layer1
 10
823.092
 20
631.59
  0
VERTEX
  8
Layer1
 10
823.131
 20
631.641
  0
VERTEX
  8
Layer1
 10
823.17
 20
631.694
  0
VERTEX
  8
Layer1
 10
823.208
 20
631.747
  0
VERTEX
  8
Layer1
 10
823.244
 20
631.802
  0
VERTEX
  8
Layer1
 10
823.278
 20
631.859
  0
VERTEX
  8
Layer1
 10
823.308
 20
631.916
  0
VERTEX
  8
Layer1
 10
823.338
 20
631.974
  0
VERTEX
  8
Layer1
 10
823.348
 20
631.995
  0
SEQEND
  0
LINE
  8
Layer1
  6
CONTINUOUS
 62
7
 10
793.545
 20
632.859
 11
793.547
 21
632.804
  0
POLYLINE
  8
Layer1
  6
CONTINUOUS
 62
7
 66
1
 10
0
 20
0
 30
0
  0
VERTEX
  8
Layer1
 10
795.545
 20
650.859
  0
VERTEX
  8
Layer1
 10
795.48
 20
650.858
  0
VERTEX
  8
Layer1
 10
795.432
 20
650.855
  0
SEQEND
  0
LINE
  8
Layer1
  6
CONTINUOUS
 62
7
 10
795.545
 20
650.859
 11
796.644
 21
650.859
  0
LINE
  8
Layer1
  6
CONTINUOUS
 62
7
 10
795.567
 20
630.859
 11
796.644
 21
630.859
  0
LINE
  8
Layer1
  6
CONTINUOUS
 62
7
 10
793.545
 20
632.859
 11
793.545
 21
633.815
  0
LINE
  8
Layer1
  6
CONTINUOUS
 62
7
 10
823.545
 20
634.085
 11
823.545
 21
632.939
  0
POLYLINE
  8
Layer1
  6
CONTINUOUS
 62
7
 66
1
 10
0
 20
0
 30
0
  0
VERTEX
  8
Layer1
 10
822.328
 20
650.698
  0
VERTEX
  8
Layer1
 10
822.31
 20
650.706
  0
VERTEX
  8
Layer1
 10
822.25
 20
650.73
  0
VERTEX
  8
Layer1
 10
822.188
 20
650.752
  0
VERTEX
  8
Layer1
 10
822.125
 20
650.773
  0
VERTEX
  8
Layer1
 10
822.063
 20
650.79
  0
VERTEX
  8
Layer1
 10
822
 20
650.806
  0
VERTEX
  8
Layer1
 10
821.935
 20
650.82
  0
VERTEX
  8
Layer1
 10
821.87
 20
650.832
  0
VERTEX
  8
Layer1
 10
821.807
 20
650.842
  0
VERTEX
  8
Layer1
 10
821.741
 20
650.849
  0
VERTEX
  8
Layer1
 10
821.675
 20
650.854
  0
VERTEX
  8
Layer1
 10
821.654
 20
650.855
  0
SEQEND
  0
POLYLINE
  8
Layer1
  6
CONTINUOUS
 62
7
 66
1
 10
0
 20
0
 30
0
  0
VERTEX
  8
Layer1
 10
794.689
 20
650.666
  0
VERTEX
  8
Layer1
 10
794.66
 20
650.652
  0
VERTEX
  8
Layer1
 10
794.602
 20
650.622
  0
VERTEX
  8
Layer1
 10
794.545
 20
650.591
  0
VERTEX
  8
Layer1
 10
794.489
 20
650.557
  0
VERTEX
  8
Layer1
 10
794.433
 20
650.522
  0
VERTEX
  8
Layer1
 10
794.38
 20
650.484
  0
VERTEX
  8
Layer1
 10
794.327
 20
650.445
  0
VERTEX
  8
Layer1
 10
794.276
 20
650.405
  0
VERTEX
  8
Layer1
 10
794.226
 20
650.362
  0
VERTEX
  8
Layer1
 10
794.178
 20
650.318
  0
VERTEX
  8
Layer1
 10
794.13
 20
650.273
  0
VERTEX
  8
Layer1
 10
794.086
 20
650.226
  0
VERTEX
  8
Layer1
 10
794.042
 20
650.177
  0
VERTEX
  8
Layer1
 10
794
 20
650.127
  0
VERTEX
  8
Layer1
 10
793.958
 20
650.076
  0
VERTEX
  8
Layer1
 10
793.919
 20
650.024
  0
VERTEX
  8
Layer1
 10
793.882
 20
649.97
  0
VERTEX
  8
Layer1
 10
793.846
 20
649.915
  0
VERTEX
  8
Layer1
 10
793.813
 20
649.859
  0
VERTEX
  8
Layer1
 10
793.781
 20
649.801
  0
VERTEX
  8
Layer1
 10
793.776
 20
649.792
  0
SEQEND
  0
POLYLINE
  8
Layer1
  6
CONTINUOUS
 62
7
 66
1
 10
0
 20
0
 30
0
  0
VERTEX
  8
Layer1
 10
793.549
 20
648.983
  0
VERTEX
  8
Layer1
 10
793.547
 20
648.924
  0
VERTEX
  8
Layer1
 10
793.545
 20
648.859
  0
SEQEND
  0
POLYLINE
  8
Layer1
  6
CONTINUOUS
 62
7
 66
1
 10
0
 20
0
 30
0
  0
VERTEX
  8
Layer1
 10
793.711
 20
632.063
  0
VERTEX
  8
Layer1
 10
793.723
 20
632.033
  0
VERTEX
  8
Layer1
 10
793.751
 20
631.974
  0
VERTEX
  8
Layer1
 10
793.781
 20
631.916
  0
VERTEX
  8
Layer1
 10
793.813
 20
631.859
  0
VERTEX
  8
Layer1
 10
793.846
 20
631.802
  0
VERTEX
  8
Layer1
 10
793.882
 20
631.747
  0
VERTEX
  8
Layer1
 10
793.919
 20
631.694
  0
VERTEX
  8
Layer1
 10
793.958
 20
631.641
  0
VERTEX
  8
Layer1
 10
794
 20
631.59
  0
VERTEX
  8
Layer1
 10
794.042
 20
631.54
  0
VERTEX
  8
Layer1
 10
794.086
 20
631.491
  0
VERTEX
  8
Layer1
 10
794.13
 20
631.444
  0
VERTEX
  8
Layer1
 10
794.178
 20
631.399
  0
VERTEX
  8
Layer1
 10
794.226
 20
631.355
  0
VERTEX
  8
Layer1
 10
794.276
 20
631.313
  0
VERTEX
  8
Layer1
 10
794.327
 20
631.272
  0
VERTEX
  8
Layer1
 10
794.38
 20
631.233
  0
VERTEX
  8
Layer1
 10
794.433
 20
631.196
  0
VERTEX
  8
Layer1
 10
794.489
 20
631.16
  0
VERTEX
  8
Layer1
 10
794.545
 20
631.127
  0
VERTEX
  8
Layer1
 10
794.602
 20
631.095
  0
VERTEX
  8
Layer1
 10
794.66
 20
631.065
  0
VERTEX
  8
Layer1
 10
794.72
 20
631.037
  0
VERTEX
  8
Layer1
 10
794.779
 20
631.011
  0
VERTEX
  8
Layer1
 10
794.824
 20
630.993
  0
SEQEND
  0
LINE
  8
Layer1
  6
CENTER1
 62
7
 10
873.336
 20
673.359
 11
891.476
 21
673.359
  0
LINE
  8
Layer1
  6
CONTINUOUS
 62
7
 10
765.409
 20
665.859
 11
767.909
 21
665.859
  0
LINE
  8
Layer1
  6
CONTINUOUS
 62
7
 10
765.409
 20
665.859
 11
764.409
 21
664.859
  0
LINE
  8
Layer1
  6
CONTINUOUS
 62
7
 10
742.409
 20
665.859
 11
763.409
 21
665.859
  0
LINE
  8
Layer1
  6
CONTINUOUS
 62
7
 10
764.409
 20
664.859
 11
763.409
 21
665.859
  0
LINE
  8
Layer1
  6
CONTINUOUS
 62
7
 10
742.409
 20
665.859
 11
741.409
 21
664.859
  0
LINE
  8
Layer1
  6
CENTER1
 62
7
 10
737.874
 20
658.359
 11
787.11
 21
658.359
  0
LINE
  8
Layer1
  6
CENTER1
 62
7
 10
889.034
 20
673.859
 11
915.512
 21
673.859
  0
LINE
  8
Layer1
  6
CENTER1
 62
7
 10
892.827
 20
607.859
 11
915.124
 21
607.859
  0
LINE
  8
Layer1
  6
CENTER1
 62
7
 10
737.995
 20
623.359
 11
782.805
 21
623.359
  0
LINE
  8
Layer1
  6
CONTINUOUS
 62
7
 10
763.409
 20
615.859
 11
742.409
 21
615.859
  0
LINE
  8
Layer1
  6
CONTINUOUS
 62
7
 10
741.409
 20
616.859
 11
742.409
 21
615.859
  0
LINE
  8
Layer1
  6
CONTINUOUS
 62
7
 10
763.409
 20
615.859
 11
764.409
 21
616.859
  0
LINE
  8
Layer1
  6
CONTINUOUS
 62
7
 10
764.409
 20
616.859
 11
765.409
 21
615.859
  0
LINE
  8
Layer1
  6
CONTINUOUS
 62
7
 10
767.909
 20
615.859
 11
768.909
 21
616.859
  0
LINE
  8
Layer1
  6
CONTINUOUS
 62
7
 10
905.91
 20
407.494
 11
913.41
 21
407.494
  0
LINE
  8
Layer1
  6
CONTINUOUS
 62
7
 10
905.91
 20
420.494
 11
913.41
 21
420.494
  0
LINE
  8
Layer1
  6
CONTINUOUS
 62
7
 10
913.41
 20
407.494
 11
913.41
 21
420.494
  0
LINE
  8
Layer1
  6
CONTINUOUS
 62
7
 10
913.91
 20
407.994
 11
913.91
 21
419.994
  0
LINE
  8
Layer1
  6
CONTINUOUS
 62
7
 10
913.41
 20
407.494
 11
913.91
 21
407.994
  0
LINE
  8
Layer1
  6
CONTINUOUS
 62
7
 10
913.41
 20
420.494
 11
913.91
 21
419.994
  0
LINE
  8
Layer1
  6
CONTINUOUS
 62
7
 10
905.91
 20
420.494
 11
905.91
 21
407.494
  0
LINE
  8
Layer1
  6
CONTINUOUS
 62
7
 10
906.487
 20
419.494
 11
912.833
 21
419.494
  0
LINE
  8
Layer1
  6
CONTINUOUS
 62
7
 10
907.064
 20
418.494
 11
912.256
 21
418.494
  0
LINE
  8
Layer1
  6
CONTINUOUS
 62
7
 10
907.64
 20
417.494
 11
911.679
 21
417.494
  0
LINE
  8
Layer1
  6
CONTINUOUS
 62
7
 10
908.217
 20
416.494
 11
911.102
 21
416.494
  0
LINE
  8
Layer1
  6
CONTINUOUS
 62
7
 10
905.91
 20
369.24
 11
913.41
 21
369.24
  0
LINE
  8
Layer1
  6
CONTINUOUS
 62
7
 10
905.91
 20
382.24
 11
913.41
 21
382.24
  0
LINE
  8
Layer1
  6
CONTINUOUS
 62
7
 10
913.41
 20
369.24
 11
913.41
 21
382.24
  0
LINE
  8
Layer1
  6
CONTINUOUS
 62
7
 10
913.91
 20
369.74
 11
913.91
 21
381.74
  0
LINE
  8
Layer1
  6
CONTINUOUS
 62
7
 10
913.41
 20
369.24
 11
913.91
 21
369.74
  0
LINE
  8
Layer1
  6
CONTINUOUS
 62
7
 10
913.41
 20
382.24
 11
913.91
 21
381.74
  0
LINE
  8
Layer1
  6
CONTINUOUS
 62
7
 10
905.91
 20
382.24
 11
905.91
 21
369.24
  0
LINE
  8
Layer1
  6
CONTINUOUS
 62
7
 10
906.487
 20
381.24
 11
912.833
 21
381.24
  0
LINE
  8
Layer1
  6
CONTINUOUS
 62
7
 10
907.064
 20
380.24
 11
912.256
 21
380.24
  0
LINE
  8
Layer1
  6
CONTINUOUS
 62
7
 10
907.64
 20
379.24
 11
911.679
 21
379.24
  0
LINE
  8
Layer1
  6
CONTINUOUS
 62
7
 10
908.217
 20
378.24
 11
911.102
 21
378.24
  0
LINE
  8
Layer1
  6
DASHED1
 62
7
 10
893.91
 20
385.43
 11
905.577
 21
385.43
  0
LINE
  8
Layer1
  6
DASHED1
 62
7
 10
893.91
 20
378.83
 11
905.577
 21
378.83
  0
LINE
  8
Layer1
  6
DASHED1
 62
7
 10
893.953
 20
386.13
 11
905.91
 21
386.13
  0
LINE
  8
Layer1
  6
DASHED1
 62
7
 10
893.953
 20
378.13
 11
905.247
 21
378.13
  0
LINE
  8
Layer1
  6
CONTINUOUS
 62
7
 10
905.91
 20
388.63
 11
913.41
 21
388.63
  0
LINE
  8
Layer1
  6
CONTINUOUS
 62
7
 10
905.91
 20
401.63
 11
913.41
 21
401.63
  0
LINE
  8
Layer1
  6
CONTINUOUS
 62
7
 10
913.41
 20
388.63
 11
913.41
 21
401.63
  0
LINE
  8
Layer1
  6
CONTINUOUS
 62
7
 10
913.91
 20
389.13
 11
913.91
 21
401.13
  0
LINE
  8
Layer1
  6
CONTINUOUS
 62
7
 10
913.41
 20
388.63
 11
913.91
 21
389.13
  0
LINE
  8
Layer1
  6
CONTINUOUS
 62
7
 10
913.41
 20
401.63
 11
913.91
 21
401.13
  0
LINE
  8
Layer1
  6
CONTINUOUS
 62
7
 10
905.91
 20
401.63
 11
905.91
 21
388.63
  0
LINE
  8
Layer1
  6
CONTINUOUS
 62
7
 10
906.487
 20
400.63
 11
912.833
 21
400.63
  0
LINE
  8
Layer1
  6
CONTINUOUS
 62
7
 10
907.064
 20
399.63
 11
912.256
 21
399.63
  0
LINE
  8
Layer1
  6
CONTINUOUS
 62
7
 10
907.64
 20
398.63
 11
911.679
 21
398.63
  0
LINE
  8
Layer1
  6
CONTINUOUS
 62
7
 10
908.217
 20
397.63
 11
911.102
 21
397.63
  0
LINE
  8
Layer1
  6
CONTINUOUS
 62
7
 10
844.39
 20
428.662
 11
844.39
 21
434.262
  0
LINE
  8
Layer1
  6
CONTINUOUS
 62
7
 10
834.39
 20
428.662
 11
834.39
 21
434.262
  0
LINE
  8
Layer1
  6
CONTINUOUS
 62
7
 10
844.39
 20
434.262
 11
834.39
 21
434.262
  0
LINE
  8
Layer1
  6
CONTINUOUS
 62
7
 10
843.991
 20
434.662
 11
834.79
 21
434.662
  0
LINE
  8
Layer1
  6
CONTINUOUS
 62
7
 10
844.39
 20
434.262
 11
843.991
 21
434.662
  0
LINE
  8
Layer1
  6
CONTINUOUS
 62
7
 10
834.39
 20
434.262
 11
834.79
 21
434.662
  0
LINE
  8
Layer1
  6
CONTINUOUS
 62
7
 10
834.39
 20
428.662
 11
844.39
 21
428.662
  0
LINE
  8
Layer1
  6
CONTINUOUS
 62
7
 10
835.39
 20
433.702
 11
835.39
 21
429.222
  0
LINE
  8
Layer1
  6
CONTINUOUS
 62
7
 10
836.39
 20
433.142
 11
836.39
 21
429.782
  0
LINE
  8
Layer1
  6
CONTINUOUS
 62
7
 10
837.39
 20
432.582
 11
837.39
 21
430.342
  0
LINE
  8
Layer1
  6
CONTINUOUS
 62
7
 10
842.39
 20
428.639
 11
842.39
 21
422.13
  0
LINE
  8
Layer1
  6
CONTINUOUS
 62
7
 10
836.39
 20
428.546
 11
836.39
 21
422.13
  0
LINE
  8
Layer1
  6
CONTINUOUS
 62
7
 10
831.894
 20
422.316
 11
836.39
 21
426.814
  0
LINE
  8
Layer1
  6
CONTINUOUS
 62
7
 10
848.406
 20
434.629
 11
844.545
 21
430.769
  0
LINE
  8
Layer1
  6
CONTINUOUS
 62
7
 10
848.922
 20
431.145
 11
842.39
 21
424.614
  0
LINE
  8
Layer1
  6
CONTINUOUS
 62
7
 10
843.927
 20
422.349
 11
848.89
 21
427.249
  0
LINE
  8
Layer1
  6
PHANTOM1
 62
7
 10
885.861
 20
371.876
 11
843.693
 21
422.13
  0
POLYLINE
  8
Layer1
  6
CONTINUOUS
 62
7
 66
1
 10
0
 20
0
 30
0
  0
VERTEX
  8
Layer1
 10
716.347
 20
352.13
  0
VERTEX
  8
Layer1
 10
741.347
 20
352.13
  0
SEQEND
  0
POLYLINE
  8
Layer1
  6
CONTINUOUS
 62
7
 66
1
 10
0
 20
0
 30
0
 70
1
  0
VERTEX
  8
Layer1
 10
720.212
 20
351.095
  0
VERTEX
  8
Layer1
 10
716.347
 20
352.13
  0
VERTEX
  8
Layer1
 10
720.212
 20
353.165
  0
SEQEND
  0
POLYLINE
  8
Layer1
  6
CONTINUOUS
 62
7
 66
1
 10
0
 20
0
 30
0
 70
1
  0
VERTEX
  8
Layer1
 10
737.485
 20
353.165
  0
VERTEX
  8
Layer1
 10
741.347
 20
352.13
  0
VERTEX
  8
Layer1
 10
737.485
 20
351.095
  0
SEQEND
  0
TEXT
  8
Layer1
 62
7
 10
729.631
 20
340.131
 72
1
 11
729.631
 21
340.131
 40
6
 41
1
  1
25ストローク 
  0
TEXT
  8
Layer1
 62
7
 10
933.555
 20
362.431
 72
1
 11
933.555
 21
362.431
 40
8
 41
1
 50
90
  1
9
  0
LINE
  8
Layer1
  6
CONTINUOUS
 62
7
 10
899.91
 20
367.13
 11
935.555
 21
367.13
  0
LINE
  8
Layer1
  6
CONTINUOUS
 62
7
 10
921.221
 20
376.13
 11
935.555
 21
376.13
  0
POLYLINE
  8
Layer1
  6
CONTINUOUS
 62
7
 66
1
 10
0
 20
0
 30
0
  0
VERTEX
  8
Layer1
 10
933.555
 20
357.13
  0
VERTEX
  8
Layer1
 10
933.555
 20
367.13
  0
SEQEND
  0
POLYLINE
  8
Layer1
  6
CONTINUOUS
 62
7
 66
1
 10
0
 20
0
 30
0
 70
1
  0
VERTEX
  8
Layer1
 10
932.002
 20
361.335
  0
VERTEX
  8
Layer1
 10
933.555
 20
367.13
  0
VERTEX
  8
Layer1
 10
935.108
 20
361.335
  0
SEQEND
  0
POLYLINE
  8
Layer1
  6
CONTINUOUS
 62
7
 66
1
 10
0
 20
0
 30
0
  0
VERTEX
  8
Layer1
 10
933.555
 20
386.13
  0
VERTEX
  8
Layer1
 10
933.555
 20
376.13
  0
SEQEND
  0
POLYLINE
  8
Layer1
  6
CONTINUOUS
 62
7
 66
1
 10
0
 20
0
 30
0
 70
1
  0
VERTEX
  8
Layer1
 10
935.108
 20
381.926
  0
VERTEX
  8
Layer1
 10
933.555
 20
376.13
  0
VERTEX
  8
Layer1
 10
932.002
 20
381.926
  0
SEQEND
  0
LINE
  8
Layer1
  6
CONTINUOUS
 62
7
 10
933.555
 20
367.13
 11
933.555
 21
376.13
  0
TEXT
  8
Layer1
 62
7
 10
933.555
 20
385.63
 72
1
 11
933.555
 21
385.63
 40
8
 41
1
 50
90
  1
19
  0
LINE
  8
Layer1
  6
CONTINUOUS
 62
7
 10
913.41
 20
395.13
 11
935.555
 21
395.13
  0
POLYLINE
  8
Layer1
  6
CONTINUOUS
 62
7
 66
1
 10
0
 20
0
 30
0
  0
VERTEX
  8
Layer1
 10
933.555
 20
376.13
  0
VERTEX
  8
Layer1
 10
933.555
 20
395.13
  0
SEQEND
  0
POLYLINE
  8
Layer1
  6
CONTINUOUS
 62
7
 66
1
 10
0
 20
0
 30
0
 70
1
  0
VERTEX
  8
Layer1
 10
935.108
 20
381.926
  0
VERTEX
  8
Layer1
 10
933.555
 20
376.13
  0
VERTEX
  8
Layer1
 10
932.002
 20
381.926
  0
SEQEND
  0
POLYLINE
  8
Layer1
  6
CONTINUOUS
 62
7
 66
1
 10
0
 20
0
 30
0
 70
1
  0
VERTEX
  8
Layer1
 10
932.002
 20
389.335
  0
VERTEX
  8
Layer1
 10
933.555
 20
395.13
  0
VERTEX
  8
Layer1
 10
935.108
 20
389.335
  0
SEQEND
  0
TEXT
  8
Layer1
 62
7
 10
933.555
 20
404.63
 72
1
 11
933.555
 21
404.63
 40
8
 41
1
 50
90
  1
 19 
  0
LINE
  8
Layer1
  6
CONTINUOUS
 62
7
 10
914.872
 20
414.13
 11
935.555
 21
414.13
  0
POLYLINE
  8
Layer1
  6
CONTINUOUS
 62
7
 66
1
 10
0
 20
0
 30
0
  0
VERTEX
  8
Layer1
 10
933.555
 20
414.13
  0
VERTEX
  8
Layer1
 10
933.555
 20
395.13
  0
SEQEND
  0
POLYLINE
  8
Layer1
  6
CONTINUOUS
 62
7
 66
1
 10
0
 20
0
 30
0
 70
1
  0
VERTEX
  8
Layer1
 10
932.002
 20
408.335
  0
VERTEX
  8
Layer1
 10
933.555
 20
414.13
  0
VERTEX
  8
Layer1
 10
935.108
 20
408.335
  0
SEQEND
  0
POLYLINE
  8
Layer1
  6
CONTINUOUS
 62
7
 66
1
 10
0
 20
0
 30
0
 70
1
  0
VERTEX
  8
Layer1
 10
935.108
 20
400.926
  0
VERTEX
  8
Layer1
 10
933.555
 20
395.13
  0
VERTEX
  8
Layer1
 10
932.002
 20
400.926
  0
SEQEND
  0
TEXT
  8
Layer1
 62
7
 10
945.752
 20
359.63
 72
1
 11
945.752
 21
359.63
 40
8
 41
1
 50
90
  1
 15 
  0
LINE
  8
Layer1
  6
CONTINUOUS
 62
7
 10
933.555
 20
367.13
 11
947.752
 21
367.13
  0
LINE
  8
Layer1
  6
CONTINUOUS
 62
7
 10
893.908
 20
352.13
 11
947.752
 21
352.13
  0
POLYLINE
  8
Layer1
  6
CONTINUOUS
 62
7
 66
1
 10
0
 20
0
 30
0
  0
VERTEX
  8
Layer1
 10
945.752
 20
377.13
  0
VERTEX
  8
Layer1
 10
945.752
 20
367.13
  0
SEQEND
  0
POLYLINE
  8
Layer1
  6
CONTINUOUS
 62
7
 66
1
 10
0
 20
0
 30
0
 70
1
  0
VERTEX
  8
Layer1
 10
947.305
 20
372.926
  0
VERTEX
  8
Layer1
 10
945.752
 20
367.13
  0
VERTEX
  8
Layer1
 10
944.199
 20
372.926
  0
SEQEND
  0
POLYLINE
  8
Layer1
  6
CONTINUOUS
 62
7
 66
1
 10
0
 20
0
 30
0
  0
VERTEX
  8
Layer1
 10
945.752
 20
342.13
  0
VERTEX
  8
Layer1
 10
945.752
 20
352.13
  0
SEQEND
  0
POLYLINE
  8
Layer1
  6
CONTINUOUS
 62
7
 66
1
 10
0
 20
0
 30
0
 70
1
  0
VERTEX
  8
Layer1
 10
944.199
 20
346.335
  0
VERTEX
  8
Layer1
 10
945.752
 20
352.13
  0
VERTEX
  8
Layer1
 10
947.305
 20
346.335
  0
SEQEND
  0
LINE
  8
Layer1
  6
CONTINUOUS
 62
7
 10
945.752
 20
367.13
 11
945.752
 21
352.13
  0
TEXT
  8
Layer1
 62
7
 10
959.461
 20
409.73
 72
1
 11
959.461
 21
409.73
 40
8
 41
1
 50
90
  1
 115.2 
  0
LINE
  8
Layer1
  6
CONTINUOUS
 62
7
 10
893.915
 20
467.33
 11
961.461
 21
467.33
  0
LINE
  8
Layer1
  6
CONTINUOUS
 62
7
 10
893.862
 20
352.13
 11
961.461
 21
352.13
  0
POLYLINE
  8
Layer1
  6
CONTINUOUS
 62
7
 66
1
 10
0
 20
0
 30
0
  0
VERTEX
  8
Layer1
 10
959.461
 20
467.33
  0
VERTEX
  8
Layer1
 10
959.461
 20
352.13
  0
SEQEND
  0
POLYLINE
  8
Layer1
  6
CONTINUOUS
 62
7
 66
1
 10
0
 20
0
 30
0
 70
1
  0
VERTEX
  8
Layer1
 10
957.908
 20
461.535
  0
VERTEX
  8
Layer1
 10
959.461
 20
467.33
  0
VERTEX
  8
Layer1
 10
961.014
 20
461.535
  0
SEQEND
  0
POLYLINE
  8
Layer1
  6
CONTINUOUS
 62
7
 66
1
 10
0
 20
0
 30
0
 70
1
  0
VERTEX
  8
Layer1
 10
961.014
 20
357.926
  0
VERTEX
  8
Layer1
 10
959.461
 20
352.13
  0
VERTEX
  8
Layer1
 10
957.908
 20
357.926
  0
SEQEND
  0
TEXT
  8
Layer1
 62
7
 10
973.473
 20
424.63
 72
1
 11
973.473
 21
424.63
 40
8
 41
1
 50
90
  1
 145 
  0
LINE
  8
Layer1
  6
CONTINUOUS
 62
7
 10
892.941
 20
497.13
 11
975.473
 21
497.13
  0
LINE
  8
Layer1
  6
CONTINUOUS
 62
7
 10
959.461
 20
352.13
 11
975.473
 21
352.13
  0
POLYLINE
  8
Layer1
  6
CONTINUOUS
 62
7
 66
1
 10
0
 20
0
 30
0
  0
VERTEX
  8
Layer1
 10
973.473
 20
497.13
  0
VERTEX
  8
Layer1
 10
973.473
 20
352.13
  0
SEQEND
  0
POLYLINE
  8
Layer1
  6
CONTINUOUS
 62
7
 66
1
 10
0
 20
0
 30
0
 70
1
  0
VERTEX
  8
Layer1
 10
971.92
 20
491.335
  0
VERTEX
  8
Layer1
 10
973.473
 20
497.13
  0
VERTEX
  8
Layer1
 10
975.026
 20
491.335
  0
SEQEND
  0
POLYLINE
  8
Layer1
  6
CONTINUOUS
 62
7
 66
1
 10
0
 20
0
 30
0
 70
1
  0
VERTEX
  8
Layer1
 10
975.026
 20
357.926
  0
VERTEX
  8
Layer1
 10
973.473
 20
352.13
  0
VERTEX
  8
Layer1
 10
971.92
 20
357.926
  0
SEQEND
  0
TEXT
  8
Layer1
 62
7
 10
954.3
 20
434.789
 72
1
 11
954.3
 21
434.789
 40
3
 41
1
 50
90
  1
(シャットハイト） 
  0
TEXT
  8
Layer1
 62
7
 10
973.473
 20
466.208
 72
1
 11
973.473
 21
466.208
 40
3
 41
1
 50
90
  1
(オープンハイト）
  0
TEXT
  8
Layer1
 62
7
 10
871.337
 20
454.085
 72
1
 11
871.337
 21
454.085
 40
8
 41
1
 50
19.9758
  1
 40°
  0
ARC
  8
Layer1
  6
CONTINUOUS
 62
7
 10
893.852
 20
392.145
 40
65.9048
 50
89.9517
 51
130
  0
LINE
  8
Layer1
  6
CONTINUOUS
 62
7
 10
893.91
 20
411.164
 11
893.91
 21
446.576
  0
TEXT
  8
Layer1
 62
7
 10
873.357
 20
640.859
 72
1
 11
873.357
 21
640.859
 40
8
 41
1
 50
90
  1
 65 
  0
LINE
  8
Layer1
  6
CONTINUOUS
 62
7
 10
913.91
 20
673.859
 11
928.199
 21
673.859
  0
LINE
  8
Layer1
  6
CONTINUOUS
 62
7
 10
915.124
 20
607.859
 11
929.802
 21
607.859
  0
POLYLINE
  8
Layer1
  6
CONTINUOUS
 62
7
 66
1
 10
0
 20
0
 30
0
  0
VERTEX
  8
Layer1
 10
873.357
 20
673.359
  0
VERTEX
  8
Layer1
 10
873.357
 20
608.359
  0
SEQEND
  0
POLYLINE
  8
Layer1
  6
CONTINUOUS
 62
7
 66
1
 10
0
 20
0
 30
0
 70
1
  0
VERTEX
  8
Layer1
 10
871.804
 20
667.563
  0
VERTEX
  8
Layer1
 10
873.357
 20
673.359
  0
VERTEX
  8
Layer1
 10
874.91
 20
667.563
  0
SEQEND
  0
POLYLINE
  8
Layer1
  6
CONTINUOUS
 62
7
 66
1
 10
0
 20
0
 30
0
 70
1
  0
VERTEX
  8
Layer1
 10
874.91
 20
614.154
  0
VERTEX
  8
Layer1
 10
873.357
 20
608.359
  0
VERTEX
  8
Layer1
 10
871.804
 20
614.154
  0
SEQEND
  0
TEXT
  8
Layer1
 62
7
 10
939.22
 20
640.859
 72
1
 11
939.22
 21
640.859
 40
8
 41
1
 50
90
  1
 82 
  0
LINE
  8
Layer1
  6
CONTINUOUS
 62
7
 10
904.91
 20
681.859
 11
941.22
 21
681.859
  0
LINE
  8
Layer1
  6
CONTINUOUS
 62
7
 10
904.91
 20
599.859
 11
941.22
 21
599.859
  0
POLYLINE
  8
Layer1
  6
CONTINUOUS
 62
7
 66
1
 10
0
 20
0
 30
0
  0
VERTEX
  8
Layer1
 10
939.22
 20
681.859
  0
VERTEX
  8
Layer1
 10
939.22
 20
599.859
  0
SEQEND
  0
POLYLINE
  8
Layer1
  6
CONTINUOUS
 62
7
 66
1
 10
0
 20
0
 30
0
 70
1
  0
VERTEX
  8
Layer1
 10
937.667
 20
676.063
  0
VERTEX
  8
Layer1
 10
939.22
 20
681.859
  0
VERTEX
  8
Layer1
 10
940.773
 20
676.063
  0
SEQEND
  0
POLYLINE
  8
Layer1
  6
CONTINUOUS
 62
7
 66
1
 10
0
 20
0
 30
0
 70
1
  0
VERTEX
  8
Layer1
 10
940.773
 20
605.654
  0
VERTEX
  8
Layer1
 10
939.22
 20
599.859
  0
VERTEX
  8
Layer1
 10
937.667
 20
605.654
  0
SEQEND
  0
TEXT
  8
Layer1
 62
7
 10
951.675
 20
640.84
 72
1
 11
951.675
 21
640.84
 40
8
 41
1
 50
90
  1
 100 
  0
LINE
  8
Layer1
  6
CONTINUOUS
 62
7
 10
893.91
 20
690.821
 11
953.675
 21
690.821
  0
LINE
  8
Layer1
  6
CONTINUOUS
 62
7
 10
888.347
 20
590.859
 11
953.675
 21
590.859
  0
POLYLINE
  8
Layer1
  6
CONTINUOUS
 62
7
 66
1
 10
0
 20
0
 30
0
  0
VERTEX
  8
Layer1
 10
951.675
 20
690.821
  0
VERTEX
  8
Layer1
 10
951.675
 20
590.859
  0
SEQEND
  0
POLYLINE
  8
Layer1
  6
CONTINUOUS
 62
7
 66
1
 10
0
 20
0
 30
0
 70
1
  0
VERTEX
  8
Layer1
 10
950.122
 20
685.025
  0
VERTEX
  8
Layer1
 10
951.675
 20
690.821
  0
VERTEX
  8
Layer1
 10
953.228
 20
685.025
  0
SEQEND
  0
POLYLINE
  8
Layer1
  6
CONTINUOUS
 62
7
 66
1
 10
0
 20
0
 30
0
 70
1
  0
VERTEX
  8
Layer1
 10
953.228
 20
596.654
  0
VERTEX
  8
Layer1
 10
951.675
 20
590.859
  0
VERTEX
  8
Layer1
 10
950.122
 20
596.654
  0
SEQEND
  0
TEXT
  8
Layer1
 62
7
 10
965.688
 20
640.859
 72
1
 11
965.688
 21
640.859
 40
8
 41
1
 50
90
  1
 120 
  0
LINE
  8
Layer1
  6
CONTINUOUS
 62
7
 10
892.91
 20
700.859
 11
967.688
 21
700.859
  0
LINE
  8
Layer1
  6
CONTINUOUS
 62
7
 10
892.91
 20
580.859
 11
967.688
 21
580.859
  0
POLYLINE
  8
Layer1
  6
CONTINUOUS
 62
7
 66
1
 10
0
 20
0
 30
0
  0
VERTEX
  8
Layer1
 10
965.688
 20
700.859
  0
VERTEX
  8
Layer1
 10
965.688
 20
580.859
  0
SEQEND
  0
POLYLINE
  8
Layer1
  6
CONTINUOUS
 62
7
 66
1
 10
0
 20
0
 30
0
 70
1
  0
VERTEX
  8
Layer1
 10
964.135
 20
695.063
  0
VERTEX
  8
Layer1
 10
965.688
 20
700.859
  0
VERTEX
  8
Layer1
 10
967.241
 20
695.063
  0
SEQEND
  0
POLYLINE
  8
Layer1
  6
CONTINUOUS
 62
7
 66
1
 10
0
 20
0
 30
0
 70
1
  0
VERTEX
  8
Layer1
 10
967.241
 20
586.654
  0
VERTEX
  8
Layer1
 10
965.688
 20
580.859
  0
VERTEX
  8
Layer1
 10
964.135
 20
586.654
  0
SEQEND
  0
TEXT
  8
Layer1
 62
7
 10
831.38
 20
722.555
 72
1
 11
831.38
 21
722.555
 40
8
 41
1
  1
125
  0
POLYLINE
  8
Layer1
  6
CONTINUOUS
 62
7
 66
1
 10
0
 20
0
 30
0
  0
VERTEX
  8
Layer1
 10
831.347
 20
709.061
  0
VERTEX
  8
Layer1
 10
881.409
 20
709.061
  0
SEQEND
  0
POLYLINE
  8
Layer1
  6
CONTINUOUS
 62
7
 66
1
 10
0
 20
0
 30
0
 70
1
  0
VERTEX
  8
Layer1
 10
835.212
 20
708.026
  0
VERTEX
  8
Layer1
 10
831.347
 20
709.061
  0
VERTEX
  8
Layer1
 10
835.212
 20
710.097
  0
SEQEND
  0
POLYLINE
  8
Layer1
  6
CONTINUOUS
 62
7
 66
1
 10
0
 20
0
 30
0
 70
1
  0
VERTEX
  8
Layer1
 10
877.547
 20
710.097
  0
VERTEX
  8
Layer1
 10
881.409
 20
709.061
  0
VERTEX
  8
Layer1
 10
877.547
 20
708.026
  0
SEQEND
  0
LINE
  8
Layer1
  6
CONTINUOUS
 62
7
 10
881.409
 20
699.541
 11
881.409
 21
711.034
  0
TEXT
  8
Layer1
 62
7
 10
856.347
 20
709.061
 72
1
 11
856.347
 21
709.061
 40
8
 41
1
  1
 50 
  0
TEXT
  8
Layer1
 62
7
 10
871.41
 20
555.699
 72
1
 11
871.41
 21
555.699
 40
8
 41
1
  1
 45 
  0
LINE
  8
Layer1
  6
CONTINUOUS
 62
7
 10
893.91
 20
600.859
 11
893.91
 21
553.699
  0
LINE
  8
Layer1
  6
CONTINUOUS
 62
7
 10
848.91
 20
603.782
 11
848.91
 21
553.699
  0
POLYLINE
  8
Layer1
  6
CONTINUOUS
 62
7
 66
1
 10
0
 20
0
 30
0
  0
VERTEX
  8
Layer1
 10
893.91
 20
555.699
  0
VERTEX
  8
Layer1
 10
848.91
 20
555.699
  0
SEQEND
  0
POLYLINE
  8
Layer1
  6
CONTINUOUS
 62
7
 66
1
 10
0
 20
0
 30
0
 70
1
  0
VERTEX
  8
Layer1
 10
888.115
 20
557.252
  0
VERTEX
  8
Layer1
 10
893.91
 20
555.699
  0
VERTEX
  8
Layer1
 10
888.115
 20
554.146
  0
SEQEND
  0
POLYLINE
  8
Layer1
  6
CONTINUOUS
 62
7
 66
1
 10
0
 20
0
 30
0
 70
1
  0
VERTEX
  8
Layer1
 10
854.706
 20
554.146
  0
VERTEX
  8
Layer1
 10
848.91
 20
555.699
  0
VERTEX
  8
Layer1
 10
854.706
 20
557.252
  0
SEQEND
  0
TEXT
  8
Layer1
 62
7
 10
888.707
 20
567.453
 72
1
 11
888.707
 21
567.453
 40
8
 41
1
  1
10
  0
LINE
  8
Layer1
  6
CONTINUOUS
 62
7
 10
858.91
 20
596.663
 11
858.91
 21
565.453
  0
POLYLINE
  8
Layer1
  6
CONTINUOUS
 62
7
 66
1
 10
0
 20
0
 30
0
  0
VERTEX
  8
Layer1
 10
868.91
 20
567.453
  0
VERTEX
  8
Layer1
 10
858.91
 20
567.453
  0
SEQEND
  0
POLYLINE
  8
Layer1
  6
CONTINUOUS
 62
7
 66
1
 10
0
 20
0
 30
0
 70
1
  0
VERTEX
  8
Layer1
 10
864.706
 20
565.9
  0
VERTEX
  8
Layer1
 10
858.91
 20
567.453
  0
VERTEX
  8
Layer1
 10
864.706
 20
569.006
  0
SEQEND
  0
POLYLINE
  8
Layer1
  6
CONTINUOUS
 62
7
 66
1
 10
0
 20
0
 30
0
  0
VERTEX
  8
Layer1
 10
893.91
 20
567.453
  0
VERTEX
  8
Layer1
 10
908.598
 20
567.453
  0
SEQEND
  0
POLYLINE
  8
Layer1
  6
CONTINUOUS
 62
7
 66
1
 10
0
 20
0
 30
0
 70
1
  0
VERTEX
  8
Layer1
 10
899.707
 20
569.006
  0
VERTEX
  8
Layer1
 10
893.91
 20
567.453
  0
VERTEX
  8
Layer1
 10
899.707
 20
565.9
  0
SEQEND
  0
LINE
  8
Layer1
  6
CONTINUOUS
 62
7
 10
893.91
 20
567.453
 11
883.91
 21
567.453
  0
TEXT
  8
Layer1
 62
7
 10
871.41
 20
567.453
 72
1
 11
871.41
 21
567.453
 40
8
 41
1
  1
 25 
  0
LINE
  8
Layer1
  6
CONTINUOUS
 62
7
 10
883.91
 20
601.435
 11
883.91
 21
565.453
  0
POLYLINE
  8
Layer1
  6
CONTINUOUS
 62
7
 66
1
 10
0
 20
0
 30
0
  0
VERTEX
  8
Layer1
 10
858.91
 20
567.453
  0
VERTEX
  8
Layer1
 10
883.91
 20
567.453
  0
SEQEND
  0
POLYLINE
  8
Layer1
  6
CONTINUOUS
 62
7
 66
1
 10
0
 20
0
 30
0
 70
1
  0
VERTEX
  8
Layer1
 10
864.706
 20
565.9
  0
VERTEX
  8
Layer1
 10
858.91
 20
567.453
  0
VERTEX
  8
Layer1
 10
864.706
 20
569.006
  0
SEQEND
  0
POLYLINE
  8
Layer1
  6
CONTINUOUS
 62
7
 66
1
 10
0
 20
0
 30
0
 70
1
  0
VERTEX
  8
Layer1
 10
878.115
 20
569.006
  0
VERTEX
  8
Layer1
 10
883.91
 20
567.453
  0
VERTEX
  8
Layer1
 10
878.115
 20
565.9
  0
SEQEND
  0
TEXT
  8
Layer1
 62
7
 10
945.752
 20
374.63
 72
1
 11
945.752
 21
374.63
 40
8
 41
1
 50
90
  1
15
  0
LINE
  8
Layer1
  6
CONTINUOUS
 62
7
 10
902.39
 20
382.13
 11
947.752
 21
382.13
  0
POLYLINE
  8
Layer1
  6
CONTINUOUS
 62
7
 66
1
 10
0
 20
0
 30
0
  0
VERTEX
  8
Layer1
 10
945.752
 20
382.13
  0
VERTEX
  8
Layer1
 10
945.752
 20
367.13
  0
SEQEND
  0
POLYLINE
  8
Layer1
  6
CONTINUOUS
 62
7
 66
1
 10
0
 20
0
 30
0
 70
1
  0
VERTEX
  8
Layer1
 10
944.199
 20
376.335
  0
VERTEX
  8
Layer1
 10
945.752
 20
382.13
  0
VERTEX
  8
Layer1
 10
947.305
 20
376.335
  0
SEQEND
  0
POLYLINE
  8
Layer1
  6
CONTINUOUS
 62
7
 66
1
 10
0
 20
0
 30
0
 70
1
  0
VERTEX
  8
Layer1
 10
947.305
 20
372.926
  0
VERTEX
  8
Layer1
 10
945.752
 20
367.13
  0
VERTEX
  8
Layer1
 10
944.199
 20
372.926
  0
SEQEND
  0
POLYLINE
  8
Layer1
  6
CONTINUOUS
 62
7
 66
1
 10
0
 20
0
 30
0
  0
VERTEX
  8
Layer1
 10
886.227
 20
676.541
  0
VERTEX
  8
Layer1
 10
917.231
 20
718.66
  0
VERTEX
  8
Layer1
 10
917.231
 20
718.66
  0
SEQEND
  0
POLYLINE
  8
Layer1
  6
CONTINUOUS
 62
7
 66
1
 10
0
 20
0
 30
0
 70
1
  0
VERTEX
  8
Layer1
 10
889.351
 20
679.039
  0
VERTEX
  8
Layer1
 10
886.227
 20
676.541
  0
VERTEX
  8
Layer1
 10
887.683
 20
680.266
  0
SEQEND
  0
LINE
  8
Layer1
  6
CONTINUOUS
 62
7
 10
917.231
 20
718.66
 11
932.231
 21
718.66
  0
TEXT
  8
Layer1
 62
7
 10
932.231
 20
720.66
 72
2
 11
932.231
 21
720.66
 40
6
 41
1
  1
4-φ9
  0
TEXT
  8
Layer1
 62
7
 10
720.884
 20
705.544
 40
6
 41
1
  1
ベース取付穴
  0
POLYLINE
  8
Layer1
  6
CONTINUOUS
 62
7
 66
1
 10
0
 20
0
 30
0
  0
VERTEX
  8
Layer1
 10
854.693
 20
366.719
  0
VERTEX
  8
Layer1
 10
840.887
 20
326.717
  0
VERTEX
  8
Layer1
 10
840.887
 20
326.717
  0
SEQEND
  0
CIRCLE
  8
Layer1
  6
CONTINUOUS
 62
7
 10
854.693
 20
366.719
 40
1
  0
CIRCLE
  8
Layer1
  6
CONTINUOUS
 62
7
 10
839.793
 20
323.546
 40
3.3541
  0
TEXT
  8
Layer1
 62
7
 10
839.793
 20
323.546
 72
1
 73
2
 11
839.793
 21
323.546
 40
6
 41
1
  1
7
  0
POLYLINE
  8
Layer1
  6
CONTINUOUS
 62
7
 66
1
 10
0
 20
0
 30
0
  0
VERTEX
  8
Layer1
 10
823.983
 20
407.968
  0
VERTEX
  8
Layer1
 10
795.869
 20
327.881
  0
VERTEX
  8
Layer1
 10
795.869
 20
327.881
  0
SEQEND
  0
CIRCLE
  8
Layer1
  6
CONTINUOUS
 62
7
 10
823.983
 20
407.968
 40
1
  0
CIRCLE
  8
Layer1
  6
CONTINUOUS
 62
7
 10
794.757
 20
324.716
 40
3.3541
  0
TEXT
  8
Layer1
 62
7
 10
794.757
 20
324.716
 72
1
 73
2
 11
794.757
 21
324.716
 40
6
 41
1
  1
2
  0
POLYLINE
  8
Layer1
  6
CONTINUOUS
 62
7
 66
1
 10
0
 20
0
 30
0
  0
VERTEX
  8
Layer1
 10
790.313
 20
361.13
  0
VERTEX
  8
Layer1
 10
773.592
 20
327.881
  0
VERTEX
  8
Layer1
 10
773.592
 20
327.881
  0
SEQEND
  0
CIRCLE
  8
Layer1
  6
CONTINUOUS
 62
7
 10
790.313
 20
361.13
 40
1
  0
CIRCLE
  8
Layer1
  6
CONTINUOUS
 62
7
 10
772.084
 20
324.885
 40
3.3541
  0
TEXT
  8
Layer1
 62
7
 10
772.084
 20
324.885
 72
1
 73
2
 11
772.084
 21
324.885
 40
6
 41
1
  1
7
  0
POLYLINE
  8
Layer1
  6
CONTINUOUS
 62
7
 66
1
 10
0
 20
0
 30
0
  0
VERTEX
  8
Layer1
 10
781.636
 20
385.74
  0
VERTEX
  8
Layer1
 10
760.033
 20
328.646
  0
VERTEX
  8
Layer1
 10
760.033
 20
328.646
  0
SEQEND
  0
CIRCLE
  8
Layer1
  6
CONTINUOUS
 62
7
 10
781.636
 20
385.74
 40
1
  0
CIRCLE
  8
Layer1
  6
CONTINUOUS
 62
7
 10
758.846
 20
325.509
 40
3.3541
  0
TEXT
  8
Layer1
 62
7
 10
758.846
 20
325.509
 72
1
 73
2
 11
758.846
 21
325.509
 40
6
 41
1
  1
1
  0
POLYLINE
  8
Layer1
  6
CONTINUOUS
 62
7
 66
1
 10
0
 20
0
 30
0
  0
VERTEX
  8
Layer1
 10
909.466
 20
373.054
  0
VERTEX
  8
Layer1
 10
890.739
 20
328.268
  0
VERTEX
  8
Layer1
 10
890.739
 20
328.268
  0
SEQEND
  0
CIRCLE
  8
Layer1
  6
CONTINUOUS
 62
7
 10
909.466
 20
373.054
 40
1
  0
CIRCLE
  8
Layer1
  6
CONTINUOUS
 62
7
 10
889.444
 20
325.173
 40
3.3541
  0
TEXT
  8
Layer1
 62
7
 10
889.444
 20
325.173
 72
1
 73
2
 11
889.444
 21
325.173
 40
6
 41
1
  1
9
  0
POLYLINE
  8
Layer1
  6
CONTINUOUS
 62
7
 66
1
 10
0
 20
0
 30
0
  0
VERTEX
  8
Layer1
 10
896.425
 20
373.363
  0
VERTEX
  8
Layer1
 10
877.361
 20
328.621
  0
VERTEX
  8
Layer1
 10
877.361
 20
328.621
  0
SEQEND
  0
CIRCLE
  8
Layer1
  6
CONTINUOUS
 62
7
 10
896.425
 20
373.363
 40
1
  0
CIRCLE
  8
Layer1
  6
CONTINUOUS
 62
7
 10
876.045
 20
325.536
 40
3.3541
  0
TEXT
  8
Layer1
 62
7
 10
876.045
 20
325.536
 72
1
 73
2
 11
876.045
 21
325.536
 40
6
 41
1
  1
5
  0
TEXT
  8
Layer1
 62
7
 10
916.997
 20
710.347
 40
6
 41
1
  1
アッパー取付穴
  0
LINE
  8
Layer1
  6
CONTINUOUS
 62
7
 10
768.847
 20
699.859
 11
768.847
 21
724.555
  0
LINE
  8
Layer1
  6
CONTINUOUS
 62
7
 10
893.91
 20
699.859
 11
893.91
 21
724.555
  0
POLYLINE
  8
Layer1
  6
CONTINUOUS
 62
7
 66
1
 10
0
 20
0
 30
0
  0
VERTEX
  8
Layer1
 10
768.847
 20
722.555
  0
VERTEX
  8
Layer1
 10
893.91
 20
722.555
  0
SEQEND
  0
POLYLINE
  8
Layer1
  6
CONTINUOUS
 62
7
 66
1
 10
0
 20
0
 30
0
 70
1
  0
VERTEX
  8
Layer1
 10
772.712
 20
721.52
  0
VERTEX
  8
Layer1
 10
768.847
 20
722.555
  0
VERTEX
  8
Layer1
 10
772.712
 20
723.59
  0
SEQEND
  0
POLYLINE
  8
Layer1
  6
CONTINUOUS
 62
7
 66
1
 10
0
 20
0
 30
0
 70
1
  0
VERTEX
  8
Layer1
 10
890.047
 20
723.59
  0
VERTEX
  8
Layer1
 10
893.91
 20
722.555
  0
VERTEX
  8
Layer1
 10
890.047
 20
721.52
  0
SEQEND
  0
TEXT
  8
Layer1
 62
7
 10
806.347
 20
709.061
 72
1
 11
806.347
 21
709.061
 40
8
 41
1
  1
 50 
  0
LINE
  8
Layer1
  6
CONTINUOUS
 62
7
 10
831.347
 20
699.569
 11
831.347
 21
711.061
  0
POLYLINE
  8
Layer1
  6
CONTINUOUS
 62
7
 66
1
 10
0
 20
0
 30
0
  0
VERTEX
  8
Layer1
 10
781.347
 20
709.061
  0
VERTEX
  8
Layer1
 10
831.347
 20
709.061
  0
SEQEND
  0
POLYLINE
  8
Layer1
  6
CONTINUOUS
 62
7
 66
1
 10
0
 20
0
 30
0
 70
1
  0
VERTEX
  8
Layer1
 10
785.212
 20
708.026
  0
VERTEX
  8
Layer1
 10
781.347
 20
709.061
  0
VERTEX
  8
Layer1
 10
785.212
 20
710.097
  0
SEQEND
  0
POLYLINE
  8
Layer1
  6
CONTINUOUS
 62
7
 66
1
 10
0
 20
0
 30
0
 70
1
  0
VERTEX
  8
Layer1
 10
827.485
 20
710.097
  0
VERTEX
  8
Layer1
 10
831.347
 20
709.061
  0
VERTEX
  8
Layer1
 10
827.485
 20
708.026
  0
SEQEND
  0
TEXT
  8
Layer1
 62
7
 10
775.097
 20
709.061
 72
1
 11
775.097
 21
709.061
 40
8
 41
1
  1
 12.5 
  0
LINE
  8
Layer1
  6
CONTINUOUS
 62
7
 10
781.347
 20
700.859
 11
781.347
 21
711.061
  0
LINE
  8
Layer1
  6
CONTINUOUS
 62
7
 10
768.847
 20
709.321
 11
768.847
 21
707.061
  0
POLYLINE
  8
Layer1
  6
CONTINUOUS
 62
7
 66
1
 10
0
 20
0
 30
0
  0
VERTEX
  8
Layer1
 10
758.847
 20
709.061
  0
VERTEX
  8
Layer1
 10
768.847
 20
709.061
  0
SEQEND
  0
POLYLINE
  8
Layer1
  6
CONTINUOUS
 62
7
 66
1
 10
0
 20
0
 30
0
 70
1
  0
VERTEX
  8
Layer1
 10
764.985
 20
710.097
  0
VERTEX
  8
Layer1
 10
768.847
 20
709.061
  0
VERTEX
  8
Layer1
 10
764.985
 20
708.026
  0
SEQEND
  0
LINE
  8
Layer1
  6
CONTINUOUS
 62
7
 10
781.347
 20
709.061
 11
768.847
 21
709.061
  0
POLYLINE
  8
Layer1
  6
CONTINUOUS
 62
7
 66
1
 10
0
 20
0
 30
0
  0
VERTEX
  8
Layer1
 10
778.165
 20
694.041
  0
VERTEX
  8
Layer1
 10
754.106
 20
715.321
  0
VERTEX
  8
Layer1
 10
754.106
 20
715.321
  0
SEQEND
  0
POLYLINE
  8
Layer1
  6
CONTINUOUS
 62
7
 66
1
 10
0
 20
0
 30
0
 70
1
  0
VERTEX
  8
Layer1
 10
775.957
 20
697.376
  0
VERTEX
  8
Layer1
 10
778.165
 20
694.041
  0
VERTEX
  8
Layer1
 10
774.586
 20
695.825
  0
SEQEND
  0
LINE
  8
Layer1
  6
CONTINUOUS
 62
7
 10
754.106
 20
715.321
 11
739.106
 21
715.321
  0
TEXT
  8
Layer1
 62
7
 10
739.106
 20
717.321
 40
6
 41
1
  1
6-φ9
  0
POLYLINE
  8
Layer1
  6
CONTINUOUS
 62
7
 66
1
 10
0
 20
0
 30
0
  0
VERTEX
  8
Layer1
 10
897.548
 20
386.561
  0
VERTEX
  8
Layer1
 10
927.016
 20
432.105
  0
VERTEX
  8
Layer1
 10
927.016
 20
432.105
  0
SEQEND
  0
POLYLINE
  8
Layer1
  6
CONTINUOUS
 62
7
 66
1
 10
0
 20
0
 30
0
 70
1
  0
VERTEX
  8
Layer1
 10
902
 20
390.583
  0
VERTEX
  8
Layer1
 10
897.548
 20
386.561
  0
VERTEX
  8
Layer1
 10
899.393
 20
392.27
  0
SEQEND
  0
TEXT
  8
Layer1
 62
7
 10
931.016
 20
434.105
 72
2
 11
931.016
 21
434.105
 40
4
 41
1
  1
M8
  0
TEXT
  8
Layer1
 62
7
 10
947.943
 20
439.771
 72
2
 11
947.943
 21
439.771
 40
4
 41
1
  1
ストローク合せネジ
  0
LINE
  8
Layer1
  6
CONTINUOUS
 62
7
 10
927.016
 20
432.105
 11
931.016
 21
432.105
  0
POLYLINE
  8
Layer1
  6
CONTINUOUS
 62
7
 66
1
 10
0
 20
0
 30
0
  0
VERTEX
  8
Layer1
 10
855.078
 20
473.387
  0
VERTEX
  8
Layer1
 10
836.941
 20
496.523
  0
VERTEX
  8
Layer1
 10
836.941
 20
496.523
  0
SEQEND
  0
CIRCLE
  8
Layer1
  6
CONTINUOUS
 62
7
 10
855.078
 20
473.387
 40
1
  0
CIRCLE
  8
Layer1
  6
CONTINUOUS
 62
7
 10
834.871
 20
499.162
 40
3.3541
  0
TEXT
  8
Layer1
 62
7
 10
834.871
 20
499.162
 72
1
 73
2
 11
834.871
 21
499.162
 40
6
 41
1
  1
3
  0
POLYLINE
  8
Layer1
  6
CONTINUOUS
 62
7
 66
1
 10
0
 20
0
 30
0
  0
VERTEX
  8
Layer1
 10
809.48
 20
444.5
  0
VERTEX
  8
Layer1
 10
791.342
 20
467.636
  0
VERTEX
  8
Layer1
 10
791.342
 20
467.636
  0
SEQEND
  0
CIRCLE
  8
Layer1
  6
CONTINUOUS
 62
7
 10
809.48
 20
444.5
 40
1
  0
CIRCLE
  8
Layer1
  6
CONTINUOUS
 62
7
 10
789.273
 20
470.276
 40
3.3541
  0
TEXT
  8
Layer1
 62
7
 10
789.273
 20
470.276
 72
1
 73
2
 11
789.273
 21
470.276
 40
6
 41
1
  1
8
  0
POLYLINE
  8
Layer1
  6
CONTINUOUS
 62
7
 66
1
 10
0
 20
0
 30
0
  0
VERTEX
  8
Layer1
 10
839.39
 20
434.262
  0
VERTEX
  8
Layer1
 10
813.528
 20
467.352
  0
VERTEX
  8
Layer1
 10
813.528
 20
467.352
  0
SEQEND
  0
CIRCLE
  8
Layer1
  6
CONTINUOUS
 62
7
 10
839.39
 20
434.262
 40
1
  0
CIRCLE
  8
Layer1
  6
CONTINUOUS
 62
7
 10
811.462
 20
469.994
 40
3.3541
  0
TEXT
  8
Layer1
 62
7
 10
811.462
 20
469.994
 72
1
 73
2
 11
811.462
 21
469.994
 40
6
 41
1
  1
4
  0
LINE
  8
Layer1
  6
CONTINUOUS
 62
7
 10
881.91
 20
353.307
 11
881.91
 21
375.307
  0
LINE
  8
Layer1
  6
CONTINUOUS
 62
7
 10
869.91
 20
353.307
 11
869.91
 21
375.307
  0
LINE
  8
Layer1
  6
CONTINUOUS
 62
7
 10
869.91
 20
375.307
 11
881.91
 21
375.307
  0
LINE
  8
Layer1
  6
CONTINUOUS
 62
7
 10
892.909
 20
372.13
 11
882.451
 21
372.13
  0
LINE
  8
Layer1
  6
DASHED1
 62
7
 10
872.91
 20
365.917
 11
872.91
 21
387.307
  0
LINE
  8
Layer1
  6
DASHED1
 62
7
 10
878.91
 20
376.307
 11
878.91
 21
387.307
  0
LINE
  8
Layer1
  6
DASHED1
 62
7
 10
872.91
 20
387.307
 11
878.91
 21
387.307
  0
LINE
  8
Layer1
  6
DASHED1
 62
7
 10
873.41
 20
365.933
 11
873.41
 21
390.863
  0
LINE
  8
Layer1
  6
DASHED1
 62
7
 10
878.41
 20
366.293
 11
878.41
 21
390.863
  0
LINE
  8
Layer1
  6
CONTINUOUS
 62
7
 10
875.91
 20
392.307
 11
878.41
 21
390.863
  0
LINE
  8
Layer1
  6
CONTINUOUS
 62
7
 10
875.91
 20
392.307
 11
873.41
 21
390.863
  0
LINE
  8
Layer1
  6
DASHED1
 62
7
 10
873.41
 20
390.863
 11
878.41
 21
390.863
  0
LINE
  8
Layer1
  6
CONTINUOUS
 62
7
 10
878.41
 20
390.863
 11
878.09
 21
390.863
  0
LINE
  8
Layer1
  6
CONTINUOUS
 62
7
 10
878.91
 20
387.307
 11
877.785
 21
387.307
  0
LINE
  8
Layer1
  6
CONTINUOUS
 62
7
 10
872.91
 20
387.307
 11
872.91
 21
386.406
  0
LINE
  8
Layer1
  6
DASHED1
 62
7
 10
878.91
 20
387.307
 11
878.91
 21
366.688
  0
LINE
  8
Layer1
  6
CONTINUOUS
 62
7
 10
871.91
 20
375.307
 11
879.91
 21
375.307
  0
LINE
  8
Layer1
  6
CONTINUOUS
 62
7
 10
881.91
 20
353.307
 11
869.91
 21
353.307
  0
LINE
  8
Layer1
  6
PHANTOM1
 62
7
 10
869.91
 20
352.13
 11
869.91
 21
356.63
  0
LINE
  8
Layer1
  6
CONTINUOUS
 62
7
 10
882.495
 20
352.13
 11
882.495
 21
372.13
  0
LINE
  8
Layer1
  6
CONTINUOUS
 62
7
 10
879.91
 20
354.307
 11
871.91
 21
354.307
  0
LINE
  8
Layer1
  6
CONTINUOUS
 62
7
 10
870.91
 20
355.307
 11
870.91
 21
360.307
  0
LINE
  8
Layer1
  6
CONTINUOUS
 62
7
 10
880.91
 20
355.307
 11
880.91
 21
360.307
  0
LINE
  8
Layer1
  6
CONTINUOUS
 62
7
 10
870.41
 20
360.307
 11
881.41
 21
360.307
  0
LINE
  8
Layer1
  6
CONTINUOUS
 62
7
 10
871.91
 20
354.307
 11
870.91
 21
355.307
  0
LINE
  8
Layer1
  6
CONTINUOUS
 62
7
 10
879.91
 20
354.307
 11
880.91
 21
355.307
  0
LINE
  8
Layer1
  6
CONTINUOUS
 62
7
 10
870.91
 20
355.307
 11
880.91
 21
355.307
  0
LINE
  8
Layer1
  6
CONTINUOUS
 62
7
 10
878.91
 20
387.307
 11
878.41
 21
388.173
  0
LINE
  8
Layer1
  6
CONTINUOUS
 62
7
 10
872.91
 20
387.307
 11
873.41
 21
388.173
  0
LINE
  8
Layer1
  6
DASHED1
 62
7
 10
873.41
 20
388.173
 11
878.41
 21
388.173
  0
POLYLINE
  8
Layer1
  6
CONTINUOUS
 62
7
 66
1
 10
0
 20
0
 30
0
  0
VERTEX
  8
Layer1
 10
869.91
 20
364.307
  0
VERTEX
  8
Layer1
 10
870.096
 20
364.447
  0
VERTEX
  8
Layer1
 10
870.284
 20
364.587
  0
VERTEX
  8
Layer1
 10
870.471
 20
364.725
  0
VERTEX
  8
Layer1
 10
870.658
 20
364.86
  0
VERTEX
  8
Layer1
 10
870.846
 20
364.992
  0
VERTEX
  8
Layer1
 10
871.034
 20
365.119
  0
VERTEX
  8
Layer1
 10
871.221
 20
365.24
  0
VERTEX
  8
Layer1
 10
871.411
 20
365.354
  0
VERTEX
  8
Layer1
 10
871.601
 20
365.462
  0
VERTEX
  8
Layer1
 10
871.793
 20
365.56
  0
VERTEX
  8
Layer1
 10
871.985
 20
365.65
  0
VERTEX
  8
Layer1
 10
872.178
 20
365.729
  0
VERTEX
  8
Layer1
 10
872.371
 20
365.797
  0
VERTEX
  8
Layer1
 10
872.568
 20
365.853
  0
VERTEX
  8
Layer1
 10
872.765
 20
365.896
  0
VERTEX
  8
Layer1
 10
872.962
 20
365.925
  0
VERTEX
  8
Layer1
 10
873.163
 20
365.939
  0
VERTEX
  8
Layer1
 10
873.365
 20
365.937
  0
VERTEX
  8
Layer1
 10
873.568
 20
365.918
  0
VERTEX
  8
Layer1
 10
873.773
 20
365.885
  0
VERTEX
  8
Layer1
 10
873.98
 20
365.84
  0
VERTEX
  8
Layer1
 10
874.187
 20
365.785
  0
VERTEX
  8
Layer1
 10
874.394
 20
365.724
  0
VERTEX
  8
Layer1
 10
874.601
 20
365.66
  0
VERTEX
  8
Layer1
 10
874.809
 20
365.594
  0
VERTEX
  8
Layer1
 10
875.018
 20
365.531
  0
VERTEX
  8
Layer1
 10
875.225
 20
365.472
  0
VERTEX
  8
Layer1
 10
875.43
 20
365.421
  0
VERTEX
  8
Layer1
 10
875.635
 20
365.38
  0
VERTEX
  8
Layer1
 10
875.838
 20
365.352
  0
VERTEX
  8
Layer1
 10
876.04
 20
365.34
  0
VERTEX
  8
Layer1
 10
876.24
 20
365.345
  0
VERTEX
  8
Layer1
 10
876.438
 20
365.364
  0
VERTEX
  8
Layer1
 10
876.634
 20
365.399
  0
VERTEX
  8
Layer1
 10
876.827
 20
365.447
  0
VERTEX
  8
Layer1
 10
877.019
 20
365.508
  0
VERTEX
  8
Layer1
 10
877.209
 20
365.581
  0
VERTEX
  8
Layer1
 10
877.399
 20
365.666
  0
VERTEX
  8
Layer1
 10
877.586
 20
365.76
  0
VERTEX
  8
Layer1
 10
877.771
 20
365.865
  0
VERTEX
  8
Layer1
 10
877.956
 20
365.978
  0
VERTEX
  8
Layer1
 10
878.139
 20
366.099
  0
VERTEX
  8
Layer1
 10
878.319
 20
366.226
  0
VERTEX
  8
Layer1
 10
878.5
 20
366.36
  0
VERTEX
  8
Layer1
 10
878.678
 20
366.499
  0
VERTEX
  8
Layer1
 10
878.856
 20
366.643
  0
VERTEX
  8
Layer1
 10
879.034
 20
366.79
  0
VERTEX
  8
Layer1
 10
879.208
 20
366.94
  0
VERTEX
  8
Layer1
 10
879.382
 20
367.092
  0
VERTEX
  8
Layer1
 10
879.557
 20
367.244
  0
VERTEX
  8
Layer1
 10
879.728
 20
367.397
  0
VERTEX
  8
Layer1
 10
879.899
 20
367.549
  0
VERTEX
  8
Layer1
 10
880.071
 20
367.7
  0
VERTEX
  8
Layer1
 10
880.241
 20
367.848
  0
VERTEX
  8
Layer1
 10
880.409
 20
367.992
  0
VERTEX
  8
Layer1
 10
880.577
 20
368.133
  0
VERTEX
  8
Layer1
 10
880.745
 20
368.271
  0
VERTEX
  8
Layer1
 10
880.914
 20
368.405
  0
VERTEX
  8
Layer1
 10
881.081
 20
368.536
  0
VERTEX
  8
Layer1
 10
881.246
 20
368.665
  0
VERTEX
  8
Layer1
 10
881.413
 20
368.792
  0
VERTEX
  8
Layer1
 10
881.578
 20
368.918
  0
VERTEX
  8
Layer1
 10
881.745
 20
369.043
  0
VERTEX
  8
Layer1
 10
881.91
 20
369.167
  0
SEQEND
  0
LINE
  8
Layer1
  6
CONTINUOUS
 62
7
 10
878.91
 20
366.688
 11
878.91
 21
360.307
  0
LINE
  8
Layer1
  6
CONTINUOUS
 62
7
 10
878.41
 20
366.293
 11
878.41
 21
360.307
  0
LINE
  8
Layer1
  6
CONTINUOUS
 62
7
 10
873.41
 20
365.934
 11
873.41
 21
360.307
  0
LINE
  8
Layer1
  6
CONTINUOUS
 62
7
 10
872.91
 20
365.917
 11
872.91
 21
360.307
  0
LINE
  8
Layer1
  6
CONTINUOUS
 62
7
 10
870.91
 20
360.307
 11
870.91
 21
355.307
  0
LINE
  8
Layer1
  6
CONTINUOUS
 62
7
 10
880.91
 20
360.307
 11
880.91
 21
355.307
  0
LINE
  8
Layer1
  6
CONTINUOUS
 62
7
 10
870.41
 20
353.307
 11
870.41
 21
360.307
  0
LINE
  8
Layer1
  6
CONTINUOUS
 62
7
 10
881.41
 20
353.307
 11
881.41
 21
360.307
  0
LINE
  8
Layer1
  6
CONTINUOUS
 62
7
 10
871.41
 20
360.057
 11
871.41
 21
355.557
  0
LINE
  8
Layer1
  6
CONTINUOUS
 62
7
 10
872.41
 20
359.557
 11
872.41
 21
356.057
  0
LINE
  8
Layer1
  6
CONTINUOUS
 62
7
 10
873.41
 20
359.057
 11
873.41
 21
356.557
  0
LINE
  8
Layer1
  6
CONTINUOUS
 62
7
 10
875.91
 20
360.307
 11
875.91
 21
355.307
  0
LINE
  8
Layer1
  6
CONTINUOUS
 62
7
 10
869.91
 20
370.13
 11
869.91
 21
352.13
  0
LINE
  8
Layer1
  6
DASHED1
 62
7
 10
855.615
 20
352.13
 11
857.933
 21
352.13
  0
LINE
  8
Layer1
  6
CONTINUOUS
 62
7
 10
869.91
 20
370.13
 11
867.978
 21
370.13
  0
LINE
  8
Layer1
  6
DASHED1
 62
7
 10
854.069
 20
365.636
 11
856.387
 21
365.636
  0
LINE
  8
Layer1
  6
DASHED1
 62
7
 10
855.615
 20
356.648
 11
857.933
 21
356.648
  0
LINE
  8
Layer1
  6
DASHED1
 62
7
 10
856.387
 20
370.13
 11
856.387
 21
365.636
  0
LINE
  8
Layer1
  6
DASHED1
 62
7
 10
857.933
 20
356.648
 11
857.933
 21
352.13
  0
LINE
  8
Layer1
  6
DASHED1
 62
7
 10
856.387
 20
365.636
 11
857.933
 21
356.648
  0
LINE
  8
Layer1
  6
DASHED1
 62
7
 10
856.581
 20
370.13
 11
857.16
 21
361.142
  0
LINE
  8
Layer1
  6
CONTINUOUS
 62
7
 10
860.251
 20
352.13
 11
862.569
 21
352.13
  0
LINE
  8
Layer1
  6
CONTINUOUS
 62
7
 10
861.024
 20
370.13
 11
858.706
 21
370.13
  0
LINE
  8
Layer1
  6
CONTINUOUS
 62
7
 10
858.706
 20
365.636
 11
861.024
 21
365.636
  0
LINE
  8
Layer1
  6
CONTINUOUS
 62
7
 10
860.251
 20
356.648
 11
862.569
 21
356.648
  0
LINE
  8
Layer1
  6
CONTINUOUS
 62
7
 10
861.024
 20
370.13
 11
861.024
 21
365.636
  0
LINE
  8
Layer1
  6
CONTINUOUS
 62
7
 10
858.706
 20
370.13
 11
858.706
 21
365.636
  0
LINE
  8
Layer1
  6
CONTINUOUS
 62
7
 10
860.251
 20
356.648
 11
860.251
 21
352.13
  0
LINE
  8
Layer1
  6
CONTINUOUS
 62
7
 10
862.569
 20
356.648
 11
862.569
 21
352.13
  0
LINE
  8
Layer1
  6
CONTINUOUS
 62
7
 10
858.706
 20
365.636
 11
860.251
 21
356.648
  0
LINE
  8
Layer1
  6
CONTINUOUS
 62
7
 10
861.024
 20
365.636
 11
862.569
 21
356.648
  0
LINE
  8
Layer1
  6
CONTINUOUS
 62
7
 10
859.478
 20
361.142
 11
860.251
 21
352.13
  0
LINE
  8
Layer1
  6
CONTINUOUS
 62
7
 10
861.217
 20
370.13
 11
861.797
 21
361.142
  0
LINE
  8
Layer1
  6
CONTINUOUS
 62
7
 10
864.887
 20
352.13
 11
867.206
 21
352.13
  0
LINE
  8
Layer1
  6
CONTINUOUS
 62
7
 10
865.66
 20
370.13
 11
863.342
 21
370.13
  0
LINE
  8
Layer1
  6
CONTINUOUS
 62
7
 10
863.342
 20
365.636
 11
865.66
 21
365.636
  0
LINE
  8
Layer1
  6
CONTINUOUS
 62
7
 10
864.887
 20
356.648
 11
867.206
 21
356.648
  0
LINE
  8
Layer1
  6
CONTINUOUS
 62
7
 10
865.66
 20
370.13
 11
865.66
 21
365.636
  0
LINE
  8
Layer1
  6
CONTINUOUS
 62
7
 10
863.342
 20
370.13
 11
863.342
 21
365.636
  0
LINE
  8
Layer1
  6
CONTINUOUS
 62
7
 10
864.887
 20
356.648
 11
864.887
 21
352.13
  0
LINE
  8
Layer1
  6
CONTINUOUS
 62
7
 10
867.206
 20
356.648
 11
867.206
 21
352.13
  0
LINE
  8
Layer1
  6
CONTINUOUS
 62
7
 10
863.342
 20
365.636
 11
864.887
 21
356.648
  0
LINE
  8
Layer1
  6
CONTINUOUS
 62
7
 10
865.66
 20
365.636
 11
867.206
 21
356.648
  0
LINE
  8
Layer1
  6
CONTINUOUS
 62
7
 10
864.115
 20
361.142
 11
864.887
 21
352.13
  0
LINE
  8
Layer1
  6
CONTINUOUS
 62
7
 10
865.853
 20
370.13
 11
866.433
 21
361.142
  0
LINE
  8
Layer1
  6
CONTINUOUS
 62
7
 10
869.524
 20
352.13
 11
869.91
 21
352.13
  0
LINE
  8
Layer1
  6
CONTINUOUS
 62
7
 10
867.978
 20
365.636
 11
869.91
 21
365.63
  0
LINE
  8
Layer1
  6
CONTINUOUS
 62
7
 10
869.524
 20
356.648
 11
869.91
 21
356.63
  0
LINE
  8
Layer1
  6
CONTINUOUS
 62
7
 10
867.978
 20
370.13
 11
867.978
 21
365.636
  0
LINE
  8
Layer1
  6
CONTINUOUS
 62
7
 10
869.524
 20
356.648
 11
869.524
 21
352.13
  0
LINE
  8
Layer1
  6
CONTINUOUS
 62
7
 10
867.978
 20
365.636
 11
869.524
 21
356.648
  0
LINE
  8
Layer1
  6
CONTINUOUS
 62
7
 10
868.751
 20
361.142
 11
869.524
 21
352.13
  0
LINE
  8
Layer1
  6
DASHED1
 62
7
 10
856.387
 20
370.13
 11
854.069
 21
370.13
  0
LINE
  8
Layer1
  6
CONTINUOUS
 62
7
 10
855.615
 20
352.13
 11
857.933
 21
352.13
  0
LINE
  8
Layer1
  6
CONTINUOUS
 62
7
 10
856.387
 20
370.13
 11
854.069
 21
370.13
  0
LINE
  8
Layer1
  6
CONTINUOUS
 62
7
 10
854.069
 20
365.636
 11
856.387
 21
365.636
  0
LINE
  8
Layer1
  6
CONTINUOUS
 62
7
 10
855.615
 20
356.648
 11
857.933
 21
356.648
  0
LINE
  8
Layer1
  6
CONTINUOUS
 62
7
 10
856.387
 20
370.13
 11
856.387
 21
365.636
  0
LINE
  8
Layer1
  6
CONTINUOUS
 62
7
 10
854.069
 20
370.13
 11
854.069
 21
365.636
  0
LINE
  8
Layer1
  6
CONTINUOUS
 62
7
 10
855.615
 20
356.648
 11
855.615
 21
352.13
  0
LINE
  8
Layer1
  6
CONTINUOUS
 62
7
 10
857.933
 20
356.648
 11
857.933
 21
352.13
  0
LINE
  8
Layer1
  6
CONTINUOUS
 62
7
 10
854.069
 20
365.636
 11
855.615
 21
356.648
  0
LINE
  8
Layer1
  6
CONTINUOUS
 62
7
 10
856.387
 20
365.636
 11
857.933
 21
356.648
  0
LINE
  8
Layer1
  6
CONTINUOUS
 62
7
 10
854.842
 20
361.142
 11
855.615
 21
352.13
  0
LINE
  8
Layer1
  6
CONTINUOUS
 62
7
 10
856.581
 20
370.13
 11
857.16
 21
361.142
  0
POLYLINE
  8
Layer1
  6
CONTINUOUS
 62
7
 66
1
 10
0
 20
0
 30
0
  0
VERTEX
  8
Layer1
 10
868.995
 20
368.722
  0
VERTEX
  8
Layer1
 10
852.562
 20
327.881
  0
VERTEX
  8
Layer1
 10
852.562
 20
327.881
  0
SEQEND
  0
CIRCLE
  8
Layer1
  6
CONTINUOUS
 62
7
 10
868.995
 20
368.722
 40
1
  0
CIRCLE
  8
Layer1
  6
CONTINUOUS
 62
7
 10
851.309
 20
324.77
 40
3.3541
  0
TEXT
  8
Layer1
 62
7
 10
851.309
 20
324.77
 72
1
 73
2
 11
851.309
 21
324.77
 40
6
 41
1
  1
6
  0
POLYLINE
  8
Layer1
  6
CONTINUOUS
 62
7
 66
1
 10
0
 20
0
 30
0
  0
VERTEX
  8
Layer1
 10
875.207
 20
357.867
  0
VERTEX
  8
Layer1
 10
864.794
 20
327.698
  0
VERTEX
  8
Layer1
 10
864.794
 20
327.698
  0
SEQEND
  0
CIRCLE
  8
Layer1
  6
CONTINUOUS
 62
7
 10
875.207
 20
357.867
 40
1
  0
CIRCLE
  8
Layer1
  6
CONTINUOUS
 62
7
 10
863.41
 20
323.687
 40
4.24264
  0
TEXT
  8
Layer1
 62
7
 10
863.41
 20
323.687
 72
1
 73
2
 11
863.41
 21
323.687
 40
6
 41
1
  1
10
  0
TEXT
  8
Layer1
 62
7
 10
899.91
 20
722.555
 72
1
 11
899.91
 21
722.555
 40
8
 41
1
  1
 12 
  0
LINE
  8
Layer1
  6
CONTINUOUS
 62
7
 10
905.91
 20
673.45
 11
905.91
 21
724.555
  0
POLYLINE
  8
Layer1
  6
CONTINUOUS
 62
7
 66
1
 10
0
 20
0
 30
0
  0
VERTEX
  8
Layer1
 10
883.91
 20
722.555
  0
VERTEX
  8
Layer1
 10
893.91
 20
722.555
  0
SEQEND
  0
POLYLINE
  8
Layer1
  6
CONTINUOUS
 62
7
 66
1
 10
0
 20
0
 30
0
 70
1
  0
VERTEX
  8
Layer1
 10
888.115
 20
724.108
  0
VERTEX
  8
Layer1
 10
893.91
 20
722.555
  0
VERTEX
  8
Layer1
 10
888.115
 20
721.002
  0
SEQEND
  0
POLYLINE
  8
Layer1
  6
CONTINUOUS
 62
7
 66
1
 10
0
 20
0
 30
0
  0
VERTEX
  8
Layer1
 10
915.91
 20
722.555
  0
VERTEX
  8
Layer1
 10
905.91
 20
722.555
  0
SEQEND
  0
POLYLINE
  8
Layer1
  6
CONTINUOUS
 62
7
 66
1
 10
0
 20
0
 30
0
 70
1
  0
VERTEX
  8
Layer1
 10
911.706
 20
721.002
  0
VERTEX
  8
Layer1
 10
905.91
 20
722.555
  0
VERTEX
  8
Layer1
 10
911.706
 20
724.108
  0
SEQEND
  0
LINE
  8
Layer1
  6
CONTINUOUS
 62
7
 10
893.91
 20
722.555
 11
905.91
 21
722.555
  0
CIRCLE
  8
Layer1
  6
CONTINUOUS
 62
7
 10
781.409
 20
590.859
 40
4.5
  0
LINE
  8
Layer1
  6
CENTER1
 62
7
 10
781.409
 20
603.969
 11
781.409
 21
575.741
  0
LINE
  8
Layer1
  6
CENTER1
 62
7
 10
767.944
 20
590.859
 11
794.875
 21
590.859
  0
CIRCLE
  8
Layer1
  6
CONTINUOUS
 62
7
 10
831.409
 20
590.859
 40
7
  0
CIRCLE
  8
Layer1
  6
CONTINUOUS
 62
7
 10
831.409
 20
590.859
 40
4.5
  0
LINE
  8
Layer1
  6
CENTER1
 62
7
 10
831.409
 20
603.969
 11
831.409
 21
575.741
  0
LINE
  8
Layer1
  6
CENTER1
 62
7
 10
817.944
 20
590.859
 11
844.875
 21
590.859
  0
CIRCLE
  8
Layer1
  6
CONTINUOUS
 62
7
 10
881.409
 20
590.859
 40
7
  0
CIRCLE
  8
Layer1
  6
CONTINUOUS
 62
7
 10
881.409
 20
590.859
 40
4.5
  0
LINE
  8
Layer1
  6
CENTER1
 62
7
 10
871.855
 20
590.859
 11
890.009
 21
590.859
  0
LINE
  8
Layer1
  6
CENTER1
 62
7
 10
881.409
 20
601.365
 11
881.409
 21
579.265
  0
LINE
  8
Layer1
  6
CONTINUOUS
 62
7
 10
767.909
 20
665.859
 11
768.909
 21
664.859
  0
LINE
  8
Layer1
  6
CENTER1
 62
7
 10
801.087
 20
608.359
 11
790.827
 21
608.359
  0
CIRCLE
  8
Layer1
  6
CONTINUOUS
 62
7
 10
796.909
 20
608.359
 40
1.25
  0
CIRCLE
  8
Layer1
  6
CONTINUOUS
 62
7
 10
796.909
 20
608.359
 40
2
  0
LINE
  8
Layer1
  6
CENTER1
 62
7
 10
770.404
 20
608.359
 11
786.805
 21
608.359
  0
LINE
  8
Layer1
  6
CONTINUOUS
 62
7
 10
775.741
 20
608.359
 11
770.404
 21
608.359
  0
LINE
  8
Layer1
  6
CENTER1
 62
7
 10
800.437
 20
608.359
 11
792.799
 21
608.359
  0
CIRCLE
  8
Layer1
  6
CONTINUOUS
 62
7
 10
796.909
 20
608.359
 40
1.25
  0
CIRCLE
  8
Layer1
  6
CONTINUOUS
 62
7
 10
796.909
 20
608.359
 40
2
  0
LINE
  8
Layer1
  6
CENTER1
 62
7
 10
770.404
 20
608.359
 11
786.805
 21
608.359
  0
LINE
  8
Layer1
  6
CENTER1
 62
7
 10
829.943
 20
608.359
 11
846.097
 21
608.359
  0
CIRCLE
  8
Layer1
  6
CONTINUOUS
 62
7
 10
778.409
 20
608.359
 40
6.5
  0
POLYLINE
  8
Layer1
  6
CONTINUOUS
 62
7
 66
1
 10
0
 20
0
 30
0
 70
1
  0
VERTEX
  8
Layer1
 10
778.409
 20
611.789
  0
VERTEX
  8
Layer1
 10
775.439
 20
610.074
  0
VERTEX
  8
Layer1
 10
775.439
 20
606.644
  0
VERTEX
  8
Layer1
 10
778.409
 20
604.929
  0
VERTEX
  8
Layer1
 10
781.38
 20
606.644
  0
VERTEX
  8
Layer1
 10
781.38
 20
610.074
  0
SEQEND
  0
CIRCLE
  8
Layer1
  6
CONTINUOUS
 62
7
 10
778.409
 20
608.359
 40
3.43
  0
CIRCLE
  8
Layer1
  6
CONTINUOUS
 62
7
 10
838.409
 20
608.359
 40
6.5
  0
LINE
  8
Layer1
  6
CENTER1
 62
7
 10
800.437
 20
608.359
 11
817.746
 21
608.359
  0
CIRCLE
  8
Layer1
  6
CONTINUOUS
 62
7
 10
808.409
 20
608.359
 40
6.5
  0
POLYLINE
  8
Layer1
  6
CONTINUOUS
 62
7
 66
1
 10
0
 20
0
 30
0
 70
1
  0
VERTEX
  8
Layer1
 10
808.409
 20
611.789
  0
VERTEX
  8
Layer1
 10
805.439
 20
610.074
  0
VERTEX
  8
Layer1
 10
805.439
 20
606.644
  0
VERTEX
  8
Layer1
 10
808.409
 20
604.929
  0
VERTEX
  8
Layer1
 10
811.38
 20
606.644
  0
VERTEX
  8
Layer1
 10
811.38
 20
610.074
  0
SEQEND
  0
CIRCLE
  8
Layer1
  6
CONTINUOUS
 62
7
 10
808.409
 20
608.359
 40
3.43
  0
LINE
  8
Layer1
  6
CENTER1
 62
7
 10
778.409
 20
599.552
 11
778.409
 21
616.166
  0
LINE
  8
Layer1
  6
CENTER1
 62
7
 10
808.409
 20
599.393
 11
808.409
 21
616.325
  0
LINE
  8
Layer1
  6
CENTER1
 62
7
 10
838.409
 20
599.743
 11
838.409
 21
616.267
  0
POLYLINE
  8
Layer1
  6
CONTINUOUS
 62
7
 66
1
 10
0
 20
0
 30
0
 70
1
  0
VERTEX
  8
Layer1
 10
838.409
 20
611.789
  0
VERTEX
  8
Layer1
 10
835.439
 20
610.074
  0
VERTEX
  8
Layer1
 10
835.439
 20
606.644
  0
VERTEX
  8
Layer1
 10
838.409
 20
604.929
  0
VERTEX
  8
Layer1
 10
841.38
 20
606.644
  0
VERTEX
  8
Layer1
 10
841.38
 20
610.074
  0
SEQEND
  0
CIRCLE
  8
Layer1
  6
CONTINUOUS
 62
7
 10
838.409
 20
608.359
 40
3.43
  0
CIRCLE
  8
Layer1
  6
CONTINUOUS
 62
7
 10
796.909
 20
673.359
 40
1.25
  0
CIRCLE
  8
Layer1
  6
CONTINUOUS
 62
7
 10
796.909
 20
673.359
 40
2
  0
LINE
  8
Layer1
  6
CENTER1
 62
7
 10
796.909
 20
677.473
 11
796.909
 21
668.899
  0
LINE
  8
Layer1
  6
CENTER1
 62
7
 10
838.409
 20
665.36
 11
838.409
 21
683.955
  0
LINE
  8
Layer1
  6
CENTER1
 62
7
 10
770.209
 20
673.359
 11
786.611
 21
673.359
  0
LINE
  8
Layer1
  6
CENTER1
 62
7
 10
829.943
 20
673.359
 11
846.097
 21
673.359
  0
LINE
  8
Layer1
  6
CENTER1
 62
7
 10
808.409
 20
665.674
 11
808.409
 21
684.268
  0
LINE
  8
Layer1
  6
CENTER1
 62
7
 10
778.409
 20
664.399
 11
778.409
 21
682.994
  0
CIRCLE
  8
Layer1
  6
CONTINUOUS
 62
7
 10
778.409
 20
673.359
 40
6.5
  0
POLYLINE
  8
Layer1
  6
CONTINUOUS
 62
7
 66
1
 10
0
 20
0
 30
0
 70
1
  0
VERTEX
  8
Layer1
 10
778.409
 20
676.789
  0
VERTEX
  8
Layer1
 10
775.439
 20
675.074
  0
VERTEX
  8
Layer1
 10
775.439
 20
671.644
  0
VERTEX
  8
Layer1
 10
778.409
 20
669.929
  0
VERTEX
  8
Layer1
 10
781.38
 20
671.644
  0
VERTEX
  8
Layer1
 10
781.38
 20
675.074
  0
SEQEND
  0
CIRCLE
  8
Layer1
  6
CONTINUOUS
 62
7
 10
778.409
 20
673.359
 40
3.43
  0
CIRCLE
  8
Layer1
  6
CONTINUOUS
 62
7
 10
838.409
 20
673.359
 40
6.5
  0
POLYLINE
  8
Layer1
  6
CONTINUOUS
 62
7
 66
1
 10
0
 20
0
 30
0
 70
1
  0
VERTEX
  8
Layer1
 10
838.409
 20
676.789
  0
VERTEX
  8
Layer1
 10
835.439
 20
675.074
  0
VERTEX
  8
Layer1
 10
835.439
 20
671.644
  0
VERTEX
  8
Layer1
 10
838.409
 20
669.929
  0
VERTEX
  8
Layer1
 10
841.38
 20
671.644
  0
VERTEX
  8
Layer1
 10
841.38
 20
675.074
  0
SEQEND
  0
CIRCLE
  8
Layer1
  6
CONTINUOUS
 62
7
 10
838.409
 20
673.359
 40
3.43
  0
LINE
  8
Layer1
  6
CENTER1
 62
7
 10
800.437
 20
673.359
 11
817.746
 21
673.359
  0
CIRCLE
  8
Layer1
  6
CONTINUOUS
 62
7
 10
808.409
 20
673.359
 40
6.5
  0
POLYLINE
  8
Layer1
  6
CONTINUOUS
 62
7
 66
1
 10
0
 20
0
 30
0
 70
1
  0
VERTEX
  8
Layer1
 10
808.409
 20
676.789
  0
VERTEX
  8
Layer1
 10
805.439
 20
675.074
  0
VERTEX
  8
Layer1
 10
805.439
 20
671.644
  0
VERTEX
  8
Layer1
 10
808.409
 20
669.929
  0
VERTEX
  8
Layer1
 10
811.38
 20
671.644
  0
VERTEX
  8
Layer1
 10
811.38
 20
675.074
  0
SEQEND
  0
CIRCLE
  8
Layer1
  6
CONTINUOUS
 62
7
 10
808.409
 20
673.359
 40
3.43
  0
LINE
  8
Layer1
  6
CONTINUOUS
 62
7
 10
768.909
 20
353.13
 11
769.909
 21
352.13
  0
LINE
  8
Layer1
  6
CONTINUOUS
 62
7
 10
765.347
 20
422.13
 11
868.693
 21
422.13
  0
LINE
  8
Layer1
  6
CONTINUOUS
 62
7
 10
741.409
 20
373.13
 11
741.409
 21
421.13
  0
LINE
  8
Layer1
  6
CONTINUOUS
 62
7
 10
763.409
 20
372.13
 11
742.409
 21
372.13
  0
LINE
  8
Layer1
  6
CONTINUOUS
 62
7
 10
763.409
 20
422.13
 11
742.409
 21
422.13
  0
LINE
  8
Layer1
  6
CONTINUOUS
 62
7
 10
764.409
 20
421.13
 11
764.409
 21
417.63
  0
LINE
  8
Layer1
  6
CONTINUOUS
 62
7
 10
741.409
 20
421.13
 11
742.409
 21
422.13
  0
LINE
  8
Layer1
  6
CONTINUOUS
 62
7
 10
741.409
 20
373.13
 11
742.409
 21
372.13
  0
LINE
  8
Layer1
  6
CONTINUOUS
 62
7
 10
763.409
 20
372.13
 11
764.409
 21
373.13
  0
LINE
  8
Layer1
  6
CONTINUOUS
 62
7
 10
764.409
 20
373.13
 11
765.409
 21
372.13
  0
LINE
  8
Layer1
  6
CONTINUOUS
 62
7
 10
763.409
 20
422.13
 11
764.409
 21
421.13
  0
LINE
  8
Layer1
  6
CONTINUOUS
 62
7
 10
764.409
 20
421.13
 11
765.409
 21
422.13
  0
LINE
  8
Layer1
  6
CENTER1
 62
7
 10
795.02
 20
414.63
 11
734.523
 21
414.63
  0
LINE
  8
Layer1
  6
CENTER1
 62
7
 10
791.467
 20
379.63
 11
735.49
 21
379.63
  0
LINE
  8
Layer1
  6
CONTINUOUS
 62
7
 10
742.409
 20
410.63
 11
742.409
 21
418.63
  0
LINE
  8
Layer1
  6
CONTINUOUS
 62
7
 10
743.409
 20
419.63
 11
748.409
 21
419.63
  0
LINE
  8
Layer1
  6
CONTINUOUS
 62
7
 10
743.409
 20
409.63
 11
748.409
 21
409.63
  0
LINE
  8
Layer1
  6
CONTINUOUS
 62
7
 10
748.409
 20
420.13
 11
748.409
 21
409.13
  0
LINE
  8
Layer1
  6
DASHED1
 62
7
 10
781.409
 20
417.63
 11
767.159
 21
417.63
  0
LINE
  8
Layer1
  6
DASHED1
 62
7
 10
781.409
 20
411.63
 11
766.468
 21
411.63
  0
LINE
  8
Layer1
  6
CONTINUOUS
 62
7
 10
748.409
 20
417.13
 11
768.948
 21
417.13
  0
LINE
  8
Layer1
  6
CONTINUOUS
 62
7
 10
748.409
 20
412.13
 11
766.718
 21
412.13
  0
LINE
  8
Layer1
  6
CONTINUOUS
 62
7
 10
742.409
 20
410.63
 11
743.409
 21
409.63
  0
LINE
  8
Layer1
  6
CONTINUOUS
 62
7
 10
748.409
 20
420.13
 11
741.409
 21
420.13
  0
LINE
  8
Layer1
  6
CONTINUOUS
 62
7
 10
748.409
 20
409.13
 11
741.409
 21
409.13
  0
LINE
  8
Layer1
  6
CONTINUOUS
 62
7
 10
743.409
 20
419.63
 11
743.409
 21
409.63
  0
POLYLINE
  8
Layer1
  6
CONTINUOUS
 62
7
 66
1
 10
0
 20
0
 30
0
  0
VERTEX
  8
Layer1
 10
767.029
 20
422.13
  0
VERTEX
  8
Layer1
 10
767.038
 20
421.81
  0
VERTEX
  8
Layer1
 10
767.045
 20
421.49
  0
VERTEX
  8
Layer1
 10
767.053
 20
421.169
  0
VERTEX
  8
Layer1
 10
767.062
 20
420.846
  0
VERTEX
  8
Layer1
 10
767.069
 20
420.521
  0
VERTEX
  8
Layer1
 10
767.078
 20
420.195
  0
VERTEX
  8
Layer1
 10
767.087
 20
419.865
  0
VERTEX
  8
Layer1
 10
767.097
 20
419.532
  0
VERTEX
  8
Layer1
 10
767.107
 20
419.196
  0
VERTEX
  8
Layer1
 10
767.117
 20
418.856
  0
VERTEX
  8
Layer1
 10
767.13
 20
418.511
  0
VERTEX
  8
Layer1
 10
767.141
 20
418.161
  0
VERTEX
  8
Layer1
 10
767.154
 20
417.805
  0
VERTEX
  8
Layer1
 10
767.168
 20
417.444
  0
VERTEX
  8
Layer1
 10
767.183
 20
417.076
  0
VERTEX
  8
Layer1
 10
767.197
 20
416.704
  0
VERTEX
  8
Layer1
 10
767.209
 20
416.328
  0
VERTEX
  8
Layer1
 10
767.218
 20
415.949
  0
VERTEX
  8
Layer1
 10
767.225
 20
415.57
  0
VERTEX
  8
Layer1
 10
767.223
 20
415.193
  0
VERTEX
  8
Layer1
 10
767.217
 20
414.818
  0
VERTEX
  8
Layer1
 10
767.201
 20
414.447
  0
VERTEX
  8
Layer1
 10
767.174
 20
414.082
  0
VERTEX
  8
Layer1
 10
767.139
 20
413.724
  0
VERTEX
  8
Layer1
 10
767.088
 20
413.375
  0
VERTEX
  8
Layer1
 10
767.025
 20
413.036
  0
VERTEX
  8
Layer1
 10
766.947
 20
412.71
  0
VERTEX
  8
Layer1
 10
766.851
 20
412.397
  0
VERTEX
  8
Layer1
 10
766.739
 20
412.099
  0
VERTEX
  8
Layer1
 10
766.606
 20
411.817
  0
VERTEX
  8
Layer1
 10
766.452
 20
411.554
  0
VERTEX
  8
Layer1
 10
766.278
 20
411.311
  0
VERTEX
  8
Layer1
 10
766.078
 20
411.088
  0
VERTEX
  8
Layer1
 10
765.855
 20
410.889
  0
VERTEX
  8
Layer1
 10
765.606
 20
410.712
  0
VERTEX
  8
Layer1
 10
765.336
 20
410.555
  0
VERTEX
  8
Layer1
 10
765.047
 20
410.413
  0
VERTEX
  8
Layer1
 10
764.742
 20
410.283
  0
VERTEX
  8
Layer1
 10
764.427
 20
410.16
  0
VERTEX
  8
Layer1
 10
764.102
 20
410.041
  0
VERTEX
  8
Layer1
 10
763.774
 20
409.921
  0
VERTEX
  8
Layer1
 10
763.443
 20
409.797
  0
VERTEX
  8
Layer1
 10
763.115
 20
409.665
  0
VERTEX
  8
Layer1
 10
762.79
 20
409.521
  0
VERTEX
  8
Layer1
 10
762.476
 20
409.361
  0
VERTEX
  8
Layer1
 10
762.169
 20
409.186
  0
VERTEX
  8
Layer1
 10
761.871
 20
408.997
  0
VERTEX
  8
Layer1
 10
761.581
 20
408.797
  0
VERTEX
  8
Layer1
 10
761.297
 20
408.588
  0
VERTEX
  8
Layer1
 10
761.016
 20
408.374
  0
VERTEX
  8
Layer1
 10
760.741
 20
408.156
  0
VERTEX
  8
Layer1
 10
760.47
 20
407.938
  0
VERTEX
  8
Layer1
 10
760.199
 20
407.721
  0
VERTEX
  8
Layer1
 10
759.93
 20
407.508
  0
VERTEX
  8
Layer1
 10
759.661
 20
407.302
  0
VERTEX
  8
Layer1
 10
759.391
 20
407.105
  0
VERTEX
  8
Layer1
 10
759.12
 20
406.92
  0
VERTEX
  8
Layer1
 10
758.845
 20
406.749
  0
VERTEX
  8
Layer1
 10
758.566
 20
406.595
  0
VERTEX
  8
Layer1
 10
758.281
 20
406.459
  0
VERTEX
  8
Layer1
 10
757.992
 20
406.346
  0
VERTEX
  8
Layer1
 10
757.696
 20
406.257
  0
VERTEX
  8
Layer1
 10
757.39
 20
406.194
  0
VERTEX
  8
Layer1
 10
757.078
 20
406.156
  0
VERTEX
  8
Layer1
 10
756.759
 20
406.14
  0
VERTEX
  8
Layer1
 10
756.433
 20
406.143
  0
VERTEX
  8
Layer1
 10
756.102
 20
406.162
  0
VERTEX
  8
Layer1
 10
755.768
 20
406.194
  0
VERTEX
  8
Layer1
 10
755.428
 20
406.235
  0
VERTEX
  8
Layer1
 10
755.087
 20
406.283
  0
VERTEX
  8
Layer1
 10
754.744
 20
406.334
  0
VERTEX
  8
Layer1
 10
754.399
 20
406.386
  0
VERTEX
  8
Layer1
 10
754.053
 20
406.435
  0
VERTEX
  8
Layer1
 10
753.708
 20
406.477
  0
VERTEX
  8
Layer1
 10
753.365
 20
406.511
  0
VERTEX
  8
Layer1
 10
753.024
 20
406.532
  0
VERTEX
  8
Layer1
 10
752.684
 20
406.538
  0
VERTEX
  8
Layer1
 10
752.35
 20
406.526
  0
VERTEX
  8
Layer1
 10
752.019
 20
406.494
  0
VERTEX
  8
Layer1
 10
751.692
 20
406.442
  0
VERTEX
  8
Layer1
 10
751.369
 20
406.373
  0
VERTEX
  8
Layer1
 10
751.048
 20
406.289
  0
VERTEX
  8
Layer1
 10
750.731
 20
406.19
  0
VERTEX
  8
Layer1
 10
750.415
 20
406.08
  0
VERTEX
  8
Layer1
 10
750.103
 20
405.958
  0
VERTEX
  8
Layer1
 10
749.793
 20
405.828
  0
VERTEX
  8
Layer1
 10
749.482
 20
405.691
  0
VERTEX
  8
Layer1
 10
749.174
 20
405.548
  0
VERTEX
  8
Layer1
 10
748.866
 20
405.401
  0
VERTEX
  8
Layer1
 10
748.558
 20
405.251
  0
VERTEX
  8
Layer1
 10
748.251
 20
405.102
  0
VERTEX
  8
Layer1
 10
747.943
 20
404.953
  0
VERTEX
  8
Layer1
 10
747.635
 20
404.807
  0
VERTEX
  8
Layer1
 10
747.324
 20
404.665
  0
VERTEX
  8
Layer1
 10
747.014
 20
404.53
  0
VERTEX
  8
Layer1
 10
746.701
 20
404.403
  0
VERTEX
  8
Layer1
 10
746.385
 20
404.284
  0
VERTEX
  8
Layer1
 10
746.068
 20
404.178
  0
VERTEX
  8
Layer1
 10
745.746
 20
404.083
  0
VERTEX
  8
Layer1
 10
745.423
 20
404
  0
VERTEX
  8
Layer1
 10
745.097
 20
403.928
  0
VERTEX
  8
Layer1
 10
744.769
 20
403.866
  0
VERTEX
  8
Layer1
 10
744.439
 20
403.813
  0
VERTEX
  8
Layer1
 10
744.107
 20
403.769
  0
VERTEX
  8
Layer1
 10
743.774
 20
403.731
  0
VERTEX
  8
Layer1
 10
743.438
 20
403.7
  0
VERTEX
  8
Layer1
 10
743.102
 20
403.675
  0
VERTEX
  8
Layer1
 10
742.765
 20
403.653
  0
VERTEX
  8
Layer1
 10
742.428
 20
403.636
  0
VERTEX
  8
Layer1
 10
742.088
 20
403.621
  0
VERTEX
  8
Layer1
 10
741.75
 20
403.608
  0
VERTEX
  8
Layer1
 10
741.409
 20
403.596
  0
SEQEND
  0
LINE
  8
Layer1
  6
CONTINUOUS
 62
7
 10
764.409
 20
411.63
 11
764.409
 21
373.13
  0
LINE
  8
Layer1
  6
CONTINUOUS
 62
7
 10
768.971
 20
421.15
 11
769.952
 21
422.13
  0
LINE
  8
Layer1
  6
CONTINUOUS
 62
7
 10
767.159
 20
417.63
 11
748.409
 21
417.63
  0
LINE
  8
Layer1
  6
DASHED1
 62
7
 10
768.948
 20
417.13
 11
781.909
 21
417.13
  0
LINE
  8
Layer1
  6
DASHED1
 62
7
 10
766.718
 20
412.13
 11
781.909
 21
412.13
  0
LINE
  8
Layer1
  6
CONTINUOUS
 62
7
 10
766.468
 20
411.63
 11
748.409
 21
411.63
  0
LINE
  8
Layer1
  6
CONTINUOUS
 62
7
 10
743.409
 20
419.63
 11
748.409
 21
419.63
  0
LINE
  8
Layer1
  6
CONTINUOUS
 62
7
 10
742.409
 20
418.63
 11
743.409
 21
419.63
  0
LINE
  8
Layer1
  6
CONTINUOUS
 62
7
 10
748.409
 20
419.63
 11
743.409
 21
419.63
  0
LINE
  8
Layer1
  6
CONTINUOUS
 62
7
 10
748.159
 20
419.13
 11
743.659
 21
419.13
  0
LINE
  8
Layer1
  6
CONTINUOUS
 62
7
 10
747.659
 20
418.13
 11
744.159
 21
418.13
  0
LINE
  8
Layer1
  6
CONTINUOUS
 62
7
 10
747.159
 20
417.13
 11
744.659
 21
417.13
  0
LINE
  8
Layer1
  6
CONTINUOUS
 62
7
 10
768.891
 20
371.13
 11
769.89
 21
370.13
  0
LINE
  8
Layer1
  6
CONTINUOUS
 62
7
 10
769.909
 20
370.162
 11
768.909
 21
369.162
  0
LINE
  8
Layer1
  6
PHANTOM1
 62
7
 10
716.409
 20
373.13
 11
716.409
 21
421.13
  0
LINE
  8
Layer1
  6
PHANTOM1
 62
7
 10
738.409
 20
372.13
 11
717.409
 21
372.13
  0
LINE
  8
Layer1
  6
PHANTOM1
 62
7
 10
738.409
 20
422.13
 11
717.409
 21
422.13
  0
LINE
  8
Layer1
  6
PHANTOM1
 62
7
 10
716.409
 20
421.13
 11
717.409
 21
422.13
  0
LINE
  8
Layer1
  6
PHANTOM1
 62
7
 10
716.409
 20
373.13
 11
717.409
 21
372.13
  0
LINE
  8
Layer1
  6
PHANTOM1
 62
7
 10
739.409
 20
373.13
 11
739.409
 21
421.13
  0
LINE
  8
Layer1
  6
PHANTOM1
 62
7
 10
739.409
 20
421.13
 11
738.409
 21
422.13
  0
LINE
  8
Layer1
  6
PHANTOM1
 62
7
 10
739.409
 20
373.13
 11
738.409
 21
372.13
  0
LINE
  8
Layer1
  6
CONTINUOUS
 62
7
 10
716.409
 20
369.13
 11
716.409
 21
350.13
  0
LINE
  8
Layer1
  6
CONTINUOUS
 62
7
 10
741.409
 20
369.13
 11
741.409
 21
350.13
  0
TEXT
  8
Layer1
 62
7
 10
752.909
 20
445.154
 72
1
 11
752.909
 21
445.154
 40
8
 41
1
  1
 23 
  0
TEXT
  8
Layer1
 62
7
 10
772.625
 20
449.847
 72
1
 11
772.625
 21
449.847
 40
8
 41
1
  1
 4.5 
  0
LINE
  8
Layer1
  6
CONTINUOUS
 62
7
 10
764.409
 20
421.13
 11
764.409
 21
447.154
  0
LINE
  8
Layer1
  6
CONTINUOUS
 62
7
 10
741.409
 20
421.13
 11
741.409
 21
447.154
  0
POLYLINE
  8
Layer1
  6
CONTINUOUS
 62
7
 66
1
 10
0
 20
0
 30
0
  0
VERTEX
  8
Layer1
 10
764.409
 20
445.154
  0
VERTEX
  8
Layer1
 10
741.409
 20
445.154
  0
SEQEND
  0
POLYLINE
  8
Layer1
  6
CONTINUOUS
 62
7
 66
1
 10
0
 20
0
 30
0
 70
1
  0
VERTEX
  8
Layer1
 10
760.547
 20
446.189
  0
VERTEX
  8
Layer1
 10
764.409
 20
445.154
  0
VERTEX
  8
Layer1
 10
760.547
 20
444.119
  0
SEQEND
  0
POLYLINE
  8
Layer1
  6
CONTINUOUS
 62
7
 66
1
 10
0
 20
0
 30
0
 70
1
  0
VERTEX
  8
Layer1
 10
745.274
 20
444.119
  0
VERTEX
  8
Layer1
 10
741.409
 20
445.154
  0
VERTEX
  8
Layer1
 10
745.274
 20
446.189
  0
SEQEND
  0
POLYLINE
  8
Layer1
  6
CONTINUOUS
 62
7
 66
1
 10
0
 20
0
 30
0
  0
VERTEX
  8
Layer1
 10
778.952
 20
445.154
  0
VERTEX
  8
Layer1
 10
768.952
 20
445.154
  0
SEQEND
  0
POLYLINE
  8
Layer1
  6
CONTINUOUS
 62
7
 66
1
 10
0
 20
0
 30
0
 70
1
  0
VERTEX
  8
Layer1
 10
772.816
 20
444.119
  0
VERTEX
  8
Layer1
 10
768.952
 20
445.154
  0
VERTEX
  8
Layer1
 10
772.816
 20
446.189
  0
SEQEND
  0
LINE
  8
Layer1
  6
CONTINUOUS
 62
7
 10
768.952
 20
445.154
 11
764.409
 21
445.154
  0
POLYLINE
  8
Layer1
  6
CONTINUOUS
 62
7
 66
1
 10
0
 20
0
 30
0
  0
VERTEX
  8
Layer1
 10
765.685
 20
420.437
  0
VERTEX
  8
Layer1
 10
786.097
 20
446.474
  0
VERTEX
  8
Layer1
 10
786.097
 20
446.474
  0
SEQEND
  0
CIRCLE
  8
Layer1
  6
CONTINUOUS
 62
7
 10
765.685
 20
420.437
 40
1
  0
CIRCLE
  8
Layer1
  6
CONTINUOUS
 62
7
 10
788.715
 20
449.813
 40
4.24264
  0
TEXT
  8
Layer1
 62
7
 10
788.715
 20
449.813
 72
1
 73
2
 11
788.715
 21
449.813
 40
6
 41
1
  1
15
  0
POLYLINE
  8
Layer1
  6
CONTINUOUS
 62
7
 66
1
 10
0
 20
0
 30
0
  0
VERTEX
  8
Layer1
 10
745.909
 20
417.13
  0
VERTEX
  8
Layer1
 10
734.887
 20
437.229
  0
VERTEX
  8
Layer1
 10
734.887
 20
437.229
  0
SEQEND
  0
CIRCLE
  8
Layer1
  6
CONTINUOUS
 62
7
 10
745.909
 20
417.13
 40
1
  0
CIRCLE
  8
Layer1
  6
CONTINUOUS
 62
7
 10
732.847
 20
440.949
 40
4.24264
  0
TEXT
  8
Layer1
 62
7
 10
732.847
 20
440.949
 72
1
 73
2
 11
732.847
 21
440.949
 40
6
 41
1
  1
14
  0
LINE
  8
Layer1
  6
CONTINUOUS
 62
7
 10
768.909
 20
353.13
 11
768.909
 21
421.15
  0
POLYLINE
  8
Layer1
  6
CONTINUOUS
 62
7
 66
1
 10
0
 20
0
 30
0
  0
VERTEX
  8
Layer1
 10
754.25
 20
397.912
  0
VERTEX
  8
Layer1
 10
722.851
 20
437.965
  0
VERTEX
  8
Layer1
 10
722.851
 20
437.965
  0
SEQEND
  0
CIRCLE
  8
Layer1
  6
CONTINUOUS
 62
7
 10
754.25
 20
397.912
 40
1
  0
CIRCLE
  8
Layer1
  6
CONTINUOUS
 62
7
 10
720.233
 20
441.304
 40
4.24264
  0
TEXT
  8
Layer1
 62
7
 10
720.233
 20
441.304
 72
1
 73
2
 11
720.233
 21
441.304
 40
6
 41
1
  1
13
  0
LINE
  8
Layer1
  6
CONTINUOUS
 62
7
 10
768.909
 20
433.349
 11
768.909
 21
446.912
  0
LINE
  8
Layer1
  6
CONTINUOUS
 62
7
 10
524.752
 20
353.13
 11
524.752
 21
368.13
  0
LINE
  8
Layer1
  6
CONTINUOUS
 62
7
 10
644.752
 20
353.13
 11
644.752
 21
368.13
  0
LINE
  8
Layer1
  6
CONTINUOUS
 62
7
 10
545.252
 20
422.13
 11
560.252
 21
422.13
  0
LINE
  8
Layer1
  6
CENTER2
 62
7
 10
584.752
 20
432.388
 11
584.752
 21
350.063
  0
LINE
  8
Layer1
  6
CONTINUOUS
 62
7
 10
625.754
 20
421.13
 11
625.764
 21
374.803
  0
LINE
  8
Layer1
  6
CONTINUOUS
 62
7
 10
624.252
 20
422.13
 11
609.252
 21
422.13
  0
LINE
  8
Layer1
  6
CONTINUOUS
 62
7
 10
526.752
 20
370.13
 11
538.752
 21
370.13
  0
LINE
  8
Layer1
  6
CONTINUOUS
 62
7
 10
630.752
 20
370.13
 11
642.752
 21
370.13
  0
POLYLINE
  8
Layer1
  6
CONTINUOUS
 62
7
 66
1
 10
0
 20
0
 30
0
  0
VERTEX
  8
Layer1
 10
538.752
 20
370.13
  0
VERTEX
  8
Layer1
 10
538.917
 20
370.133
  0
VERTEX
  8
Layer1
 10
539.079
 20
370.141
  0
VERTEX
  8
Layer1
 10
539.242
 20
370.154
  0
VERTEX
  8
Layer1
 10
539.405
 20
370.173
  0
VERTEX
  8
Layer1
 10
539.568
 20
370.197
  0
VERTEX
  8
Layer1
 10
539.727
 20
370.226
  0
VERTEX
  8
Layer1
 10
539.887
 20
370.261
  0
VERTEX
  8
Layer1
 10
540.047
 20
370.301
  0
VERTEX
  8
Layer1
 10
540.203
 20
370.345
  0
VERTEX
  8
Layer1
 10
540.36
 20
370.395
  0
VERTEX
  8
Layer1
 10
540.514
 20
370.451
  0
VERTEX
  8
Layer1
 10
540.665
 20
370.511
  0
VERTEX
  8
Layer1
 10
540.817
 20
370.576
  0
VERTEX
  8
Layer1
 10
540.963
 20
370.646
  0
VERTEX
  8
Layer1
 10
541.11
 20
370.721
  0
VERTEX
  8
Layer1
 10
541.252
 20
370.8
  0
VERTEX
  8
Layer1
 10
541.393
 20
370.884
  0
VERTEX
  8
Layer1
 10
541.53
 20
370.973
  0
VERTEX
  8
Layer1
 10
541.664
 20
371.066
  0
VERTEX
  8
Layer1
 10
541.797
 20
371.163
  0
VERTEX
  8
Layer1
 10
541.924
 20
371.265
  0
VERTEX
  8
Layer1
 10
542.049
 20
371.371
  0
VERTEX
  8
Layer1
 10
542.17
 20
371.481
  0
VERTEX
  8
Layer1
 10
542.289
 20
371.595
  0
VERTEX
  8
Layer1
 10
542.401
 20
371.712
  0
VERTEX
  8
Layer1
 10
542.511
 20
371.833
  0
VERTEX
  8
Layer1
 10
542.617
 20
371.958
  0
VERTEX
  8
Layer1
 10
542.72
 20
372.086
  0
VERTEX
  8
Layer1
 10
542.817
 20
372.218
  0
VERTEX
  8
Layer1
 10
542.909
 20
372.352
  0
VERTEX
  8
Layer1
 10
542.999
 20
372.49
  0
VERTEX
  8
Layer1
 10
543.082
 20
372.63
  0
VERTEX
  8
Layer1
 10
543.163
 20
372.773
  0
VERTEX
  8
Layer1
 10
543.236
 20
372.919
  0
VERTEX
  8
Layer1
 10
543.307
 20
373.067
  0
VERTEX
  8
Layer1
 10
543.371
 20
373.217
  0
VERTEX
  8
Layer1
 10
543.433
 20
373.369
  0
VERTEX
  8
Layer1
 10
543.487
 20
373.523
  0
VERTEX
  8
Layer1
 10
543.538
 20
373.679
  0
VERTEX
  8
Layer1
 10
543.582
 20
373.836
  0
VERTEX
  8
Layer1
 10
543.621
 20
373.995
  0
VERTEX
  8
Layer1
 10
543.656
 20
374.155
  0
VERTEX
  8
Layer1
 10
543.685
 20
374.316
  0
VERTEX
  8
Layer1
 10
543.709
 20
374.478
  0
VERTEX
  8
Layer1
 10
543.728
 20
374.64
  0
VERTEX
  8
Layer1
 10
543.741
 20
374.803
  0
VERTEX
  8
Layer1
 10
543.75
 20
374.967
  0
VERTEX
  8
Layer1
 10
543.752
 20
375.13
  0
SEQEND
  0
POLYLINE
  8
Layer1
  6
CONTINUOUS
 62
7
 66
1
 10
0
 20
0
 30
0
  0
VERTEX
  8
Layer1
 10
625.752
 20
375.13
  0
VERTEX
  8
Layer1
 10
625.755
 20
374.967
  0
VERTEX
  8
Layer1
 10
625.764
 20
374.803
  0
VERTEX
  8
Layer1
 10
625.776
 20
374.64
  0
VERTEX
  8
Layer1
 10
625.795
 20
374.478
  0
VERTEX
  8
Layer1
 10
625.819
 20
374.316
  0
VERTEX
  8
Layer1
 10
625.848
 20
374.155
  0
VERTEX
  8
Layer1
 10
625.884
 20
373.995
  0
VERTEX
  8
Layer1
 10
625.923
 20
373.836
  0
VERTEX
  8
Layer1
 10
625.967
 20
373.679
  0
VERTEX
  8
Layer1
 10
626.018
 20
373.523
  0
VERTEX
  8
Layer1
 10
626.073
 20
373.369
  0
VERTEX
  8
Layer1
 10
626.134
 20
373.217
  0
VERTEX
  8
Layer1
 10
626.198
 20
373.067
  0
VERTEX
  8
Layer1
 10
626.269
 20
372.919
  0
VERTEX
  8
Layer1
 10
626.342
 20
372.773
  0
VERTEX
  8
Layer1
 10
626.423
 20
372.63
  0
VERTEX
  8
Layer1
 10
626.506
 20
372.49
  0
VERTEX
  8
Layer1
 10
626.596
 20
372.352
  0
VERTEX
  8
Layer1
 10
626.688
 20
372.218
  0
VERTEX
  8
Layer1
 10
626.785
 20
372.086
  0
VERTEX
  8
Layer1
 10
626.887
 20
371.958
  0
VERTEX
  8
Layer1
 10
626.994
 20
371.833
  0
VERTEX
  8
Layer1
 10
627.103
 20
371.712
  0
VERTEX
  8
Layer1
 10
627.217
 20
371.595
  0
VERTEX
  8
Layer1
 10
627.334
 20
371.481
  0
VERTEX
  8
Layer1
 10
627.456
 20
371.371
  0
VERTEX
  8
Layer1
 10
627.581
 20
371.265
  0
VERTEX
  8
Layer1
 10
627.708
 20
371.163
  0
VERTEX
  8
Layer1
 10
627.841
 20
371.066
  0
VERTEX
  8
Layer1
 10
627.975
 20
370.973
  0
VERTEX
  8
Layer1
 10
628.112
 20
370.884
  0
VERTEX
  8
Layer1
 10
628.252
 20
370.8
  0
VERTEX
  8
Layer1
 10
628.395
 20
370.721
  0
VERTEX
  8
Layer1
 10
628.542
 20
370.646
  0
VERTEX
  8
Layer1
 10
628.689
 20
370.576
  0
VERTEX
  8
Layer1
 10
628.84
 20
370.511
  0
VERTEX
  8
Layer1
 10
628.991
 20
370.451
  0
VERTEX
  8
Layer1
 10
629.145
 20
370.395
  0
VERTEX
  8
Layer1
 10
629.302
 20
370.345
  0
VERTEX
  8
Layer1
 10
629.458
 20
370.301
  0
VERTEX
  8
Layer1
 10
629.617
 20
370.261
  0
VERTEX
  8
Layer1
 10
629.778
 20
370.226
  0
VERTEX
  8
Layer1
 10
629.938
 20
370.197
  0
VERTEX
  8
Layer1
 10
630.1
 20
370.173
  0
VERTEX
  8
Layer1
 10
630.262
 20
370.154
  0
VERTEX
  8
Layer1
 10
630.425
 20
370.141
  0
VERTEX
  8
Layer1
 10
630.588
 20
370.133
  0
VERTEX
  8
Layer1
 10
630.752
 20
370.13
  0
SEQEND
  0
ARC
  8
Layer1
  6
CONTINUOUS
 62
7
 10
526.752
 20
368.13
 40
2
 50
90
 51
180
  0
ARC
  8
Layer1
  6
CONTINUOUS
 62
7
 10
642.752
 20
368.13
 40
2
 50
0
 51
90
  0
LINE
  8
Layer1
  6
CONTINUOUS
 62
7
 10
634.752
 20
374.844
 11
634.752
 21
366.838
  0
LINE
  8
Layer1
  6
CONTINUOUS
 62
7
 10
534.752
 20
371.739
 11
534.752
 21
364.815
  0
LINE
  8
Layer1
  6
DASHED1
 62
7
 10
594.752
 20
352.93
 11
594.752
 21
370.93
  0
LINE
  8
Layer1
  6
DASHED1
 62
7
 10
574.752
 20
352.93
 11
574.752
 21
370.93
  0
LINE
  8
Layer1
  6
CONTINUOUS
 62
7
 10
534.752
 20
362.868
 11
534.752
 21
359.478
  0
LINE
  8
Layer1
  6
CONTINUOUS
 62
7
 10
534.752
 20
354.314
 11
534.752
 21
347.173
  0
LINE
  8
Layer1
  6
CONTINUOUS
 62
7
 10
634.752
 20
362.002
 11
634.752
 21
358.973
  0
LINE
  8
Layer1
  6
CONTINUOUS
 62
7
 10
634.752
 20
353.809
 11
634.752
 21
346.38
  0
LINE
  8
Layer1
  6
CONTINUOUS
 62
7
 10
578.352
 20
362.63
 11
582.159
 21
362.63
  0
CIRCLE
  8
Layer1
  6
CONTINUOUS
 62
7
 10
584.752
 20
362.63
 40
4
  0
LINE
  8
Layer1
  6
CONTINUOUS
 62
7
 10
587.167
 20
362.63
 11
590.972
 21
362.63
  0
LINE
  8
Layer1
  6
CONTINUOUS
 62
7
 10
583.461
 20
362.63
 11
585.865
 21
362.63
  0
LINE
  8
Layer1
  6
CONTINUOUS
 62
7
 10
595.752
 20
352.13
 11
604.12
 21
352.13
  0
LINE
  8
Layer1
  6
CONTINUOUS
 62
7
 10
573.752
 20
352.13
 11
565.896
 21
352.13
  0
LINE
  8
Layer1
  6
CONTINUOUS
 62
7
 10
594.752
 20
353.13
 11
595.752
 21
352.13
  0
LINE
  8
Layer1
  6
CONTINUOUS
 62
7
 10
574.752
 20
353.13
 11
573.752
 21
352.13
  0
LINE
  8
Layer1
  6
CONTINUOUS
 62
7
 10
524.752
 20
353.13
 11
525.752
 21
352.13
  0
LINE
  8
Layer1
  6
CONTINUOUS
 62
7
 10
643.752
 20
352.13
 11
644.752
 21
353.13
  0
CIRCLE
  8
Layer1
  6
CONTINUOUS
 62
7
 10
584.752
 20
362.63
 40
5
  0
LINE
  8
Layer1
  6
CONTINUOUS
 62
7
 10
543.752
 20
421.13
 11
543.752
 21
375.13
  0
LINE
  8
Layer1
  6
CONTINUOUS
 62
7
 10
593.626
 20
352.13
 11
611.23
 21
352.13
  0
LINE
  8
Layer1
  6
CONTINUOUS
 62
7
 10
560.752
 20
372.13
 11
608.752
 21
372.13
  0
LINE
  8
Layer1
  6
CONTINUOUS
 62
7
 10
624.252
 20
434.13
 11
624.252
 21
422.43
  0
LINE
  8
Layer1
  6
CONTINUOUS
 62
7
 10
545.252
 20
434.13
 11
545.252
 21
422.43
  0
LINE
  8
Layer1
  6
CONTINUOUS
 62
7
 10
624.252
 20
422.63
 11
623.752
 21
422.13
  0
LINE
  8
Layer1
  6
CONTINUOUS
 62
7
 10
545.752
 20
422.13
 11
545.252
 21
422.63
  0
LINE
  8
Layer1
  6
CONTINUOUS
 62
7
 10
546.252
 20
435.13
 11
545.252
 21
434.13
  0
LINE
  8
Layer1
  6
CONTINUOUS
 62
7
 10
623.252
 20
435.13
 11
624.252
 21
434.13
  0
LINE
  8
Layer1
  6
DASHED1
 62
7
 10
620.269
 20
435.13
 11
620.252
 21
435.114
  0
LINE
  8
Layer1
  6
CONTINUOUS
 62
7
 10
544.752
 20
422.13
 11
623.752
 21
422.13
  0
LINE
  8
Layer1
  6
CONTINUOUS
 62
7
 10
623.252
 20
435.13
 11
546.252
 21
435.13
  0
CIRCLE
  8
Layer1
  6
CONTINUOUS
 62
7
 10
567.252
 20
414.63
 40
4
  0
CIRCLE
  8
Layer1
  6
CONTINUOUS
 62
7
 10
602.252
 20
414.63
 40
4
  0
POLYLINE
  8
Layer1
  6
CONTINUOUS
 62
7
 66
1
 10
0
 20
0
 30
0
 70
1
  0
VERTEX
  8
Layer1
 10
602.252
 20
417.49
  0
VERTEX
  8
Layer1
 10
599.775
 20
416.06
  0
VERTEX
  8
Layer1
 10
599.775
 20
413.2
  0
VERTEX
  8
Layer1
 10
602.252
 20
411.77
  0
VERTEX
  8
Layer1
 10
604.73
 20
413.2
  0
VERTEX
  8
Layer1
 10
604.73
 20
416.06
  0
SEQEND
  0
CIRCLE
  8
Layer1
  6
CONTINUOUS
 62
7
 10
602.252
 20
414.63
 40
2.86
  0
POLYLINE
  8
Layer1
  6
CONTINUOUS
 62
7
 66
1
 10
0
 20
0
 30
0
 70
1
  0
VERTEX
  8
Layer1
 10
607.053
 20
379.63
  0
VERTEX
  8
Layer1
 10
607.011
 20
380.257
  0
VERTEX
  8
Layer1
 10
606.889
 20
380.872
  0
VERTEX
  8
Layer1
 10
606.688
 20
381.467
  0
VERTEX
  8
Layer1
 10
606.409
 20
382.03
  0
VERTEX
  8
Layer1
 10
606.06
 20
382.552
  0
VERTEX
  8
Layer1
 10
605.646
 20
383.024
  0
VERTEX
  8
Layer1
 10
605.174
 20
383.438
  0
VERTEX
  8
Layer1
 10
604.653
 20
383.787
  0
VERTEX
  8
Layer1
 10
604.09
 20
384.065
  0
VERTEX
  8
Layer1
 10
603.495
 20
384.267
  0
VERTEX
  8
Layer1
 10
602.88
 20
384.389
  0
VERTEX
  8
Layer1
 10
602.252
 20
384.43
  0
VERTEX
  8
Layer1
 10
601.626
 20
384.389
  0
VERTEX
  8
Layer1
 10
601.01
 20
384.267
  0
VERTEX
  8
Layer1
 10
600.415
 20
384.065
  0
VERTEX
  8
Layer1
 10
599.852
 20
383.787
  0
VERTEX
  8
Layer1
 10
599.331
 20
383.438
  0
VERTEX
  8
Layer1
 10
598.858
 20
383.024
  0
VERTEX
  8
Layer1
 10
598.444
 20
382.552
  0
VERTEX
  8
Layer1
 10
598.096
 20
382.03
  0
VERTEX
  8
Layer1
 10
597.818
 20
381.467
  0
VERTEX
  8
Layer1
 10
597.616
 20
380.872
  0
VERTEX
  8
Layer1
 10
597.494
 20
380.257
  0
VERTEX
  8
Layer1
 10
597.452
 20
379.63
  0
VERTEX
  8
Layer1
 10
597.494
 20
379.004
  0
VERTEX
  8
Layer1
 10
597.616
 20
378.388
  0
VERTEX
  8
Layer1
 10
597.818
 20
377.793
  0
VERTEX
  8
Layer1
 10
598.096
 20
377.23
  0
VERTEX
  8
Layer1
 10
598.444
 20
376.708
  0
VERTEX
  8
Layer1
 10
598.858
 20
376.236
  0
VERTEX
  8
Layer1
 10
599.331
 20
375.822
  0
VERTEX
  8
Layer1
 10
599.852
 20
375.473
  0
VERTEX
  8
Layer1
 10
600.415
 20
375.196
  0
VERTEX
  8
Layer1
 10
601.01
 20
374.994
  0
VERTEX
  8
Layer1
 10
601.626
 20
374.871
  0
VERTEX
  8
Layer1
 10
602.252
 20
374.83
  0
VERTEX
  8
Layer1
 10
602.88
 20
374.871
  0
VERTEX
  8
Layer1
 10
603.495
 20
374.994
  0
VERTEX
  8
Layer1
 10
604.09
 20
375.196
  0
VERTEX
  8
Layer1
 10
604.653
 20
375.473
  0
VERTEX
  8
Layer1
 10
605.174
 20
375.822
  0
VERTEX
  8
Layer1
 10
605.646
 20
376.236
  0
VERTEX
  8
Layer1
 10
606.06
 20
376.708
  0
VERTEX
  8
Layer1
 10
606.409
 20
377.23
  0
VERTEX
  8
Layer1
 10
606.688
 20
377.793
  0
VERTEX
  8
Layer1
 10
606.889
 20
378.388
  0
VERTEX
  8
Layer1
 10
607.011
 20
379.004
  0
SEQEND
  0
LINE
  8
Layer1
  6
CENTER1
 62
7
 10
538.293
 20
397.13
 11
634.283
 21
397.13
  0
LINE
  8
Layer1
  6
CONTINUOUS
 62
7
 10
543.752
 20
496.13
 11
543.752
 21
483.13
  0
LINE
  8
Layer1
  6
CONTINUOUS
 62
7
 10
625.752
 20
496.13
 11
625.752
 21
483.13
  0
LINE
  8
Layer1
  6
CONTINUOUS
 62
7
 10
545.752
 20
481.13
 11
558.252
 21
481.13
  0
LINE
  8
Layer1
  6
CONTINUOUS
 62
7
 10
624.752
 20
497.13
 11
544.752
 21
497.13
  0
LINE
  8
Layer1
  6
CENTER2
 62
7
 10
584.752
 20
504.997
 11
584.752
 21
432.388
  0
LINE
  8
Layer1
  6
DASHED1
 62
7
 10
609.252
 20
408.53
 11
609.252
 21
435.13
  0
LINE
  8
Layer1
  6
CONTINUOUS
 62
7
 10
611.252
 20
481.13
 11
623.752
 21
481.13
  0
ARC
  8
Layer1
  6
CONTINUOUS
 62
7
 10
545.752
 20
483.13
 40
2
 50
180
 51
270
  0
ARC
  8
Layer1
  6
CONTINUOUS
 62
7
 10
623.752
 20
483.13
 40
2
 50
270
 51
0
  0
LINE
  8
Layer1
  6
CONTINUOUS
 62
7
 10
543.752
 20
496.13
 11
544.752
 21
497.13
  0
LINE
  8
Layer1
  6
CONTINUOUS
 62
7
 10
624.752
 20
497.13
 11
625.752
 21
496.13
  0
LINE
  8
Layer1
  6
DASHED1
 62
7
 10
560.252
 20
408.53
 11
561.653
 21
407.13
  0
LINE
  8
Layer1
  6
DASHED1
 62
7
 10
607.852
 20
407.13
 11
609.252
 21
408.53
  0
ARC
  8
Layer1
  6
CONTINUOUS
 62
7
 10
558.252
 20
479.13
 40
2
 50
0
 51
90
  0
ARC
  8
Layer1
  6
CONTINUOUS
 62
7
 10
611.252
 20
479.13
 40
2
 50
90
 51
180
  0
LINE
  8
Layer1
  6
CONTINUOUS
 62
7
 10
609.252
 20
435.13
 11
609.252
 21
479.13
  0
LINE
  8
Layer1
  6
DASHED1
 62
7
 10
560.252
 20
408.53
 11
560.252
 21
435.13
  0
LINE
  8
Layer1
  6
CONTINUOUS
 62
7
 10
560.252
 20
435.13
 11
560.252
 21
479.13
  0
LINE
  8
Layer1
  6
CONTINUOUS
 62
7
 10
580.887
 20
441.881
 11
588.732
 21
441.881
  0
LINE
  8
Layer1
  6
CONTINUOUS
 62
7
 10
580.559
 20
441.277
 11
589.034
 21
441.277
  0
LINE
  8
Layer1
  6
CONTINUOUS
 62
7
 10
580.465
 20
437.898
 11
588.914
 21
437.898
  0
LINE
  8
Layer1
  6
CONTINUOUS
 62
7
 10
589.637
 20
437.174
 11
579.741
 21
437.174
  0
LINE
  8
Layer1
  6
CONTINUOUS
 62
7
 10
589.637
 20
437.174
 11
589.637
 21
435.303
  0
LINE
  8
Layer1
  6
CONTINUOUS
 62
7
 10
579.741
 20
437.174
 11
579.741
 21
435.303
  0
POLYLINE
  8
Layer1
  6
CONTINUOUS
 62
7
 66
1
 10
0
 20
0
 30
0
  0
VERTEX
  8
Layer1
 10
584.683
 20
439.094
  0
VERTEX
  8
Layer1
 10
584.616
 20
439.151
  0
VERTEX
  8
Layer1
 10
584.55
 20
439.206
  0
VERTEX
  8
Layer1
 10
584.481
 20
439.26
  0
VERTEX
  8
Layer1
 10
584.413
 20
439.312
  0
VERTEX
  8
Layer1
 10
584.342
 20
439.362
  0
VERTEX
  8
Layer1
 10
584.269
 20
439.41
  0
VERTEX
  8
Layer1
 10
584.197
 20
439.456
  0
VERTEX
  8
Layer1
 10
584.121
 20
439.501
  0
VERTEX
  8
Layer1
 10
584.045
 20
439.543
  0
VERTEX
  8
Layer1
 10
583.97
 20
439.583
  0
VERTEX
  8
Layer1
 10
583.891
 20
439.622
  0
VERTEX
  8
Layer1
 10
583.813
 20
439.658
  0
VERTEX
  8
Layer1
 10
583.733
 20
439.693
  0
VERTEX
  8
Layer1
 10
583.653
 20
439.725
  0
VERTEX
  8
Layer1
 10
583.572
 20
439.755
  0
VERTEX
  8
Layer1
 10
583.49
 20
439.783
  0
VERTEX
  8
Layer1
 10
583.406
 20
439.809
  0
VERTEX
  8
Layer1
 10
583.323
 20
439.833
  0
VERTEX
  8
Layer1
 10
583.24
 20
439.854
  0
VERTEX
  8
Layer1
 10
583.154
 20
439.874
  0
VERTEX
  8
Layer1
 10
583.069
 20
439.891
  0
VERTEX
  8
Layer1
 10
582.985
 20
439.906
  0
VERTEX
  8
Layer1
 10
582.899
 20
439.919
  0
VERTEX
  8
Layer1
 10
582.813
 20
439.93
  0
VERTEX
  8
Layer1
 10
582.726
 20
439.938
  0
VERTEX
  8
Layer1
 10
582.64
 20
439.944
  0
VERTEX
  8
Layer1
 10
582.553
 20
439.948
  0
VERTEX
  8
Layer1
 10
582.467
 20
439.95
  0
VERTEX
  8
Layer1
 10
582.38
 20
439.949
  0
VERTEX
  8
Layer1
 10
582.293
 20
439.946
  0
VERTEX
  8
Layer1
 10
582.207
 20
439.941
  0
VERTEX
  8
Layer1
 10
582.12
 20
439.934
  0
VERTEX
  8
Layer1
 10
582.034
 20
439.924
  0
VERTEX
  8
Layer1
 10
581.947
 20
439.913
  0
VERTEX
  8
Layer1
 10
581.862
 20
439.899
  0
VERTEX
  8
Layer1
 10
581.778
 20
439.883
  0
VERTEX
  8
Layer1
 10
581.693
 20
439.864
  0
VERTEX
  8
Layer1
 10
581.608
 20
439.844
  0
VERTEX
  8
Layer1
 10
581.524
 20
439.821
  0
VERTEX
  8
Layer1
 10
581.442
 20
439.796
  0
VERTEX
  8
Layer1
 10
581.36
 20
439.769
  0
VERTEX
  8
Layer1
 10
581.278
 20
439.74
  0
VERTEX
  8
Layer1
 10
581.197
 20
439.708
  0
VERTEX
  8
Layer1
 10
581.116
 20
439.675
  0
VERTEX
  8
Layer1
 10
581.038
 20
439.64
  0
VERTEX
  8
Layer1
 10
580.959
 20
439.602
  0
VERTEX
  8
Layer1
 10
580.881
 20
439.563
  0
VERTEX
  8
Layer1
 10
580.805
 20
439.521
  0
SEQEND
  0
POLYLINE
  8
Layer1
  6
CONTINUOUS
 62
7
 66
1
 10
0
 20
0
 30
0
  0
VERTEX
  8
Layer1
 10
589.034
 20
439.467
  0
VERTEX
  8
Layer1
 10
588.947
 20
439.502
  0
VERTEX
  8
Layer1
 10
588.858
 20
439.536
  0
VERTEX
  8
Layer1
 10
588.77
 20
439.568
  0
VERTEX
  8
Layer1
 10
588.68
 20
439.598
  0
VERTEX
  8
Layer1
 10
588.591
 20
439.627
  0
VERTEX
  8
Layer1
 10
588.5
 20
439.653
  0
VERTEX
  8
Layer1
 10
588.409
 20
439.678
  0
VERTEX
  8
Layer1
 10
588.318
 20
439.701
  0
VERTEX
  8
Layer1
 10
588.226
 20
439.723
  0
VERTEX
  8
Layer1
 10
588.132
 20
439.742
  0
VERTEX
  8
Layer1
 10
588.04
 20
439.759
  0
VERTEX
  8
Layer1
 10
587.947
 20
439.775
  0
VERTEX
  8
Layer1
 10
587.853
 20
439.789
  0
VERTEX
  8
Layer1
 10
587.76
 20
439.801
  0
VERTEX
  8
Layer1
 10
587.665
 20
439.811
  0
VERTEX
  8
Layer1
 10
587.572
 20
439.819
  0
VERTEX
  8
Layer1
 10
587.477
 20
439.825
  0
VERTEX
  8
Layer1
 10
587.384
 20
439.829
  0
VERTEX
  8
Layer1
 10
587.289
 20
439.832
  0
VERTEX
  8
Layer1
 10
587.194
 20
439.832
  0
VERTEX
  8
Layer1
 10
587.101
 20
439.831
  0
VERTEX
  8
Layer1
 10
587.005
 20
439.828
  0
VERTEX
  8
Layer1
 10
586.911
 20
439.823
  0
VERTEX
  8
Layer1
 10
586.818
 20
439.816
  0
VERTEX
  8
Layer1
 10
586.723
 20
439.807
  0
VERTEX
  8
Layer1
 10
586.63
 20
439.796
  0
VERTEX
  8
Layer1
 10
586.535
 20
439.784
  0
VERTEX
  8
Layer1
 10
586.443
 20
439.769
  0
VERTEX
  8
Layer1
 10
586.35
 20
439.753
  0
VERTEX
  8
Layer1
 10
586.256
 20
439.735
  0
VERTEX
  8
Layer1
 10
586.164
 20
439.715
  0
VERTEX
  8
Layer1
 10
586.072
 20
439.693
  0
VERTEX
  8
Layer1
 10
585.981
 20
439.669
  0
VERTEX
  8
Layer1
 10
585.89
 20
439.644
  0
VERTEX
  8
Layer1
 10
585.799
 20
439.616
  0
VERTEX
  8
Layer1
 10
585.711
 20
439.587
  0
VERTEX
  8
Layer1
 10
585.62
 20
439.556
  0
VERTEX
  8
Layer1
 10
585.533
 20
439.523
  0
VERTEX
  8
Layer1
 10
585.444
 20
439.489
  0
VERTEX
  8
Layer1
 10
585.357
 20
439.453
  0
VERTEX
  8
Layer1
 10
585.27
 20
439.415
  0
VERTEX
  8
Layer1
 10
585.185
 20
439.375
  0
VERTEX
  8
Layer1
 10
585.101
 20
439.334
  0
VERTEX
  8
Layer1
 10
585.016
 20
439.291
  0
VERTEX
  8
Layer1
 10
584.933
 20
439.246
  0
VERTEX
  8
Layer1
 10
584.851
 20
439.199
  0
VERTEX
  8
Layer1
 10
584.769
 20
439.151
  0
VERTEX
  8
Layer1
 10
584.689
 20
439.102
  0
SEQEND
  0
LINE
  8
Layer1
  6
CONTINUOUS
 62
7
 10
581.151
 20
439.69
 11
580.818
 21
439.5
  0
LINE
  8
Layer1
  6
CONTINUOUS
 62
7
 10
580.887
 20
441.881
 11
580.028
 21
440.297
  0
LINE
  8
Layer1
  6
CONTINUOUS
 62
7
 10
588.732
 20
441.881
 11
589.62
 21
440.065
  0
LINE
  8
Layer1
  6
CONTINUOUS
 62
7
 10
588.55
 20
439.611
 11
589.034
 21
439.467
  0
POLYLINE
  8
Layer1
  6
CONTINUOUS
 62
7
 66
1
 10
0
 20
0
 30
0
  0
VERTEX
  8
Layer1
 10
580.028
 20
440.297
  0
VERTEX
  8
Layer1
 10
580.012
 20
440.269
  0
VERTEX
  8
Layer1
 10
580
 20
440.241
  0
VERTEX
  8
Layer1
 10
579.987
 20
440.212
  0
VERTEX
  8
Layer1
 10
579.976
 20
440.182
  0
VERTEX
  8
Layer1
 10
579.968
 20
440.151
  0
VERTEX
  8
Layer1
 10
579.961
 20
440.121
  0
VERTEX
  8
Layer1
 10
579.956
 20
440.089
  0
VERTEX
  8
Layer1
 10
579.952
 20
440.058
  0
VERTEX
  8
Layer1
 10
579.949
 20
440.026
  0
VERTEX
  8
Layer1
 10
579.949
 20
439.995
  0
VERTEX
  8
Layer1
 10
579.951
 20
439.963
  0
VERTEX
  8
Layer1
 10
579.954
 20
439.932
  0
VERTEX
  8
Layer1
 10
579.959
 20
439.9
  0
VERTEX
  8
Layer1
 10
579.966
 20
439.869
  0
VERTEX
  8
Layer1
 10
579.973
 20
439.839
  0
VERTEX
  8
Layer1
 10
579.983
 20
439.809
  0
VERTEX
  8
Layer1
 10
579.995
 20
439.779
  0
VERTEX
  8
Layer1
 10
580.009
 20
439.751
  0
VERTEX
  8
Layer1
 10
580.023
 20
439.723
  0
VERTEX
  8
Layer1
 10
580.039
 20
439.695
  0
VERTEX
  8
Layer1
 10
580.057
 20
439.669
  0
VERTEX
  8
Layer1
 10
580.076
 20
439.644
  0
VERTEX
  8
Layer1
 10
580.096
 20
439.62
  0
VERTEX
  8
Layer1
 10
580.117
 20
439.596
  0
VERTEX
  8
Layer1
 10
580.14
 20
439.575
  0
VERTEX
  8
Layer1
 10
580.164
 20
439.554
  0
VERTEX
  8
Layer1
 10
580.189
 20
439.535
  0
VERTEX
  8
Layer1
 10
580.216
 20
439.517
  0
VERTEX
  8
Layer1
 10
580.242
 20
439.501
  0
VERTEX
  8
Layer1
 10
580.27
 20
439.486
  0
VERTEX
  8
Layer1
 10
580.299
 20
439.472
  0
VERTEX
  8
Layer1
 10
580.328
 20
439.461
  0
VERTEX
  8
Layer1
 10
580.358
 20
439.45
  0
VERTEX
  8
Layer1
 10
580.39
 20
439.442
  0
VERTEX
  8
Layer1
 10
580.42
 20
439.435
  0
VERTEX
  8
Layer1
 10
580.452
 20
439.43
  0
VERTEX
  8
Layer1
 10
580.482
 20
439.426
  0
VERTEX
  8
Layer1
 10
580.515
 20
439.425
  0
VERTEX
  8
Layer1
 10
580.545
 20
439.425
  0
VERTEX
  8
Layer1
 10
580.577
 20
439.426
  0
VERTEX
  8
Layer1
 10
580.61
 20
439.43
  0
VERTEX
  8
Layer1
 10
580.64
 20
439.435
  0
VERTEX
  8
Layer1
 10
580.672
 20
439.442
  0
VERTEX
  8
Layer1
 10
580.702
 20
439.45
  0
VERTEX
  8
Layer1
 10
580.731
 20
439.46
  0
VERTEX
  8
Layer1
 10
580.76
 20
439.472
  0
VERTEX
  8
Layer1
 10
580.789
 20
439.485
  0
VERTEX
  8
Layer1
 10
580.818
 20
439.5
  0
SEQEND
  0
POLYLINE
  8
Layer1
  6
CONTINUOUS
 62
7
 66
1
 10
0
 20
0
 30
0
  0
VERTEX
  8
Layer1
 10
589.034
 20
439.467
  0
VERTEX
  8
Layer1
 10
589.055
 20
439.461
  0
VERTEX
  8
Layer1
 10
589.077
 20
439.456
  0
VERTEX
  8
Layer1
 10
589.097
 20
439.453
  0
VERTEX
  8
Layer1
 10
589.119
 20
439.45
  0
VERTEX
  8
Layer1
 10
589.14
 20
439.448
  0
VERTEX
  8
Layer1
 10
589.161
 20
439.447
  0
VERTEX
  8
Layer1
 10
589.183
 20
439.447
  0
VERTEX
  8
Layer1
 10
589.203
 20
439.448
  0
VERTEX
  8
Layer1
 10
589.226
 20
439.45
  0
VERTEX
  8
Layer1
 10
589.246
 20
439.453
  0
VERTEX
  8
Layer1
 10
589.268
 20
439.457
  0
VERTEX
  8
Layer1
 10
589.289
 20
439.462
  0
VERTEX
  8
Layer1
 10
589.308
 20
439.468
  0
VERTEX
  8
Layer1
 10
589.329
 20
439.475
  0
VERTEX
  8
Layer1
 10
589.35
 20
439.483
  0
VERTEX
  8
Layer1
 10
589.369
 20
439.491
  0
VERTEX
  8
Layer1
 10
589.387
 20
439.501
  0
VERTEX
  8
Layer1
 10
589.406
 20
439.511
  0
VERTEX
  8
Layer1
 10
589.425
 20
439.522
  0
VERTEX
  8
Layer1
 10
589.443
 20
439.534
  0
VERTEX
  8
Layer1
 10
589.459
 20
439.547
  0
VERTEX
  8
Layer1
 10
589.476
 20
439.56
  0
VERTEX
  8
Layer1
 10
589.492
 20
439.575
  0
VERTEX
  8
Layer1
 10
589.507
 20
439.59
  0
VERTEX
  8
Layer1
 10
589.523
 20
439.605
  0
VERTEX
  8
Layer1
 10
589.536
 20
439.622
  0
VERTEX
  8
Layer1
 10
589.549
 20
439.638
  0
VERTEX
  8
Layer1
 10
589.562
 20
439.656
  0
VERTEX
  8
Layer1
 10
589.573
 20
439.674
  0
VERTEX
  8
Layer1
 10
589.584
 20
439.692
  0
VERTEX
  8
Layer1
 10
589.593
 20
439.711
  0
VERTEX
  8
Layer1
 10
589.602
 20
439.731
  0
VERTEX
  8
Layer1
 10
589.611
 20
439.751
  0
VERTEX
  8
Layer1
 10
589.619
 20
439.771
  0
VERTEX
  8
Layer1
 10
589.625
 20
439.791
  0
VERTEX
  8
Layer1
 10
589.63
 20
439.812
  0
VERTEX
  8
Layer1
 10
589.635
 20
439.833
  0
VERTEX
  8
Layer1
 10
589.637
 20
439.854
  0
VERTEX
  8
Layer1
 10
589.64
 20
439.875
  0
VERTEX
  8
Layer1
 10
589.641
 20
439.897
  0
VERTEX
  8
Layer1
 10
589.643
 20
439.918
  0
VERTEX
  8
Layer1
 10
589.643
 20
439.939
  0
VERTEX
  8
Layer1
 10
589.64
 20
439.961
  0
VERTEX
  8
Layer1
 10
589.639
 20
439.982
  0
VERTEX
  8
Layer1
 10
589.635
 20
440.003
  0
VERTEX
  8
Layer1
 10
589.63
 20
440.024
  0
VERTEX
  8
Layer1
 10
589.625
 20
440.045
  0
VERTEX
  8
Layer1
 10
589.62
 20
440.065
  0
SEQEND
  0
LINE
  8
Layer1
  6
CONTINUOUS
 62
7
 10
587.756
 20
439.801
 11
587.756
 21
437.898
  0
LINE
  8
Layer1
  6
CONTINUOUS
 62
7
 10
581.611
 20
439.844
 11
581.611
 21
437.898
  0
LINE
  8
Layer1
  6
CONTINUOUS
 62
7
 10
580.465
 20
437.898
 11
579.741
 21
437.174
  0
LINE
  8
Layer1
  6
CONTINUOUS
 62
7
 10
588.914
 20
437.898
 11
589.637
 21
437.174
  0
LINE
  8
Layer1
  6
CENTER1
 62
7
 10
551.752
 20
419.836
 11
551.752
 21
443.54
  0
LINE
  8
Layer1
  6
CONTINUOUS
 62
7
 10
608.752
 20
422.13
 11
560.752
 21
422.13
  0
LINE
  8
Layer1
  6
CONTINUOUS
 62
7
 10
544.752
 20
422.13
 11
543.752
 21
421.13
  0
LINE
  8
Layer1
  6
DASHED1
 62
7
 10
624.752
 20
422.13
 11
625.754
 21
421.13
  0
LINE
  8
Layer1
  6
CENTER1
 62
7
 10
552.252
 20
502.603
 11
552.252
 21
472.143
  0
LINE
  8
Layer1
  6
CENTER1
 62
7
 10
617.252
 20
503.16
 11
617.252
 21
471.346
  0
LINE
  8
Layer1
  6
CENTER1
 62
7
 10
617.752
 20
418.728
 11
617.752
 21
440.245
  0
POLYLINE
  8
Layer1
  6
CONTINUOUS
 62
7
 66
1
 10
0
 20
0
 30
0
 70
1
  0
VERTEX
  8
Layer1
 10
567.252
 20
417.49
  0
VERTEX
  8
Layer1
 10
564.775
 20
416.06
  0
VERTEX
  8
Layer1
 10
564.775
 20
413.2
  0
VERTEX
  8
Layer1
 10
567.252
 20
411.77
  0
VERTEX
  8
Layer1
 10
569.73
 20
413.2
  0
VERTEX
  8
Layer1
 10
569.73
 20
416.06
  0
SEQEND
  0
CIRCLE
  8
Layer1
  6
CONTINUOUS
 62
7
 10
567.252
 20
414.63
 40
2.86
  0
CIRCLE
  8
Layer1
  6
CONTINUOUS
 62
7
 10
567.252
 20
379.63
 40
4
  0
POLYLINE
  8
Layer1
  6
CONTINUOUS
 62
7
 66
1
 10
0
 20
0
 30
0
 70
1
  0
VERTEX
  8
Layer1
 10
567.252
 20
382.49
  0
VERTEX
  8
Layer1
 10
564.775
 20
381.06
  0
VERTEX
  8
Layer1
 10
564.775
 20
378.2
  0
VERTEX
  8
Layer1
 10
567.252
 20
376.77
  0
VERTEX
  8
Layer1
 10
569.73
 20
378.2
  0
VERTEX
  8
Layer1
 10
569.73
 20
381.06
  0
SEQEND
  0
CIRCLE
  8
Layer1
  6
CONTINUOUS
 62
7
 10
567.252
 20
379.63
 40
2.86
  0
POLYLINE
  8
Layer1
  6
CONTINUOUS
 62
7
 66
1
 10
0
 20
0
 30
0
 70
1
  0
VERTEX
  8
Layer1
 10
602.252
 20
383.062
  0
VERTEX
  8
Layer1
 10
599.28
 20
381.346
  0
VERTEX
  8
Layer1
 10
599.28
 20
377.914
  0
VERTEX
  8
Layer1
 10
602.252
 20
376.198
  0
VERTEX
  8
Layer1
 10
605.225
 20
377.914
  0
VERTEX
  8
Layer1
 10
605.225
 20
381.346
  0
SEQEND
  0
POLYLINE
  8
Layer1
  6
CONTINUOUS
 62
7
 66
1
 10
0
 20
0
 30
0
 70
1
  0
VERTEX
  8
Layer1
 10
605.684
 20
379.63
  0
VERTEX
  8
Layer1
 10
605.655
 20
380.078
  0
VERTEX
  8
Layer1
 10
605.568
 20
380.518
  0
VERTEX
  8
Layer1
 10
605.423
 20
380.944
  0
VERTEX
  8
Layer1
 10
605.225
 20
381.346
  0
VERTEX
  8
Layer1
 10
604.976
 20
381.719
  0
VERTEX
  8
Layer1
 10
604.679
 20
382.057
  0
VERTEX
  8
Layer1
 10
604.342
 20
382.353
  0
VERTEX
  8
Layer1
 10
603.968
 20
382.602
  0
VERTEX
  8
Layer1
 10
603.566
 20
382.801
  0
VERTEX
  8
Layer1
 10
603.14
 20
382.945
  0
VERTEX
  8
Layer1
 10
602.701
 20
383.033
  0
VERTEX
  8
Layer1
 10
602.252
 20
383.062
  0
VERTEX
  8
Layer1
 10
601.804
 20
383.033
  0
VERTEX
  8
Layer1
 10
601.365
 20
382.945
  0
VERTEX
  8
Layer1
 10
600.939
 20
382.801
  0
VERTEX
  8
Layer1
 10
600.536
 20
382.602
  0
VERTEX
  8
Layer1
 10
600.164
 20
382.353
  0
VERTEX
  8
Layer1
 10
599.826
 20
382.057
  0
VERTEX
  8
Layer1
 10
599.529
 20
381.719
  0
VERTEX
  8
Layer1
 10
599.28
 20
381.346
  0
VERTEX
  8
Layer1
 10
599.082
 20
380.944
  0
VERTEX
  8
Layer1
 10
598.938
 20
380.518
  0
VERTEX
  8
Layer1
 10
598.85
 20
380.078
  0
VERTEX
  8
Layer1
 10
598.821
 20
379.63
  0
VERTEX
  8
Layer1
 10
598.85
 20
379.182
  0
VERTEX
  8
Layer1
 10
598.938
 20
378.742
  0
VERTEX
  8
Layer1
 10
599.082
 20
378.317
  0
VERTEX
  8
Layer1
 10
599.28
 20
377.914
  0
VERTEX
  8
Layer1
 10
599.529
 20
377.541
  0
VERTEX
  8
Layer1
 10
599.826
 20
377.203
  0
VERTEX
  8
Layer1
 10
600.164
 20
376.907
  0
VERTEX
  8
Layer1
 10
600.536
 20
376.658
  0
VERTEX
  8
Layer1
 10
600.939
 20
376.459
  0
VERTEX
  8
Layer1
 10
601.365
 20
376.315
  0
VERTEX
  8
Layer1
 10
601.804
 20
376.228
  0
VERTEX
  8
Layer1
 10
602.252
 20
376.198
  0
VERTEX
  8
Layer1
 10
602.701
 20
376.228
  0
VERTEX
  8
Layer1
 10
603.14
 20
376.315
  0
VERTEX
  8
Layer1
 10
603.566
 20
376.459
  0
VERTEX
  8
Layer1
 10
603.968
 20
376.658
  0
VERTEX
  8
Layer1
 10
604.342
 20
376.907
  0
VERTEX
  8
Layer1
 10
604.679
 20
377.203
  0
VERTEX
  8
Layer1
 10
604.976
 20
377.541
  0
VERTEX
  8
Layer1
 10
605.225
 20
377.914
  0
VERTEX
  8
Layer1
 10
605.423
 20
378.317
  0
VERTEX
  8
Layer1
 10
605.568
 20
378.742
  0
VERTEX
  8
Layer1
 10
605.655
 20
379.182
  0
SEQEND
  0
LINE
  8
Layer1
  6
DASHED1
 62
7
 10
561.653
 20
407.13
 11
607.852
 21
407.13
  0
LINE
  8
Layer1
  6
CENTER1
 62
7
 10
567.252
 20
420.04
 11
567.252
 21
408.421
  0
LINE
  8
Layer1
  6
CENTER1
 62
7
 10
567.252
 20
374.116
 11
567.252
 21
385.7
  0
LINE
  8
Layer1
  6
CENTER1
 62
7
 10
602.252
 20
373.482
 11
602.252
 21
385.893
  0
LINE
  8
Layer1
  6
CENTER1
 62
7
 10
602.252
 20
418.388
 11
602.252
 21
406.562
  0
LINE
  8
Layer1
  6
CENTER1
 62
7
 10
575.413
 20
414.63
 11
559.092
 21
414.63
  0
LINE
  8
Layer1
  6
CENTER1
 62
7
 10
594.449
 20
414.63
 11
610.082
 21
414.63
  0
LINE
  8
Layer1
  6
CENTER1
 62
7
 10
594.419
 20
379.63
 11
609.951
 21
379.63
  0
LINE
  8
Layer1
  6
CENTER1
 62
7
 10
573.596
 20
379.63
 11
556.861
 21
379.63
  0
LINE
  8
Layer1
  6
CONTINUOUS
 62
7
 10
609.752
 20
373.13
 11
609.752
 21
421.13
  0
LINE
  8
Layer1
  6
CONTINUOUS
 62
7
 10
559.752
 20
373.13
 11
559.752
 21
421.13
  0
LINE
  8
Layer1
  6
CONTINUOUS
 62
7
 10
560.752
 20
422.13
 11
559.752
 21
421.13
  0
LINE
  8
Layer1
  6
CONTINUOUS
 62
7
 10
608.752
 20
422.13
 11
609.752
 21
421.13
  0
LINE
  8
Layer1
  6
CONTINUOUS
 62
7
 10
609.752
 20
373.13
 11
608.752
 21
372.13
  0
LINE
  8
Layer1
  6
CONTINUOUS
 62
7
 10
560.752
 20
372.13
 11
559.752
 21
373.13
  0
LINE
  8
Layer1
  6
CONTINUOUS
 62
7
 10
609.26
 20
445.759
 11
560.252
 21
445.759
  0
LINE
  8
Layer1
  6
CENTER1
 62
7
 10
567.252
 20
400.047
 11
567.252
 21
394.295
  0
LINE
  8
Layer1
  6
CENTER1
 62
7
 10
564.981
 20
397.13
 11
570.173
 21
397.13
  0
CIRCLE
  8
Layer1
  6
CONTINUOUS
 62
7
 10
567.252
 20
397.13
 40
1.25
  0
LINE
  8
Layer1
  6
CENTER1
 62
7
 10
602.252
 20
400.047
 11
602.252
 21
394.295
  0
LINE
  8
Layer1
  6
CENTER1
 62
7
 10
599.981
 20
397.13
 11
605.173
 21
397.13
  0
CIRCLE
  8
Layer1
  6
CONTINUOUS
 62
7
 10
602.252
 20
397.13
 40
1.25
  0
TEXT
  8
Layer1
 62
7
 10
534.752
 20
489.13
 72
1
 11
534.752
 21
489.13
 40
8
 41
1
 50
90
  1
 16 
  0
LINE
  8
Layer1
  6
CONTINUOUS
 62
7
 10
544.752
 20
497.13
 11
532.752
 21
497.13
  0
LINE
  8
Layer1
  6
CONTINUOUS
 62
7
 10
545.752
 20
481.13
 11
532.752
 21
481.13
  0
POLYLINE
  8
Layer1
  6
CONTINUOUS
 62
7
 66
1
 10
0
 20
0
 30
0
  0
VERTEX
  8
Layer1
 10
534.752
 20
497.13
  0
VERTEX
  8
Layer1
 10
534.752
 20
481.13
  0
SEQEND
  0
POLYLINE
  8
Layer1
  6
CONTINUOUS
 62
7
 66
1
 10
0
 20
0
 30
0
 70
1
  0
VERTEX
  8
Layer1
 10
533.199
 20
491.335
  0
VERTEX
  8
Layer1
 10
534.752
 20
497.13
  0
VERTEX
  8
Layer1
 10
536.305
 20
491.335
  0
SEQEND
  0
POLYLINE
  8
Layer1
  6
CONTINUOUS
 62
7
 66
1
 10
0
 20
0
 30
0
 70
1
  0
VERTEX
  8
Layer1
 10
536.305
 20
486.926
  0
VERTEX
  8
Layer1
 10
534.752
 20
481.13
  0
VERTEX
  8
Layer1
 10
533.199
 20
486.926
  0
SEQEND
  0
TEXT
  8
Layer1
 62
7
 10
522.848
 20
452.13
 72
1
 11
522.848
 21
452.13
 40
8
 41
1
 50
90
  1
 90 
  0
LINE
  8
Layer1
  6
CONTINUOUS
 62
7
 10
544.752
 20
497.13
 11
520.848
 21
497.13
  0
LINE
  8
Layer1
  6
CONTINUOUS
 62
7
 10
561.653
 20
407.13
 11
520.848
 21
407.13
  0
POLYLINE
  8
Layer1
  6
CONTINUOUS
 62
7
 66
1
 10
0
 20
0
 30
0
  0
VERTEX
  8
Layer1
 10
522.848
 20
497.13
  0
VERTEX
  8
Layer1
 10
522.848
 20
407.13
  0
SEQEND
  0
POLYLINE
  8
Layer1
  6
CONTINUOUS
 62
7
 66
1
 10
0
 20
0
 30
0
 70
1
  0
VERTEX
  8
Layer1
 10
521.295
 20
491.335
  0
VERTEX
  8
Layer1
 10
522.848
 20
497.13
  0
VERTEX
  8
Layer1
 10
524.401
 20
491.335
  0
SEQEND
  0
POLYLINE
  8
Layer1
  6
CONTINUOUS
 62
7
 66
1
 10
0
 20
0
 30
0
 70
1
  0
VERTEX
  8
Layer1
 10
524.401
 20
412.926
  0
VERTEX
  8
Layer1
 10
522.848
 20
407.13
  0
VERTEX
  8
Layer1
 10
521.295
 20
412.926
  0
SEQEND
  0
LINE
  8
Layer1
  6
CONTINUOUS
 62
7
 10
625.252
 20
421.63
 11
623.752
 21
422.13
  0
TEXT
  8
Layer1
 62
7
 10
642.995
 20
397.13
 72
1
 11
642.995
 21
397.13
 40
8
 41
1
 50
90
  1
 35 
  0
LINE
  8
Layer1
  6
CONTINUOUS
 62
7
 10
606.356
 20
414.63
 11
644.995
 21
414.63
  0
LINE
  8
Layer1
  6
CONTINUOUS
 62
7
 10
609.752
 20
379.63
 11
644.995
 21
379.63
  0
POLYLINE
  8
Layer1
  6
CONTINUOUS
 62
7
 66
1
 10
0
 20
0
 30
0
  0
VERTEX
  8
Layer1
 10
642.995
 20
414.63
  0
VERTEX
  8
Layer1
 10
642.995
 20
379.63
  0
SEQEND
  0
POLYLINE
  8
Layer1
  6
CONTINUOUS
 62
7
 66
1
 10
0
 20
0
 30
0
 70
1
  0
VERTEX
  8
Layer1
 10
641.443
 20
408.835
  0
VERTEX
  8
Layer1
 10
642.995
 20
414.63
  0
VERTEX
  8
Layer1
 10
644.548
 20
408.835
  0
SEQEND
  0
POLYLINE
  8
Layer1
  6
CONTINUOUS
 62
7
 66
1
 10
0
 20
0
 30
0
 70
1
  0
VERTEX
  8
Layer1
 10
644.548
 20
385.426
  0
VERTEX
  8
Layer1
 10
642.995
 20
379.63
  0
VERTEX
  8
Layer1
 10
641.443
 20
385.426
  0
SEQEND
  0
TEXT
  8
Layer1
 62
7
 10
654.414
 20
397.13
 72
1
 11
654.414
 21
397.13
 40
8
 41
1
 50
90
  1
 50 
  0
LINE
  8
Layer1
  6
CONTINUOUS
 62
7
 10
616.752
 20
422.13
 11
656.414
 21
422.13
  0
LINE
  8
Layer1
  6
CONTINUOUS
 62
7
 10
608.752
 20
372.13
 11
656.414
 21
372.13
  0
POLYLINE
  8
Layer1
  6
CONTINUOUS
 62
7
 66
1
 10
0
 20
0
 30
0
  0
VERTEX
  8
Layer1
 10
654.414
 20
422.13
  0
VERTEX
  8
Layer1
 10
654.414
 20
372.13
  0
SEQEND
  0
POLYLINE
  8
Layer1
  6
CONTINUOUS
 62
7
 66
1
 10
0
 20
0
 30
0
 70
1
  0
VERTEX
  8
Layer1
 10
652.861
 20
416.335
  0
VERTEX
  8
Layer1
 10
654.414
 20
422.13
  0
VERTEX
  8
Layer1
 10
655.967
 20
416.335
  0
SEQEND
  0
POLYLINE
  8
Layer1
  6
CONTINUOUS
 62
7
 66
1
 10
0
 20
0
 30
0
 70
1
  0
VERTEX
  8
Layer1
 10
655.967
 20
377.926
  0
VERTEX
  8
Layer1
 10
654.414
 20
372.13
  0
VERTEX
  8
Layer1
 10
652.861
 20
377.926
  0
SEQEND
  0
TEXT
  8
Layer1
 62
7
 10
669.465
 20
374.63
 72
1
 11
669.465
 21
374.63
 40
8
 41
1
 50
90
  1
 45 
  0
LINE
  8
Layer1
  6
CONTINUOUS
 62
7
 10
634.283
 20
397.13
 11
671.465
 21
397.13
  0
LINE
  8
Layer1
  6
CONTINUOUS
 62
7
 10
643.752
 20
352.13
 11
671.465
 21
352.13
  0
POLYLINE
  8
Layer1
  6
CONTINUOUS
 62
7
 66
1
 10
0
 20
0
 30
0
  0
VERTEX
  8
Layer1
 10
669.465
 20
397.13
  0
VERTEX
  8
Layer1
 10
669.465
 20
352.13
  0
SEQEND
  0
POLYLINE
  8
Layer1
  6
CONTINUOUS
 62
7
 66
1
 10
0
 20
0
 30
0
 70
1
  0
VERTEX
  8
Layer1
 10
667.911
 20
391.335
  0
VERTEX
  8
Layer1
 10
669.465
 20
397.13
  0
VERTEX
  8
Layer1
 10
671.016
 20
391.335
  0
SEQEND
  0
POLYLINE
  8
Layer1
  6
CONTINUOUS
 62
7
 66
1
 10
0
 20
0
 30
0
 70
1
  0
VERTEX
  8
Layer1
 10
671.016
 20
357.926
  0
VERTEX
  8
Layer1
 10
669.465
 20
352.13
  0
VERTEX
  8
Layer1
 10
667.911
 20
357.926
  0
SEQEND
  0
TEXT
  8
Layer1
 62
7
 10
684.255
 20
393.63
 72
1
 11
684.255
 21
393.63
 40
8
 41
1
 50
90
  1
 83 
  0
LINE
  8
Layer1
  6
CONTINUOUS
 62
7
 10
623.252
 20
435.13
 11
686.255
 21
435.13
  0
LINE
  8
Layer1
  6
CONTINUOUS
 62
7
 10
643.752
 20
352.13
 11
686.255
 21
352.13
  0
POLYLINE
  8
Layer1
  6
CONTINUOUS
 62
7
 66
1
 10
0
 20
0
 30
0
  0
VERTEX
  8
Layer1
 10
684.255
 20
435.13
  0
VERTEX
  8
Layer1
 10
684.255
 20
352.13
  0
SEQEND
  0
POLYLINE
  8
Layer1
  6
CONTINUOUS
 62
7
 66
1
 10
0
 20
0
 30
0
 70
1
  0
VERTEX
  8
Layer1
 10
682.702
 20
429.335
  0
VERTEX
  8
Layer1
 10
684.255
 20
435.13
  0
VERTEX
  8
Layer1
 10
685.808
 20
429.335
  0
SEQEND
  0
POLYLINE
  8
Layer1
  6
CONTINUOUS
 62
7
 66
1
 10
0
 20
0
 30
0
 70
1
  0
VERTEX
  8
Layer1
 10
685.808
 20
357.926
  0
VERTEX
  8
Layer1
 10
684.255
 20
352.13
  0
VERTEX
  8
Layer1
 10
682.702
 20
357.926
  0
SEQEND
  0
TEXT
  8
Layer1
 62
7
 10
584.752
 20
340.156
 72
1
 11
584.752
 21
340.156
 40
8
 41
1
  1
 35 
  0
LINE
  8
Layer1
  6
CONTINUOUS
 62
7
 10
567.252
 20
373.716
 11
567.252
 21
338.156
  0
LINE
  8
Layer1
  6
CONTINUOUS
 62
7
 10
602.252
 20
373.482
 11
602.252
 21
338.156
  0
POLYLINE
  8
Layer1
  6
CONTINUOUS
 62
7
 66
1
 10
0
 20
0
 30
0
  0
VERTEX
  8
Layer1
 10
567.252
 20
340.156
  0
VERTEX
  8
Layer1
 10
602.252
 20
340.156
  0
SEQEND
  0
POLYLINE
  8
Layer1
  6
CONTINUOUS
 62
7
 66
1
 10
0
 20
0
 30
0
 70
1
  0
VERTEX
  8
Layer1
 10
573.048
 20
338.603
  0
VERTEX
  8
Layer1
 10
567.252
 20
340.156
  0
VERTEX
  8
Layer1
 10
573.048
 20
341.709
  0
SEQEND
  0
POLYLINE
  8
Layer1
  6
CONTINUOUS
 62
7
 66
1
 10
0
 20
0
 30
0
 70
1
  0
VERTEX
  8
Layer1
 10
596.457
 20
341.709
  0
VERTEX
  8
Layer1
 10
602.252
 20
340.156
  0
VERTEX
  8
Layer1
 10
596.457
 20
338.603
  0
SEQEND
  0
TEXT
  8
Layer1
 62
7
 10
584.752
 20
327.7
 72
1
 11
584.752
 21
327.7
 40
8
 41
1
  1
 50 
  0
LINE
  8
Layer1
  6
CONTINUOUS
 62
7
 10
609.752
 20
373.13
 11
609.752
 21
325.7
  0
LINE
  8
Layer1
  6
CONTINUOUS
 62
7
 10
559.752
 20
373.13
 11
559.752
 21
325.7
  0
POLYLINE
  8
Layer1
  6
CONTINUOUS
 62
7
 66
1
 10
0
 20
0
 30
0
  0
VERTEX
  8
Layer1
 10
609.752
 20
327.7
  0
VERTEX
  8
Layer1
 10
559.752
 20
327.7
  0
SEQEND
  0
POLYLINE
  8
Layer1
  6
CONTINUOUS
 62
7
 66
1
 10
0
 20
0
 30
0
 70
1
  0
VERTEX
  8
Layer1
 10
603.957
 20
329.253
  0
VERTEX
  8
Layer1
 10
609.752
 20
327.7
  0
VERTEX
  8
Layer1
 10
603.957
 20
326.147
  0
SEQEND
  0
POLYLINE
  8
Layer1
  6
CONTINUOUS
 62
7
 66
1
 10
0
 20
0
 30
0
 70
1
  0
VERTEX
  8
Layer1
 10
565.548
 20
326.147
  0
VERTEX
  8
Layer1
 10
559.752
 20
327.7
  0
VERTEX
  8
Layer1
 10
565.548
 20
329.253
  0
SEQEND
  0
TEXT
  8
Layer1
 62
7
 10
675.361
 20
377.978
 72
1
 11
675.361
 21
377.978
 40
3
 41
1
 50
90
  1
中心間距離
  0
TEXT
  8
Layer1
 62
7
 10
517.178
 20
383.429
 40
6
 41
1
  1
2-φ2.5
  0
LINE
  8
Layer1
  6
CONTINUOUS
 62
7
 10
538.415
 20
382.222
 11
523.415
 21
382.222
  0
POLYLINE
  8
Layer1
  6
CONTINUOUS
 62
7
 66
1
 10
0
 20
0
 30
0
  0
VERTEX
  8
Layer1
 10
566.369
 20
396.246
  0
VERTEX
  8
Layer1
 10
538.415
 20
382.222
  0
VERTEX
  8
Layer1
 10
538.415
 20
382.222
  0
SEQEND
  0
POLYLINE
  8
Layer1
  6
CONTINUOUS
 62
7
 66
1
 10
0
 20
0
 30
0
 70
1
  0
VERTEX
  8
Layer1
 10
562.451
 20
395.439
  0
VERTEX
  8
Layer1
 10
566.369
 20
396.246
  0
VERTEX
  8
Layer1
 10
563.38
 20
393.588
  0
SEQEND
  0
LINE
  8
Layer1
  6
CONTINUOUS
 62
7
 10
847.89
 20
435.13
 11
848.89
 21
434.13
  0
ARC
  8
Layer1
  6
CONTINUOUS
 62
7
 10
825.39
 20
423.13
 40
1
 50
180
 51
270
  0
LINE
  8
Layer1
  6
CONTINUOUS
 62
7
 10
847.856
 20
422.13
 11
848.899
 21
423.173
  0
TEXT
  8
Layer1
 62
7
 10
517.846
 20
361.13
 72
1
 11
517.846
 21
361.13
 40
8
 41
1
 50
90
  1
 18 
  0
LINE
  8
Layer1
  6
CONTINUOUS
 62
7
 10
534.752
 20
370.13
 11
515.846
 21
370.13
  0
LINE
  8
Layer1
  6
CONTINUOUS
 62
7
 10
534.752
 20
352.13
 11
515.846
 21
352.13
  0
POLYLINE
  8
Layer1
  6
CONTINUOUS
 62
7
 66
1
 10
0
 20
0
 30
0
  0
VERTEX
  8
Layer1
 10
517.846
 20
370.13
  0
VERTEX
  8
Layer1
 10
517.846
 20
352.13
  0
SEQEND
  0
POLYLINE
  8
Layer1
  6
CONTINUOUS
 62
7
 66
1
 10
0
 20
0
 30
0
 70
1
  0
VERTEX
  8
Layer1
 10
516.293
 20
364.335
  0
VERTEX
  8
Layer1
 10
517.846
 20
370.13
  0
VERTEX
  8
Layer1
 10
519.399
 20
364.335
  0
SEQEND
  0
POLYLINE
  8
Layer1
  6
CONTINUOUS
 62
7
 66
1
 10
0
 20
0
 30
0
 70
1
  0
VERTEX
  8
Layer1
 10
519.399
 20
357.926
  0
VERTEX
  8
Layer1
 10
517.846
 20
352.13
  0
VERTEX
  8
Layer1
 10
516.293
 20
357.926
  0
SEQEND
  0
LINE
  8
Layer1
  6
CENTER1
 62
7
 10
890.443
 20
382.13
 11
914.338
 21
382.13
  0
LINE
  8
Layer1
  6
CONTINUOUS
 62
7
 10
893.91
 20
496.13
 11
893.91
 21
352.13
  0
LINE
  8
Layer1
  6
CENTER1
 62
7
 10
858.91
 20
504.584
 11
858.91
 21
474.614
  0
LINE
  8
Layer1
  6
CENTER1
 62
7
 10
883.91
 20
504.314
 11
883.91
 21
473.804
  0
POLYLINE
  8
Layer1
  6
CONTINUOUS
 62
7
 66
1
 10
0
 20
0
 30
0
  0
VERTEX
  8
Layer1
 10
926.337
 20
674.359
  0
VERTEX
  8
Layer1
 10
926.337
 20
607.859
  0
SEQEND
  0
TEXT
  8
Layer1
 62
7
 10
926.337
 20
640.56
 72
1
 11
926.337
 21
640.56
 40
8
 41
1
 50
90
  1
66
  0
POLYLINE
  8
Layer1
  6
CONTINUOUS
 62
7
 66
1
 10
0
 20
0
 30
0
 70
1
  0
VERTEX
  8
Layer1
 10
927.89
 20
613.654
  0
VERTEX
  8
Layer1
 10
926.337
 20
607.859
  0
VERTEX
  8
Layer1
 10
924.784
 20
613.654
  0
SEQEND
  0
POLYLINE
  8
Layer1
  6
CONTINUOUS
 62
7
 66
1
 10
0
 20
0
 30
0
 70
1
  0
VERTEX
  8
Layer1
 10
924.784
 20
668.563
  0
VERTEX
  8
Layer1
 10
926.337
 20
674.359
  0
VERTEX
  8
Layer1
 10
927.89
 20
668.563
  0
SEQEND
  0
ENDSEC
  0
EOF
