  0
SECTION
  2
HEADER
  9
$EXTMIN
 10
0
 20
0
  9
$EXTMAX
 10
1189
 20
841
  9
$LTSCALE
 40
1
  9
$LIMMIN
 10
0
 20
0
  9
$LIMMAX
 10
1189
 20
841
  9
$DIMSCALE
 40
1
  0
ENDSEC
  0
SECTION
  2
TABLES
  0
TABLE
  2
LTYPE
 70
9
  0
LTYPE
  2
CONTINUOUS
 70
64
  3
----------
 72
65
 73
0
 40
0
  0
LTYPE
  2
DASHED1
 70
64
  3
--  --  --  --  --  --  --  --  
 72
65
 73
2
 40
2.5
 49
1.25
 49
-1.25
  0
LTYPE
  2
DASHED2
 70
64
  3
----    ----    ----    ----    
 72
65
 73
2
 40
5
 49
2.5
 49
-2.5
  0
LTYPE
  2
DASHED3
 70
64
  3
------  ------  ------  ------  
 72
65
 73
2
 40
5
 49
3.75
 49
-1.25
  0
LTYPE
  2
CENTER1
 70
64
  3
----- - ----- - ----- - ----- - 
 72
65
 73
4
 40
7.5
 49
3.75
 49
-1.25
 49
1.25
 49
-1.25
  0
LTYPE
  2
CENTER2
 70
64
  3
----------  --  ----------  --  
 72
65
 73
4
 40
13.75
 49
6.25
 49
-2.5
 49
2.5
 49
-2.5
  0
LTYPE
  2
PHANTOM1
 70
64
  3
--- - - --- - - --- - - --- - - 
 72
65
 73
6
 40
9.5
 49
3.25
 49
-1.25
 49
1.25
 49
-1.25
 49
1.25
 49
-1.25
  0
LTYPE
  2
PHANTOM2
 70
64
  3
--------  -  -  --------  -  -  
 72
65
 73
6
 40
18
 49
8
 49
-2.5
 49
1.25
 49
-2.5
 49
1.25
 49
-2.5
  0
LTYPE
  2
DOT
 70
64
  3
-   -   -   -   -   -   -   -   
 72
65
 73
2
 40
2.5
 49
0.625
 49
-1.875
  0
LTYPE
  2
HOJO
 70
64
  3
-   -   -   -   -   -   -   -   
 72
65
 73
2
 40
2.5
 49
0.625
 49
-1.875
  0
ENDTAB
  0
TABLE
  2
STYLE
 70
2
  0
STYLE
  2
STANDARD
 70
64
 40
0
 41
1
 42
0
 50
0
 71
0
  3
TXT
  4
BIGFONT
  0
STYLE
  2
TATEGAKI
 70
68
 40
0
 41
1
 42
0
 50
0
 71
0
  3
TXT
  4
EXTFONT
  0
ENDTAB
  0
TABLE
  2
LAYER
 70
1
  0
LAYER
  2
Layer1
 70
64
 62
7
  6
CONTINUOUS
  0
ENDTAB
  0
ENDSEC
  0
SECTION
  2
ENTITIES
  0
LINE
  8
Layer1
  6
CONTINUOUS
 62
7
 10
498.253
 20
265.274
 11
380.253
 21
265.274
  0
LINE
  8
Layer1
  6
CONTINUOUS
 62
7
 10
723.175
 20
265.274
 11
616.184
 21
265.274
  0
LINE
  8
Layer1
  6
CONTINUOUS
 62
7
 10
379.253
 20
266.274
 11
379.253
 21
278.274
  0
LINE
  8
Layer1
  6
CONTINUOUS
 62
7
 10
499.253
 20
266.274
 11
499.253
 21
278.274
  0
LINE
  8
Layer1
  6
CONTINUOUS
 62
7
 10
399.753
 20
335.274
 11
414.753
 21
335.274
  0
LINE
  8
Layer1
  6
CENTER2
 62
7
 10
439.253
 20
342.532
 11
439.253
 21
260.206
  0
LINE
  8
Layer1
  6
CONTINUOUS
 62
7
 10
480.253
 20
333.574
 11
480.264
 21
284.947
  0
LINE
  8
Layer1
  6
CONTINUOUS
 62
7
 10
381.253
 20
280.274
 11
393.253
 21
280.274
  0
LINE
  8
Layer1
  6
CONTINUOUS
 62
7
 10
485.253
 20
280.274
 11
497.253
 21
280.274
  0
LINE
  8
Layer1
  6
CONTINUOUS
 62
7
 10
616.184
 20
280.274
 11
671.698
 21
280.274
  0
LINE
  8
Layer1
  6
CONTINUOUS
 62
7
 10
615.177
 20
467.502
 11
615.177
 21
486.502
  0
LINE
  8
Layer1
  6
CONTINUOUS
 62
7
 10
724.211
 20
586.502
 11
616.177
 21
586.502
  0
LINE
  8
Layer1
  6
CONTINUOUS
 62
7
 10
616.177
 20
466.502
 11
725.211
 21
466.502
  0
POLYLINE
  8
Layer1
  6
CONTINUOUS
 62
7
 66
1
 10
0
 20
0
 30
0
  0
VERTEX
  8
Layer1
 10
393.253
 20
280.274
  0
VERTEX
  8
Layer1
 10
393.417
 20
280.277
  0
VERTEX
  8
Layer1
 10
393.58
 20
280.285
  0
VERTEX
  8
Layer1
 10
393.743
 20
280.298
  0
VERTEX
  8
Layer1
 10
393.906
 20
280.317
  0
VERTEX
  8
Layer1
 10
394.067
 20
280.341
  0
VERTEX
  8
Layer1
 10
394.228
 20
280.37
  0
VERTEX
  8
Layer1
 10
394.388
 20
280.405
  0
VERTEX
  8
Layer1
 10
394.547
 20
280.444
  0
VERTEX
  8
Layer1
 10
394.704
 20
280.489
  0
VERTEX
  8
Layer1
 10
394.86
 20
280.539
  0
VERTEX
  8
Layer1
 10
395.014
 20
280.594
  0
VERTEX
  8
Layer1
 10
395.166
 20
280.655
  0
VERTEX
  8
Layer1
 10
395.317
 20
280.72
  0
VERTEX
  8
Layer1
 10
395.464
 20
280.79
  0
VERTEX
  8
Layer1
 10
395.61
 20
280.864
  0
VERTEX
  8
Layer1
 10
395.753
 20
280.944
  0
VERTEX
  8
Layer1
 10
395.893
 20
281.028
  0
VERTEX
  8
Layer1
 10
396.031
 20
281.117
  0
VERTEX
  8
Layer1
 10
396.165
 20
281.21
  0
VERTEX
  8
Layer1
 10
396.297
 20
281.307
  0
VERTEX
  8
Layer1
 10
396.425
 20
281.409
  0
VERTEX
  8
Layer1
 10
396.55
 20
281.515
  0
VERTEX
  8
Layer1
 10
396.671
 20
281.625
  0
VERTEX
  8
Layer1
 10
396.789
 20
281.738
  0
VERTEX
  8
Layer1
 10
396.902
 20
281.856
  0
VERTEX
  8
Layer1
 10
397.012
 20
281.977
  0
VERTEX
  8
Layer1
 10
397.118
 20
282.102
  0
VERTEX
  8
Layer1
 10
397.22
 20
282.23
  0
VERTEX
  8
Layer1
 10
397.317
 20
282.362
  0
VERTEX
  8
Layer1
 10
397.41
 20
282.496
  0
VERTEX
  8
Layer1
 10
397.499
 20
282.634
  0
VERTEX
  8
Layer1
 10
397.583
 20
282.774
  0
VERTEX
  8
Layer1
 10
397.663
 20
282.917
  0
VERTEX
  8
Layer1
 10
397.737
 20
283.063
  0
VERTEX
  8
Layer1
 10
397.807
 20
283.21
  0
VERTEX
  8
Layer1
 10
397.872
 20
283.361
  0
VERTEX
  8
Layer1
 10
397.933
 20
283.513
  0
VERTEX
  8
Layer1
 10
397.988
 20
283.667
  0
VERTEX
  8
Layer1
 10
398.038
 20
283.823
  0
VERTEX
  8
Layer1
 10
398.083
 20
283.98
  0
VERTEX
  8
Layer1
 10
398.122
 20
284.139
  0
VERTEX
  8
Layer1
 10
398.157
 20
284.299
  0
VERTEX
  8
Layer1
 10
398.186
 20
284.46
  0
VERTEX
  8
Layer1
 10
398.21
 20
284.621
  0
VERTEX
  8
Layer1
 10
398.229
 20
284.784
  0
VERTEX
  8
Layer1
 10
398.242
 20
284.947
  0
VERTEX
  8
Layer1
 10
398.25
 20
285.11
  0
VERTEX
  8
Layer1
 10
398.253
 20
285.274
  0
SEQEND
  0
POLYLINE
  8
Layer1
  6
CONTINUOUS
 62
7
 66
1
 10
0
 20
0
 30
0
  0
VERTEX
  8
Layer1
 10
480.253
 20
285.274
  0
VERTEX
  8
Layer1
 10
480.256
 20
285.11
  0
VERTEX
  8
Layer1
 10
480.264
 20
284.947
  0
VERTEX
  8
Layer1
 10
480.277
 20
284.784
  0
VERTEX
  8
Layer1
 10
480.296
 20
284.621
  0
VERTEX
  8
Layer1
 10
480.32
 20
284.46
  0
VERTEX
  8
Layer1
 10
480.349
 20
284.299
  0
VERTEX
  8
Layer1
 10
480.384
 20
284.139
  0
VERTEX
  8
Layer1
 10
480.423
 20
283.98
  0
VERTEX
  8
Layer1
 10
480.468
 20
283.823
  0
VERTEX
  8
Layer1
 10
480.518
 20
283.667
  0
VERTEX
  8
Layer1
 10
480.573
 20
283.513
  0
VERTEX
  8
Layer1
 10
480.634
 20
283.361
  0
VERTEX
  8
Layer1
 10
480.699
 20
283.21
  0
VERTEX
  8
Layer1
 10
480.769
 20
283.063
  0
VERTEX
  8
Layer1
 10
480.843
 20
282.917
  0
VERTEX
  8
Layer1
 10
480.923
 20
282.774
  0
VERTEX
  8
Layer1
 10
481.007
 20
282.634
  0
VERTEX
  8
Layer1
 10
481.096
 20
282.496
  0
VERTEX
  8
Layer1
 10
481.189
 20
282.362
  0
VERTEX
  8
Layer1
 10
481.286
 20
282.23
  0
VERTEX
  8
Layer1
 10
481.388
 20
282.102
  0
VERTEX
  8
Layer1
 10
481.494
 20
281.977
  0
VERTEX
  8
Layer1
 10
481.604
 20
281.856
  0
VERTEX
  8
Layer1
 10
481.717
 20
281.738
  0
VERTEX
  8
Layer1
 10
481.835
 20
281.625
  0
VERTEX
  8
Layer1
 10
481.956
 20
281.515
  0
VERTEX
  8
Layer1
 10
482.081
 20
281.409
  0
VERTEX
  8
Layer1
 10
482.209
 20
281.307
  0
VERTEX
  8
Layer1
 10
482.341
 20
281.21
  0
VERTEX
  8
Layer1
 10
482.475
 20
281.117
  0
VERTEX
  8
Layer1
 10
482.613
 20
281.028
  0
VERTEX
  8
Layer1
 10
482.753
 20
280.944
  0
VERTEX
  8
Layer1
 10
482.896
 20
280.864
  0
VERTEX
  8
Layer1
 10
483.042
 20
280.79
  0
VERTEX
  8
Layer1
 10
483.189
 20
280.72
  0
VERTEX
  8
Layer1
 10
483.34
 20
280.655
  0
VERTEX
  8
Layer1
 10
483.492
 20
280.594
  0
VERTEX
  8
Layer1
 10
483.646
 20
280.539
  0
VERTEX
  8
Layer1
 10
483.802
 20
280.489
  0
VERTEX
  8
Layer1
 10
483.959
 20
280.444
  0
VERTEX
  8
Layer1
 10
484.118
 20
280.405
  0
VERTEX
  8
Layer1
 10
484.278
 20
280.37
  0
VERTEX
  8
Layer1
 10
484.438
 20
280.341
  0
VERTEX
  8
Layer1
 10
484.6
 20
280.317
  0
VERTEX
  8
Layer1
 10
484.763
 20
280.298
  0
VERTEX
  8
Layer1
 10
484.926
 20
280.285
  0
VERTEX
  8
Layer1
 10
485.089
 20
280.277
  0
VERTEX
  8
Layer1
 10
485.253
 20
280.274
  0
SEQEND
  0
ARC
  8
Layer1
  6
CONTINUOUS
 62
7
 10
381.253
 20
278.274
 40
2
 50
90
 51
180
  0
ARC
  8
Layer1
  6
CONTINUOUS
 62
7
 10
497.253
 20
278.274
 40
2
 50
0
 51
90
  0
LINE
  8
Layer1
  6
CENTER1
 62
7
 10
489.253
 20
284.988
 11
489.253
 21
258.212
  0
LINE
  8
Layer1
  6
DASHED1
 62
7
 10
382.253
 20
280.274
 11
382.253
 21
278.274
  0
LINE
  8
Layer1
  6
DASHED1
 62
7
 10
496.253
 20
280.274
 11
496.253
 21
278.274
  0
LINE
  8
Layer1
  6
CENTER1
 62
7
 10
389.253
 20
285.298
 11
389.253
 21
260.317
  0
LINE
  8
Layer1
  6
CONTINUOUS
 62
7
 10
432.853
 20
275.774
 11
436.659
 21
275.774
  0
CIRCLE
  8
Layer1
  6
CONTINUOUS
 62
7
 10
439.253
 20
275.774
 40
4
  0
LINE
  8
Layer1
  6
CONTINUOUS
 62
7
 10
441.667
 20
275.774
 11
445.473
 21
275.774
  0
LINE
  8
Layer1
  6
CONTINUOUS
 62
7
 10
437.961
 20
275.774
 11
440.365
 21
275.774
  0
LINE
  8
Layer1
  6
CONTINUOUS
 62
7
 10
450.253
 20
265.274
 11
458.621
 21
265.274
  0
LINE
  8
Layer1
  6
CONTINUOUS
 62
7
 10
428.253
 20
265.274
 11
420.397
 21
265.274
  0
LINE
  8
Layer1
  6
CONTINUOUS
 62
7
 10
399.753
 20
335.274
 11
398.253
 21
333.774
  0
LINE
  8
Layer1
  6
CONTINUOUS
 62
7
 10
478.753
 20
335.274
 11
480.253
 21
333.774
  0
LINE
  8
Layer1
  6
CONTINUOUS
 62
7
 10
379.253
 20
266.274
 11
380.253
 21
265.274
  0
LINE
  8
Layer1
  6
CONTINUOUS
 62
7
 10
498.253
 20
265.274
 11
499.253
 21
266.274
  0
LINE
  8
Layer1
  6
CONTINUOUS
 62
7
 10
725.177
 20
467.502
 11
725.177
 21
585.502
  0
LINE
  8
Layer1
  6
CONTINUOUS
 62
7
 10
725.177
 20
334.474
 11
725.177
 21
266.274
  0
CIRCLE
  8
Layer1
  6
CONTINUOUS
 62
7
 10
439.253
 20
275.774
 40
5
  0
LINE
  8
Layer1
  6
CONTINUOUS
 62
7
 10
398.253
 20
333.574
 11
398.253
 21
285.274
  0
LINE
  8
Layer1
  6
DASHED1
 62
7
 10
615.177
 20
551.002
 11
725.211
 21
551.002
  0
LINE
  8
Layer1
  6
DASHED1
 62
7
 10
615.177
 20
502.002
 11
725.211
 21
502.002
  0
LINE
  8
Layer1
  6
CONTINUOUS
 62
7
 10
616.177
 20
486.502
 11
683.211
 21
486.502
  0
LINE
  8
Layer1
  6
CONTINUOUS
 62
7
 10
616.177
 20
566.502
 11
683.211
 21
566.502
  0
CIRCLE
  8
Layer1
  6
CONTINUOUS
 62
7
 10
625.177
 20
576.502
 40
7
  0
CIRCLE
  8
Layer1
  6
CONTINUOUS
 62
7
 10
715.177
 20
576.48
 40
7
  0
CIRCLE
  8
Layer1
  6
CONTINUOUS
 62
7
 10
625.093
 20
476.502
 40
7
  0
CIRCLE
  8
Layer1
  6
CONTINUOUS
 62
7
 10
715.177
 20
476.502
 40
7
  0
CIRCLE
  8
Layer1
  6
CONTINUOUS
 62
7
 10
625.177
 20
576.502
 40
4.5
  0
CIRCLE
  8
Layer1
  6
CONTINUOUS
 62
7
 10
715.177
 20
576.48
 40
4.5
  0
CIRCLE
  8
Layer1
  6
CONTINUOUS
 62
7
 10
625.093
 20
476.502
 40
4.5
  0
CIRCLE
  8
Layer1
  6
CONTINUOUS
 62
7
 10
715.177
 20
476.502
 40
4.5
  0
LINE
  8
Layer1
  6
CONTINUOUS
 62
7
 10
615.177
 20
585.502
 11
616.177
 21
586.502
  0
LINE
  8
Layer1
  6
CONTINUOUS
 62
7
 10
724.177
 20
586.502
 11
725.177
 21
585.502
  0
LINE
  8
Layer1
  6
CONTINUOUS
 62
7
 10
725.177
 20
467.502
 11
724.177
 21
466.502
  0
LINE
  8
Layer1
  6
CONTINUOUS
 62
7
 10
615.177
 20
467.502
 11
616.177
 21
466.502
  0
LINE
  8
Layer1
  6
DASHED1
 62
7
 10
615.184
 20
271.974
 11
640.184
 21
271.974
  0
LINE
  8
Layer1
  6
DASHED1
 62
7
 10
616.141
 20
279.974
 11
640.184
 21
279.974
  0
LINE
  8
Layer1
  6
CONTINUOUS
 62
7
 10
616.141
 20
279.974
 11
615.141
 21
280.974
  0
LINE
  8
Layer1
  6
CONTINUOUS
 62
7
 10
725.177
 20
493.502
 11
721.351
 21
493.502
  0
LINE
  8
Layer1
  6
CONTINUOUS
 62
7
 10
725.177
 20
563.502
 11
725.177
 21
555.502
  0
LINE
  8
Layer1
  6
CONTINUOUS
 62
7
 10
448.127
 20
265.274
 11
465.729
 21
265.274
  0
LINE
  8
Layer1
  6
CONTINUOUS
 62
7
 10
462.753
 20
285.274
 11
415.753
 21
285.274
  0
LINE
  8
Layer1
  6
CONTINUOUS
 62
7
 10
615.22
 20
285.274
 11
611.677
 21
285.274
  0
LINE
  8
Layer1
  6
CONTINUOUS
 62
7
 10
724.177
 20
485.502
 11
685.177
 21
485.502
  0
LINE
  8
Layer1
  6
DASHED1
 62
7
 10
615.177
 20
531.502
 11
615.177
 21
521.502
  0
LINE
  8
Layer1
  6
CONTINUOUS
 62
7
 10
478.753
 20
347.274
 11
478.753
 21
335.574
  0
LINE
  8
Layer1
  6
CONTINUOUS
 62
7
 10
399.753
 20
347.274
 11
399.753
 21
335.574
  0
LINE
  8
Layer1
  6
CONTINUOUS
 62
7
 10
478.753
 20
335.774
 11
478.253
 21
335.274
  0
LINE
  8
Layer1
  6
CONTINUOUS
 62
7
 10
400.253
 20
335.274
 11
399.753
 21
335.774
  0
LINE
  8
Layer1
  6
CONTINUOUS
 62
7
 10
400.753
 20
348.274
 11
399.753
 21
347.274
  0
LINE
  8
Layer1
  6
CONTINUOUS
 62
7
 10
477.753
 20
348.274
 11
478.753
 21
347.274
  0
LINE
  8
Layer1
  6
DASHED1
 62
7
 10
474.769
 20
348.274
 11
474.753
 21
348.258
  0
LINE
  8
Layer1
  6
CONTINUOUS
 62
7
 10
400.253
 20
335.274
 11
478.253
 21
335.274
  0
LINE
  8
Layer1
  6
CONTINUOUS
 62
7
 10
477.753
 20
348.274
 11
400.753
 21
348.274
  0
LINE
  8
Layer1
  6
CONTINUOUS
 62
7
 10
455.253
 20
335.274
 11
460.123
 21
335.274
  0
LINE
  8
Layer1
  6
CONTINUOUS
 62
7
 10
423.253
 20
335.274
 11
421.569
 21
335.274
  0
LINE
  8
Layer1
  6
CENTER1
 62
7
 10
471.753
 20
351.243
 11
471.753
 21
328.741
  0
LINE
  8
Layer1
  6
DASHED1
 62
7
 10
463.753
 20
347.258
 11
462.737
 21
348.274
  0
LINE
  8
Layer1
  6
DASHED1
 62
7
 10
474.753
 20
347.258
 11
475.769
 21
348.274
  0
LINE
  8
Layer1
  6
DASHED1
 62
7
 10
465.753
 20
336.274
 11
464.753
 21
335.274
  0
LINE
  8
Layer1
  6
CONTINUOUS
 62
7
 10
463.753
 20
335.274
 11
414.753
 21
335.274
  0
LINE
  8
Layer1
  6
CONTINUOUS
 62
7
 10
414.253
 20
286.774
 11
414.253
 21
333.574
  0
LINE
  8
Layer1
  6
CONTINUOUS
 62
7
 10
464.253
 20
333.574
 11
464.253
 21
286.774
  0
LINE
  8
Layer1
  6
CONTINUOUS
 62
7
 10
462.953
 20
335.274
 11
415.753
 21
335.274
  0
LINE
  8
Layer1
  6
CONTINUOUS
 62
7
 10
415.753
 20
335.274
 11
414.253
 21
333.774
  0
LINE
  8
Layer1
  6
CONTINUOUS
 62
7
 10
414.253
 20
286.774
 11
415.753
 21
285.274
  0
LINE
  8
Layer1
  6
CONTINUOUS
 62
7
 10
462.753
 20
285.274
 11
464.253
 21
286.774
  0
LINE
  8
Layer1
  6
CONTINUOUS
 62
7
 10
462.753
 20
335.274
 11
464.253
 21
333.774
  0
LINE
  8
Layer1
  6
CENTER1
 62
7
 10
392.793
 20
310.274
 11
488.783
 21
310.274
  0
LINE
  8
Layer1
  6
DASHED1
 62
7
 10
461.753
 20
325.274
 11
416.753
 21
325.274
  0
LINE
  8
Layer1
  6
CONTINUOUS
 62
7
 10
398.253
 20
409.274
 11
398.253
 21
397.274
  0
LINE
  8
Layer1
  6
CONTINUOUS
 62
7
 10
480.253
 20
409.274
 11
480.253
 21
397.274
  0
LINE
  8
Layer1
  6
CONTINUOUS
 62
7
 10
400.253
 20
395.274
 11
412.753
 21
395.274
  0
LINE
  8
Layer1
  6
CONTINUOUS
 62
7
 10
479.253
 20
410.274
 11
399.253
 21
410.274
  0
LINE
  8
Layer1
  6
CENTER2
 62
7
 10
439.253
 20
421.241
 11
439.253
 21
348.632
  0
LINE
  8
Layer1
  6
DASHED1
 62
7
 10
463.753
 20
327.274
 11
463.753
 21
347.774
  0
LINE
  8
Layer1
  6
CONTINUOUS
 62
7
 10
465.753
 20
395.274
 11
478.253
 21
395.274
  0
ARC
  8
Layer1
  6
CONTINUOUS
 62
7
 10
400.253
 20
397.274
 40
2
 50
180
 51
270
  0
ARC
  8
Layer1
  6
CONTINUOUS
 62
7
 10
478.253
 20
397.274
 40
2
 50
270
 51
0
  0
LINE
  8
Layer1
  6
CONTINUOUS
 62
7
 10
398.253
 20
409.274
 11
399.253
 21
410.274
  0
LINE
  8
Layer1
  6
CONTINUOUS
 62
7
 10
479.253
 20
410.274
 11
480.253
 21
409.274
  0
LINE
  8
Layer1
  6
DASHED1
 62
7
 10
414.753
 20
327.274
 11
416.753
 21
325.274
  0
LINE
  8
Layer1
  6
DASHED1
 62
7
 10
461.753
 20
325.274
 11
463.753
 21
327.274
  0
LINE
  8
Layer1
  6
CONTINUOUS
 62
7
 10
463.753
 20
371.788
 11
414.753
 21
371.788
  0
LINE
  8
Layer1
  6
CENTER1
 62
7
 10
406.753
 20
418.751
 11
406.753
 21
391.356
  0
LINE
  8
Layer1
  6
CENTER1
 62
7
 10
471.753
 20
418.904
 11
471.753
 21
391.139
  0
ARC
  8
Layer1
  6
CONTINUOUS
 62
7
 10
412.753
 20
393.274
 40
2
 50
0
 51
90
  0
ARC
  8
Layer1
  6
CONTINUOUS
 62
7
 10
465.753
 20
393.274
 40
2
 50
90
 51
180
  0
LINE
  8
Layer1
  6
CONTINUOUS
 62
7
 10
463.753
 20
347.774
 11
463.753
 21
393.274
  0
LINE
  8
Layer1
  6
DASHED1
 62
7
 10
414.753
 20
327.274
 11
414.753
 21
347.774
  0
LINE
  8
Layer1
  6
CONTINUOUS
 62
7
 10
414.753
 20
347.774
 11
414.753
 21
393.274
  0
LINE
  8
Layer1
  6
CONTINUOUS
 62
7
 10
616.184
 20
348.474
 11
615.184
 21
347.474
  0
LINE
  8
Layer1
  6
CONTINUOUS
 62
7
 10
616.184
 20
335.274
 11
705.469
 21
335.274
  0
LINE
  8
Layer1
  6
CONTINUOUS
 62
7
 10
659.184
 20
341.274
 11
639.787
 21
341.274
  0
LINE
  8
Layer1
  6
CONTINUOUS
 62
7
 10
681.184
 20
348.474
 11
616.184
 21
348.474
  0
LINE
  8
Layer1
  6
CONTINUOUS
 62
7
 10
660.684
 20
336.274
 11
660.684
 21
339.774
  0
ARC
  8
Layer1
  6
CONTINUOUS
 62
7
 10
659.184
 20
339.774
 40
1.5
 50
2.03555e-013
 51
90
  0
ARC
  8
Layer1
  6
CONTINUOUS
 62
7
 10
661.684
 20
336.274
 40
1
 50
180
 51
270
  0
LINE
  8
Layer1
  6
DASHED1
 62
7
 10
676.2
 20
348.474
 11
676.184
 21
348.458
  0
LINE
  8
Layer1
  6
CONTINUOUS
 62
7
 10
650.684
 20
348.474
 11
650.684
 21
341.274
  0
LINE
  8
Layer1
  6
CONTINUOUS
 62
7
 10
645.684
 20
348.474
 11
645.684
 21
341.274
  0
LINE
  8
Layer1
  6
CONTINUOUS
 62
7
 10
645.142
 20
346.88
 11
645.142
 21
341.274
  0
LINE
  8
Layer1
  6
CONTINUOUS
 62
7
 10
651.184
 20
347.474
 11
651.184
 21
341.274
  0
LINE
  8
Layer1
  6
DASHED1
 62
7
 10
631.184
 20
330.774
 11
631.184
 21
324.774
  0
LINE
  8
Layer1
  6
DASHED1
 62
7
 10
627.641
 20
330.274
 11
634.741
 21
330.274
  0
LINE
  8
Layer1
  6
DASHED1
 62
7
 10
627.641
 20
325.274
 11
634.741
 21
325.274
  0
LINE
  8
Layer1
  6
DASHED1
 62
7
 10
634.741
 20
330.274
 11
634.741
 21
325.274
  0
LINE
  8
Layer1
  6
DASHED1
 62
7
 10
634.741
 20
325.274
 11
634.741
 21
325.594
  0
LINE
  8
Layer1
  6
DASHED1
 62
7
 10
631.184
 20
324.774
 11
631.184
 21
325.899
  0
LINE
  8
Layer1
  6
CONTINUOUS
 62
7
 10
725.177
 20
342.274
 11
725.177
 21
281.274
  0
LINE
  8
Layer1
  6
CONTINUOUS
 62
7
 10
682.184
 20
336.274
 11
682.184
 21
347.474
  0
LINE
  8
Layer1
  6
CENTER1
 62
7
 10
648.184
 20
367.294
 11
648.184
 21
316.03
  0
LINE
  8
Layer1
  6
CENTER1
 62
7
 10
625.684
 20
330.774
 11
625.684
 21
356.587
  0
LINE
  8
Layer1
  6
CENTER1
 62
7
 10
670.684
 20
332.415
 11
670.684
 21
355.938
  0
LINE
  8
Layer1
  6
CONTINUOUS
 62
7
 10
681.184
 20
348.474
 11
682.184
 21
347.474
  0
LINE
  8
Layer1
  6
CONTINUOUS
 62
7
 10
682.184
 20
336.274
 11
681.184
 21
335.274
  0
LINE
  8
Layer1
  6
CONTINUOUS
 62
7
 10
705.547
 20
335.274
 11
725.177
 21
301.274
  0
LINE
  8
Layer1
  6
CENTER1
 62
7
 10
704.177
 20
262.46
 11
704.177
 21
307.884
  0
LINE
  8
Layer1
  6
CONTINUOUS
 62
7
 10
724.177
 20
265.274
 11
725.177
 21
266.274
  0
LINE
  8
Layer1
  6
CONTINUOUS
 62
7
 10
725.22
 20
286.274
 11
725.22
 21
305.474
  0
LINE
  8
Layer1
  6
CONTINUOUS
 62
7
 10
710.177
 20
266.451
 11
710.177
 21
288.451
  0
LINE
  8
Layer1
  6
CONTINUOUS
 62
7
 10
698.177
 20
266.451
 11
698.177
 21
288.451
  0
LINE
  8
Layer1
  6
CONTINUOUS
 62
7
 10
698.177
 20
288.451
 11
710.177
 21
288.451
  0
LINE
  8
Layer1
  6
CONTINUOUS
 62
7
 10
724.22
 20
285.274
 11
710.177
 21
285.274
  0
LINE
  8
Layer1
  6
CONTINUOUS
 62
7
 10
725.22
 20
286.274
 11
724.22
 21
285.274
  0
LINE
  8
Layer1
  6
DASHED1
 62
7
 10
701.177
 20
279.061
 11
701.177
 21
300.451
  0
LINE
  8
Layer1
  6
DASHED1
 62
7
 10
707.177
 20
289.451
 11
707.177
 21
300.451
  0
LINE
  8
Layer1
  6
DASHED1
 62
7
 10
701.177
 20
300.451
 11
707.177
 21
300.451
  0
LINE
  8
Layer1
  6
DASHED1
 62
7
 10
701.677
 20
279.076
 11
701.677
 21
304.007
  0
LINE
  8
Layer1
  6
DASHED1
 62
7
 10
706.677
 20
279.437
 11
706.677
 21
304.007
  0
LINE
  8
Layer1
  6
CONTINUOUS
 62
7
 10
704.177
 20
305.451
 11
706.677
 21
304.007
  0
LINE
  8
Layer1
  6
CONTINUOUS
 62
7
 10
704.177
 20
305.451
 11
701.677
 21
304.007
  0
LINE
  8
Layer1
  6
DASHED1
 62
7
 10
701.677
 20
304.007
 11
706.677
 21
304.007
  0
LINE
  8
Layer1
  6
CONTINUOUS
 62
7
 10
706.677
 20
304.007
 11
706.357
 21
304.007
  0
LINE
  8
Layer1
  6
CONTINUOUS
 62
7
 10
707.177
 20
300.451
 11
706.053
 21
300.451
  0
LINE
  8
Layer1
  6
CONTINUOUS
 62
7
 10
701.177
 20
300.451
 11
701.177
 21
299.55
  0
LINE
  8
Layer1
  6
DASHED1
 62
7
 10
707.177
 20
300.451
 11
707.177
 21
279.832
  0
LINE
  8
Layer1
  6
CONTINUOUS
 62
7
 10
700.177
 20
288.451
 11
708.177
 21
288.451
  0
LINE
  8
Layer1
  6
CONTINUOUS
 62
7
 10
710.177
 20
266.451
 11
698.177
 21
266.451
  0
LINE
  8
Layer1
  6
CENTER1
 62
7
 10
625.177
 20
489.003
 11
625.177
 21
460.775
  0
LINE
  8
Layer1
  6
CENTER1
 62
7
 10
611.903
 20
476.502
 11
638.833
 21
476.502
  0
LINE
  8
Layer1
  6
CENTER1
 62
7
 10
625.177
 20
566.141
 11
625.177
 21
590.195
  0
LINE
  8
Layer1
  6
CENTER1
 62
7
 10
612.118
 20
576.502
 11
638.237
 21
576.502
  0
LINE
  8
Layer1
  6
CENTER1
 62
7
 10
715.177
 20
567.81
 11
715.177
 21
585.175
  0
LINE
  8
Layer1
  6
CENTER1
 62
7
 10
702.61
 20
576.502
 11
724.001
 21
576.464
  0
LINE
  8
Layer1
  6
CENTER1
 62
7
 10
705.622
 20
476.502
 11
723.776
 21
476.502
  0
LINE
  8
Layer1
  6
CENTER1
 62
7
 10
715.177
 20
485.155
 11
715.177
 21
463.054
  0
LINE
  8
Layer1
  6
CONTINUOUS
 62
7
 10
610.677
 20
503.002
 11
610.677
 21
550.002
  0
LINE
  8
Layer1
  6
CENTER1
 62
7
 10
626.677
 20
565.632
 11
626.677
 21
552.293
  0
LINE
  8
Layer1
  6
CENTER1
 62
7
 10
671.643
 20
566.789
 11
671.643
 21
551.002
  0
LINE
  8
Layer1
  6
CENTER1
 62
7
 10
619.286
 20
559.002
 11
635.072
 21
559.002
  0
LINE
  8
Layer1
  6
CENTER1
 62
7
 10
619.286
 20
494.002
 11
633.41
 21
494.002
  0
LINE
  8
Layer1
  6
CONTINUOUS
 62
7
 10
611.677
 20
551.002
 11
615.177
 21
551.002
  0
LINE
  8
Layer1
  6
CONTINUOUS
 62
7
 10
611.677
 20
502.002
 11
615.177
 21
502.002
  0
LINE
  8
Layer1
  6
CONTINUOUS
 62
7
 10
611.677
 20
551.002
 11
610.677
 21
550.002
  0
LINE
  8
Layer1
  6
CONTINUOUS
 62
7
 10
610.677
 20
503.002
 11
611.677
 21
502.002
  0
LINE
  8
Layer1
  6
CONTINUOUS
 62
7
 10
615.177
 20
566.502
 11
615.177
 21
585.502
  0
LINE
  8
Layer1
  6
CONTINUOUS
 62
7
 10
615.177
 20
566.502
 11
615.177
 21
486.502
  0
LINE
  8
Layer1
  6
CONTINUOUS
 62
7
 10
684.177
 20
486.502
 11
684.177
 21
566.502
  0
LINE
  8
Layer1
  6
CONTINUOUS
 62
7
 10
684.177
 20
565.502
 11
683.177
 21
566.502
  0
LINE
  8
Layer1
  6
CONTINUOUS
 62
7
 10
683.177
 20
486.502
 11
684.177
 21
487.502
  0
LINE
  8
Layer1
  6
CONTINUOUS
 62
7
 10
616.177
 20
486.502
 11
615.177
 21
487.502
  0
LINE
  8
Layer1
  6
CONTINUOUS
 62
7
 10
615.177
 20
565.502
 11
616.177
 21
566.502
  0
LINE
  8
Layer1
  6
CENTER1
 62
7
 10
666.09
 20
559.002
 11
679.107
 21
559.002
  0
LINE
  8
Layer1
  6
CENTER1
 62
7
 10
671.643
 20
504.519
 11
671.643
 21
485.41
  0
LINE
  8
Layer1
  6
CENTER1
 62
7
 10
626.677
 20
502.726
 11
626.677
 21
485.279
  0
LINE
  8
Layer1
  6
CENTER1
 62
7
 10
666.644
 20
494.002
 11
680.545
 21
494.002
  0
CIRCLE
  8
Layer1
  6
CONTINUOUS
 62
7
 10
671.643
 20
559.002
 40
5.5
  0
CIRCLE
  8
Layer1
  6
CONTINUOUS
 62
7
 10
626.643
 20
559.002
 40
5.5
  0
CIRCLE
  8
Layer1
  6
CONTINUOUS
 62
7
 10
626.677
 20
494.002
 40
5.5
  0
CIRCLE
  8
Layer1
  6
CONTINUOUS
 62
7
 10
671.643
 20
494.002
 40
5.5
  0
CIRCLE
  8
Layer1
  6
CONTINUOUS
 62
7
 10
671.643
 20
559.002
 40
5
  0
CIRCLE
  8
Layer1
  6
CONTINUOUS
 62
7
 10
626.643
 20
559.002
 40
5
  0
CIRCLE
  8
Layer1
  6
CONTINUOUS
 62
7
 10
626.677
 20
494.002
 40
5
  0
CIRCLE
  8
Layer1
  6
CONTINUOUS
 62
7
 10
671.643
 20
494.002
 40
5
  0
POLYLINE
  8
Layer1
  6
CONTINUOUS
 62
7
 66
1
 10
0
 20
0
 30
0
 70
1
  0
VERTEX
  8
Layer1
 10
671.643
 20
561.862
  0
VERTEX
  8
Layer1
 10
669.166
 20
560.432
  0
VERTEX
  8
Layer1
 10
669.166
 20
557.572
  0
VERTEX
  8
Layer1
 10
671.643
 20
556.142
  0
VERTEX
  8
Layer1
 10
674.12
 20
557.572
  0
VERTEX
  8
Layer1
 10
674.12
 20
560.432
  0
SEQEND
  0
POLYLINE
  8
Layer1
  6
CONTINUOUS
 62
7
 66
1
 10
0
 20
0
 30
0
 70
1
  0
VERTEX
  8
Layer1
 10
626.643
 20
561.862
  0
VERTEX
  8
Layer1
 10
624.166
 20
560.432
  0
VERTEX
  8
Layer1
 10
624.166
 20
557.572
  0
VERTEX
  8
Layer1
 10
626.643
 20
556.142
  0
VERTEX
  8
Layer1
 10
629.12
 20
557.572
  0
VERTEX
  8
Layer1
 10
629.12
 20
560.432
  0
SEQEND
  0
POLYLINE
  8
Layer1
  6
CONTINUOUS
 62
7
 66
1
 10
0
 20
0
 30
0
 70
1
  0
VERTEX
  8
Layer1
 10
671.643
 20
496.862
  0
VERTEX
  8
Layer1
 10
669.166
 20
495.432
  0
VERTEX
  8
Layer1
 10
669.166
 20
492.572
  0
VERTEX
  8
Layer1
 10
671.643
 20
491.142
  0
VERTEX
  8
Layer1
 10
674.12
 20
492.572
  0
VERTEX
  8
Layer1
 10
674.12
 20
495.432
  0
SEQEND
  0
POLYLINE
  8
Layer1
  6
CONTINUOUS
 62
7
 66
1
 10
0
 20
0
 30
0
 70
1
  0
VERTEX
  8
Layer1
 10
626.677
 20
496.862
  0
VERTEX
  8
Layer1
 10
624.2
 20
495.432
  0
VERTEX
  8
Layer1
 10
624.2
 20
492.572
  0
VERTEX
  8
Layer1
 10
626.677
 20
491.142
  0
VERTEX
  8
Layer1
 10
629.154
 20
492.572
  0
VERTEX
  8
Layer1
 10
629.154
 20
495.432
  0
SEQEND
  0
CIRCLE
  8
Layer1
  6
CONTINUOUS
 62
7
 10
671.643
 20
494.002
 40
2.86
  0
CIRCLE
  8
Layer1
  6
CONTINUOUS
 62
7
 10
626.677
 20
494.002
 40
2.86
  0
CIRCLE
  8
Layer1
  6
CONTINUOUS
 62
7
 10
671.643
 20
559.002
 40
2.86
  0
CIRCLE
  8
Layer1
  6
CONTINUOUS
 62
7
 10
626.643
 20
559.002
 40
2.86
  0
LINE
  8
Layer1
  6
CONTINUOUS
 62
7
 10
587.677
 20
503.002
 11
587.677
 21
550.002
  0
LINE
  8
Layer1
  6
CONTINUOUS
 62
7
 10
588.677
 20
551.002
 11
609.677
 21
551.002
  0
LINE
  8
Layer1
  6
CONTINUOUS
 62
7
 10
609.677
 20
502.002
 11
588.677
 21
502.002
  0
LINE
  8
Layer1
  6
CONTINUOUS
 62
7
 10
610.677
 20
550.002
 11
609.677
 21
551.002
  0
LINE
  8
Layer1
  6
CONTINUOUS
 62
7
 10
588.677
 20
551.002
 11
587.677
 21
550.002
  0
LINE
  8
Layer1
  6
CONTINUOUS
 62
7
 10
587.677
 20
503.002
 11
588.677
 21
502.002
  0
LINE
  8
Layer1
  6
CONTINUOUS
 62
7
 10
609.677
 20
502.002
 11
610.677
 21
503.002
  0
LINE
  8
Layer1
  6
CENTER1
 62
7
 10
585.954
 20
544.002
 11
635.191
 21
544.002
  0
LINE
  8
Layer1
  6
CENTER1
 62
7
 10
583.727
 20
509.002
 11
634.105
 21
509.002
  0
LINE
  8
Layer1
  6
DASHED1
 62
7
 10
588.677
 20
540.002
 11
588.677
 21
548.002
  0
LINE
  8
Layer1
  6
DASHED1
 62
7
 10
589.677
 20
549.002
 11
594.677
 21
549.002
  0
LINE
  8
Layer1
  6
DASHED1
 62
7
 10
589.677
 20
539.002
 11
594.677
 21
539.002
  0
LINE
  8
Layer1
  6
DASHED1
 62
7
 10
594.677
 20
549.002
 11
594.677
 21
539.002
  0
LINE
  8
Layer1
  6
DASHED1
 62
7
 10
628.677
 20
547.002
 11
594.677
 21
547.002
  0
LINE
  8
Layer1
  6
DASHED1
 62
7
 10
628.677
 20
541.002
 11
594.677
 21
541.002
  0
LINE
  8
Layer1
  6
DASHED1
 62
7
 10
629.643
 20
542.002
 11
629.643
 21
546.002
  0
LINE
  8
Layer1
  6
DASHED1
 62
7
 10
594.677
 20
546.502
 11
629.177
 21
546.502
  0
LINE
  8
Layer1
  6
DASHED1
 62
7
 10
594.677
 20
541.502
 11
629.177
 21
541.502
  0
LINE
  8
Layer1
  6
DASHED1
 62
7
 10
628.643
 20
547.002
 11
628.643
 21
541.002
  0
LINE
  8
Layer1
  6
DASHED1
 62
7
 10
628.643
 20
547.002
 11
629.643
 21
546.002
  0
LINE
  8
Layer1
  6
DASHED1
 62
7
 10
629.643
 20
542.002
 11
628.643
 21
541.002
  0
LINE
  8
Layer1
  6
DASHED1
 62
7
 10
588.677
 20
548.002
 11
589.677
 21
549.002
  0
LINE
  8
Layer1
  6
DASHED1
 62
7
 10
588.677
 20
540.002
 11
589.677
 21
539.002
  0
LINE
  8
Layer1
  6
DASHED1
 62
7
 10
589.677
 20
549.002
 11
587.677
 21
549.002
  0
LINE
  8
Layer1
  6
DASHED1
 62
7
 10
589.677
 20
539.002
 11
587.677
 21
539.002
  0
LINE
  8
Layer1
  6
DASHED1
 62
7
 10
634.741
 20
330.274
 11
636.184
 21
327.774
  0
LINE
  8
Layer1
  6
DASHED1
 62
7
 10
636.184
 20
327.774
 11
634.741
 21
325.274
  0
LINE
  8
Layer1
  6
DASHED1
 62
7
 10
627.641
 20
330.774
 11
613.391
 21
330.774
  0
LINE
  8
Layer1
  6
DASHED1
 62
7
 10
627.641
 20
324.774
 11
612.7
 21
324.774
  0
LINE
  8
Layer1
  6
DASHED1
 62
7
 10
628.641
 20
325.774
 11
628.641
 21
329.774
  0
LINE
  8
Layer1
  6
DASHED1
 62
7
 10
627.641
 20
330.774
 11
627.641
 21
324.774
  0
LINE
  8
Layer1
  6
DASHED1
 62
7
 10
627.641
 20
330.774
 11
628.641
 21
329.774
  0
LINE
  8
Layer1
  6
DASHED1
 62
7
 10
628.641
 20
325.774
 11
627.641
 21
324.774
  0
LINE
  8
Layer1
  6
DASHED1
 62
7
 10
631.184
 20
330.774
 11
627.641
 21
330.774
  0
LINE
  8
Layer1
  6
DASHED1
 62
7
 10
631.184
 20
324.774
 11
627.641
 21
324.774
  0
LINE
  8
Layer1
  6
DASHED1
 62
7
 10
631.184
 20
330.774
 11
632.05
 21
330.274
  0
LINE
  8
Layer1
  6
DASHED1
 62
7
 10
631.184
 20
324.774
 11
632.05
 21
325.274
  0
LINE
  8
Layer1
  6
DASHED1
 62
7
 10
632.05
 20
330.274
 11
632.05
 21
325.274
  0
LINE
  8
Layer1
  6
CONTINUOUS
 62
7
 10
615.184
 20
279.274
 11
615.184
 21
266.274
  0
LINE
  8
Layer1
  6
CONTINUOUS
 62
7
 10
615.184
 20
266.274
 11
616.184
 21
265.274
  0
LINE
  8
Layer1
  6
CENTER1
 62
7
 10
628.932
 20
269.233
 11
673.607
 21
269.233
  0
LINE
  8
Layer1
  6
PHANTOM1
 62
7
 10
698.177
 20
266.974
 11
698.177
 21
271.474
  0
LINE
  8
Layer1
  6
CONTINUOUS
 62
7
 10
698.177
 20
284.974
 11
698.177
 21
266.974
  0
LINE
  8
Layer1
  6
DASHED1
 62
7
 10
683.882
 20
266.974
 11
686.2
 21
266.974
  0
LINE
  8
Layer1
  6
CONTINUOUS
 62
7
 10
698.177
 20
284.974
 11
696.245
 21
284.974
  0
LINE
  8
Layer1
  6
DASHED1
 62
7
 10
682.258
 20
280.48
 11
684.576
 21
280.48
  0
LINE
  8
Layer1
  6
DASHED1
 62
7
 10
683.882
 20
271.492
 11
686.2
 21
271.492
  0
LINE
  8
Layer1
  6
DASHED1
 62
7
 10
684.654
 20
284.974
 11
684.654
 21
280.48
  0
LINE
  8
Layer1
  6
DASHED1
 62
7
 10
682.258
 20
284.974
 11
682.258
 21
280.48
  0
LINE
  8
Layer1
  6
DASHED1
 62
7
 10
683.882
 20
271.492
 11
683.882
 21
266.974
  0
LINE
  8
Layer1
  6
DASHED1
 62
7
 10
686.2
 20
271.492
 11
686.2
 21
266.974
  0
LINE
  8
Layer1
  6
DASHED1
 62
7
 10
682.258
 20
280.48
 11
683.804
 21
271.492
  0
LINE
  8
Layer1
  6
DASHED1
 62
7
 10
684.654
 20
280.48
 11
686.2
 21
271.492
  0
LINE
  8
Layer1
  6
DASHED1
 62
7
 10
683.031
 20
275.986
 11
683.804
 21
266.974
  0
LINE
  8
Layer1
  6
DASHED1
 62
7
 10
684.848
 20
284.974
 11
685.427
 21
275.986
  0
LINE
  8
Layer1
  6
CONTINUOUS
 62
7
 10
688.518
 20
266.974
 11
690.836
 21
266.974
  0
LINE
  8
Layer1
  6
CONTINUOUS
 62
7
 10
689.291
 20
284.974
 11
686.973
 21
284.974
  0
LINE
  8
Layer1
  6
CONTINUOUS
 62
7
 10
686.973
 20
280.48
 11
689.291
 21
280.48
  0
LINE
  8
Layer1
  6
CONTINUOUS
 62
7
 10
688.518
 20
271.492
 11
690.836
 21
271.492
  0
LINE
  8
Layer1
  6
CONTINUOUS
 62
7
 10
689.291
 20
284.974
 11
689.291
 21
280.48
  0
LINE
  8
Layer1
  6
CONTINUOUS
 62
7
 10
686.973
 20
284.974
 11
686.973
 21
280.48
  0
LINE
  8
Layer1
  6
CONTINUOUS
 62
7
 10
688.518
 20
271.492
 11
688.518
 21
266.974
  0
LINE
  8
Layer1
  6
CONTINUOUS
 62
7
 10
690.836
 20
271.492
 11
690.836
 21
266.974
  0
LINE
  8
Layer1
  6
CONTINUOUS
 62
7
 10
686.973
 20
280.48
 11
688.518
 21
271.492
  0
LINE
  8
Layer1
  6
CONTINUOUS
 62
7
 10
689.291
 20
280.48
 11
690.836
 21
271.492
  0
LINE
  8
Layer1
  6
CONTINUOUS
 62
7
 10
687.745
 20
275.986
 11
688.518
 21
266.974
  0
LINE
  8
Layer1
  6
CONTINUOUS
 62
7
 10
689.484
 20
284.974
 11
690.064
 21
275.986
  0
LINE
  8
Layer1
  6
CONTINUOUS
 62
7
 10
693.154
 20
266.974
 11
695.473
 21
266.974
  0
LINE
  8
Layer1
  6
CONTINUOUS
 62
7
 10
693.927
 20
284.974
 11
691.609
 21
284.974
  0
LINE
  8
Layer1
  6
CONTINUOUS
 62
7
 10
691.609
 20
280.48
 11
693.927
 21
280.48
  0
LINE
  8
Layer1
  6
CONTINUOUS
 62
7
 10
693.154
 20
271.492
 11
695.473
 21
271.492
  0
LINE
  8
Layer1
  6
CONTINUOUS
 62
7
 10
693.927
 20
284.974
 11
693.927
 21
280.48
  0
LINE
  8
Layer1
  6
CONTINUOUS
 62
7
 10
691.609
 20
284.974
 11
691.609
 21
280.48
  0
LINE
  8
Layer1
  6
CONTINUOUS
 62
7
 10
693.154
 20
271.492
 11
693.154
 21
266.974
  0
LINE
  8
Layer1
  6
CONTINUOUS
 62
7
 10
695.473
 20
271.492
 11
695.473
 21
266.974
  0
LINE
  8
Layer1
  6
CONTINUOUS
 62
7
 10
691.609
 20
280.48
 11
693.154
 21
271.492
  0
LINE
  8
Layer1
  6
CONTINUOUS
 62
7
 10
693.927
 20
280.48
 11
695.473
 21
271.492
  0
LINE
  8
Layer1
  6
CONTINUOUS
 62
7
 10
692.382
 20
275.986
 11
693.154
 21
266.974
  0
LINE
  8
Layer1
  6
CONTINUOUS
 62
7
 10
694.12
 20
284.974
 11
694.7
 21
275.986
  0
LINE
  8
Layer1
  6
CONTINUOUS
 62
7
 10
697.791
 20
266.974
 11
698.177
 21
266.974
  0
LINE
  8
Layer1
  6
CONTINUOUS
 62
7
 10
696.245
 20
280.48
 11
698.177
 21
280.474
  0
LINE
  8
Layer1
  6
CONTINUOUS
 62
7
 10
697.791
 20
271.492
 11
698.177
 21
271.474
  0
LINE
  8
Layer1
  6
CONTINUOUS
 62
7
 10
696.245
 20
284.974
 11
696.245
 21
280.48
  0
LINE
  8
Layer1
  6
CONTINUOUS
 62
7
 10
697.791
 20
271.492
 11
697.791
 21
266.974
  0
LINE
  8
Layer1
  6
CONTINUOUS
 62
7
 10
696.245
 20
280.48
 11
697.791
 21
271.492
  0
LINE
  8
Layer1
  6
CONTINUOUS
 62
7
 10
697.018
 20
275.986
 11
697.791
 21
266.974
  0
LINE
  8
Layer1
  6
DASHED1
 62
7
 10
684.576
 20
284.974
 11
682.258
 21
284.974
  0
LINE
  8
Layer1
  6
DASHED1
 62
7
 10
679.016
 20
284.974
 11
676.698
 21
284.974
  0
LINE
  8
Layer1
  6
DASHED1
 62
7
 10
674.38
 20
284.974
 11
672.062
 21
284.974
  0
LINE
  8
Layer1
  6
DASHED1
 62
7
 10
673.607
 20
266.974
 11
675.925
 21
266.974
  0
LINE
  8
Layer1
  6
CONTINUOUS
 62
7
 10
671.621
 20
285.274
 11
697.175
 21
285.274
  0
POLYLINE
  8
Layer1
  6
CONTINUOUS
 62
7
 66
1
 10
0
 20
0
 30
0
  0
VERTEX
  8
Layer1
 10
645.121
 20
335.274
  0
VERTEX
  8
Layer1
 10
645.573
 20
334.957
  0
VERTEX
  8
Layer1
 10
646.34
 20
334.388
  0
VERTEX
  8
Layer1
 10
647.063
 20
333.793
  0
VERTEX
  8
Layer1
 10
647.719
 20
333.159
  0
VERTEX
  8
Layer1
 10
648.288
 20
332.472
  0
VERTEX
  8
Layer1
 10
648.755
 20
331.722
  0
VERTEX
  8
Layer1
 10
649.126
 20
330.913
  0
VERTEX
  8
Layer1
 10
649.417
 20
330.053
  0
VERTEX
  8
Layer1
 10
649.641
 20
329.151
  0
VERTEX
  8
Layer1
 10
649.816
 20
328.216
  0
VERTEX
  8
Layer1
 10
649.954
 20
327.257
  0
VERTEX
  8
Layer1
 10
650.071
 20
326.282
  0
VERTEX
  8
Layer1
 10
650.183
 20
325.299
  0
VERTEX
  8
Layer1
 10
650.304
 20
324.319
  0
VERTEX
  8
Layer1
 10
650.448
 20
323.348
  0
VERTEX
  8
Layer1
 10
650.631
 20
322.397
  0
VERTEX
  8
Layer1
 10
650.861
 20
321.469
  0
VERTEX
  8
Layer1
 10
651.137
 20
320.564
  0
VERTEX
  8
Layer1
 10
651.456
 20
319.682
  0
VERTEX
  8
Layer1
 10
651.815
 20
318.82
  0
VERTEX
  8
Layer1
 10
652.214
 20
317.978
  0
VERTEX
  8
Layer1
 10
652.648
 20
317.154
  0
VERTEX
  8
Layer1
 10
653.116
 20
316.348
  0
VERTEX
  8
Layer1
 10
653.616
 20
315.558
  0
VERTEX
  8
Layer1
 10
654.145
 20
314.783
  0
VERTEX
  8
Layer1
 10
654.701
 20
314.021
  0
VERTEX
  8
Layer1
 10
655.282
 20
313.273
  0
VERTEX
  8
Layer1
 10
655.885
 20
312.536
  0
VERTEX
  8
Layer1
 10
656.508
 20
311.809
  0
VERTEX
  8
Layer1
 10
657.149
 20
311.091
  0
VERTEX
  8
Layer1
 10
657.804
 20
310.382
  0
VERTEX
  8
Layer1
 10
658.473
 20
309.679
  0
VERTEX
  8
Layer1
 10
659.153
 20
308.982
  0
VERTEX
  8
Layer1
 10
659.841
 20
308.29
  0
VERTEX
  8
Layer1
 10
660.535
 20
307.601
  0
VERTEX
  8
Layer1
 10
661.233
 20
306.914
  0
VERTEX
  8
Layer1
 10
661.933
 20
306.228
  0
VERTEX
  8
Layer1
 10
662.631
 20
305.542
  0
VERTEX
  8
Layer1
 10
663.326
 20
304.855
  0
VERTEX
  8
Layer1
 10
664.016
 20
304.166
  0
VERTEX
  8
Layer1
 10
664.696
 20
303.472
  0
VERTEX
  8
Layer1
 10
665.362
 20
302.771
  0
VERTEX
  8
Layer1
 10
666.009
 20
302.061
  0
VERTEX
  8
Layer1
 10
666.633
 20
301.339
  0
VERTEX
  8
Layer1
 10
667.229
 20
300.602
  0
VERTEX
  8
Layer1
 10
667.792
 20
299.849
  0
VERTEX
  8
Layer1
 10
668.319
 20
299.077
  0
VERTEX
  8
Layer1
 10
668.804
 20
298.284
  0
VERTEX
  8
Layer1
 10
669.243
 20
297.466
  0
VERTEX
  8
Layer1
 10
669.631
 20
296.622
  0
VERTEX
  8
Layer1
 10
669.964
 20
295.75
  0
VERTEX
  8
Layer1
 10
670.243
 20
294.85
  0
VERTEX
  8
Layer1
 10
670.473
 20
293.925
  0
VERTEX
  8
Layer1
 10
670.659
 20
292.978
  0
VERTEX
  8
Layer1
 10
670.806
 20
292.012
  0
VERTEX
  8
Layer1
 10
670.918
 20
291.03
  0
VERTEX
  8
Layer1
 10
671.001
 20
290.035
  0
VERTEX
  8
Layer1
 10
671.058
 20
289.029
  0
VERTEX
  8
Layer1
 10
671.096
 20
288.016
  0
VERTEX
  8
Layer1
 10
671.118
 20
286.999
  0
VERTEX
  8
Layer1
 10
671.129
 20
285.979
  0
VERTEX
  8
Layer1
 10
671.135
 20
284.961
  0
VERTEX
  8
Layer1
 10
671.14
 20
283.947
  0
VERTEX
  8
Layer1
 10
671.149
 20
282.94
  0
VERTEX
  8
Layer1
 10
671.166
 20
281.943
  0
VERTEX
  8
Layer1
 10
671.197
 20
280.958
  0
VERTEX
  8
Layer1
 10
671.247
 20
279.99
  0
VERTEX
  8
Layer1
 10
671.319
 20
279.039
  0
VERTEX
  8
Layer1
 10
671.42
 20
278.111
  0
VERTEX
  8
Layer1
 10
671.553
 20
277.206
  0
VERTEX
  8
Layer1
 10
671.724
 20
276.329
  0
VERTEX
  8
Layer1
 10
671.937
 20
275.482
  0
VERTEX
  8
Layer1
 10
672.197
 20
274.668
  0
VERTEX
  8
Layer1
 10
672.509
 20
273.89
  0
VERTEX
  8
Layer1
 10
672.878
 20
273.151
  0
VERTEX
  8
Layer1
 10
673.309
 20
272.453
  0
VERTEX
  8
Layer1
 10
673.805
 20
271.799
  0
VERTEX
  8
Layer1
 10
674.363
 20
271.187
  0
VERTEX
  8
Layer1
 10
674.981
 20
270.615
  0
VERTEX
  8
Layer1
 10
675.653
 20
270.08
  0
VERTEX
  8
Layer1
 10
676.376
 20
269.578
  0
VERTEX
  8
Layer1
 10
677.146
 20
269.109
  0
VERTEX
  8
Layer1
 10
677.959
 20
268.668
  0
VERTEX
  8
Layer1
 10
678.812
 20
268.254
  0
VERTEX
  8
Layer1
 10
679.7
 20
267.863
  0
VERTEX
  8
Layer1
 10
680.619
 20
267.493
  0
VERTEX
  8
Layer1
 10
681.565
 20
267.142
  0
VERTEX
  8
Layer1
 10
682.535
 20
266.807
  0
VERTEX
  8
Layer1
 10
683.525
 20
266.484
  0
VERTEX
  8
Layer1
 10
684.531
 20
266.172
  0
VERTEX
  8
Layer1
 10
685.548
 20
265.869
  0
VERTEX
  8
Layer1
 10
686.573
 20
265.57
  0
VERTEX
  8
Layer1
 10
687.602
 20
265.274
  0
SEQEND
  0
LINE
  8
Layer1
  6
CONTINUOUS
 62
7
 10
615.184
 20
336.274
 11
616.184
 21
335.274
  0
LINE
  8
Layer1
  6
CONTINUOUS
 62
7
 10
615.184
 20
336.274
 11
615.184
 21
347.474
  0
LINE
  8
Layer1
  6
CONTINUOUS
 62
7
 10
615.184
 20
279.274
 11
616.184
 21
280.274
  0
LINE
  8
Layer1
  6
CENTER1
 62
7
 10
672.062
 20
282.727
 11
629.281
 21
282.727
  0
LINE
  8
Layer1
  6
DASHED1
 62
7
 10
640.184
 20
271.974
 11
640.184
 21
279.974
  0
LINE
  8
Layer1
  6
CENTER1
 62
7
 10
642.602
 20
275.774
 11
613.272
 21
275.774
  0
LINE
  8
Layer1
  6
DASHED1
 62
7
 10
632.117
 20
266.974
 11
634.419
 21
266.974
  0
LINE
  8
Layer1
  6
DASHED1
 62
7
 10
632.884
 20
284.974
 11
630.582
 21
284.974
  0
LINE
  8
Layer1
  6
DASHED1
 62
7
 10
630.582
 20
280.48
 11
632.884
 21
280.48
  0
LINE
  8
Layer1
  6
DASHED1
 62
7
 10
632.117
 20
271.492
 11
634.419
 21
271.492
  0
LINE
  8
Layer1
  6
DASHED1
 62
7
 10
632.884
 20
284.974
 11
632.884
 21
280.48
  0
LINE
  8
Layer1
  6
DASHED1
 62
7
 10
630.582
 20
284.974
 11
630.582
 21
280.48
  0
LINE
  8
Layer1
  6
DASHED1
 62
7
 10
632.117
 20
271.492
 11
632.117
 21
266.974
  0
LINE
  8
Layer1
  6
DASHED1
 62
7
 10
634.419
 20
271.492
 11
634.419
 21
266.974
  0
LINE
  8
Layer1
  6
DASHED1
 62
7
 10
630.582
 20
280.48
 11
632.117
 21
271.492
  0
LINE
  8
Layer1
  6
DASHED1
 62
7
 10
632.884
 20
280.48
 11
634.419
 21
271.492
  0
LINE
  8
Layer1
  6
DASHED1
 62
7
 10
631.349
 20
275.986
 11
632.117
 21
266.974
  0
LINE
  8
Layer1
  6
DASHED1
 62
7
 10
633.076
 20
284.974
 11
633.651
 21
275.986
  0
LINE
  8
Layer1
  6
DASHED1
 62
7
 10
630.39
 20
266.974
 11
631.541
 21
266.974
  0
LINE
  8
Layer1
  6
DASHED1
 62
7
 10
631.541
 20
271.468
 11
630.39
 21
271.468
  0
LINE
  8
Layer1
  6
DASHED1
 62
7
 10
631.541
 20
266.974
 11
631.541
 21
271.468
  0
LINE
  8
Layer1
  6
DASHED1
 62
7
 10
631.541
 20
271.468
 11
630.774
 21
275.962
  0
LINE
  8
Layer1
  6
DASHED1
 62
7
 10
630.39
 20
266.974
 11
630.39
 21
275.962
  0
LINE
  8
Layer1
  6
DASHED1
 62
7
 10
630.774
 20
275.962
 11
630.39
 21
275.962
  0
LINE
  8
Layer1
  6
CONTINUOUS
 62
7
 10
674.38
 20
284.974
 11
672.062
 21
284.974
  0
LINE
  8
Layer1
  6
CONTINUOUS
 62
7
 10
672.062
 20
280.48
 11
674.38
 21
280.48
  0
LINE
  8
Layer1
  6
CONTINUOUS
 62
7
 10
673.607
 20
271.492
 11
675.925
 21
271.492
  0
LINE
  8
Layer1
  6
CONTINUOUS
 62
7
 10
674.38
 20
284.974
 11
674.38
 21
280.48
  0
LINE
  8
Layer1
  6
CONTINUOUS
 62
7
 10
672.062
 20
284.974
 11
672.062
 21
280.48
  0
LINE
  8
Layer1
  6
DASHED1
 62
7
 10
673.607
 20
271.492
 11
673.607
 21
266.974
  0
LINE
  8
Layer1
  6
DASHED1
 62
7
 10
675.925
 20
270.007
 11
675.925
 21
266.974
  0
LINE
  8
Layer1
  6
CONTINUOUS
 62
7
 10
672.062
 20
280.48
 11
673.378
 21
272.824
  0
LINE
  8
Layer1
  6
CONTINUOUS
 62
7
 10
674.38
 20
280.48
 11
675.925
 21
271.492
  0
LINE
  8
Layer1
  6
DASHED1
 62
7
 10
673.051
 20
273.455
 11
673.607
 21
266.974
  0
LINE
  8
Layer1
  6
CONTINUOUS
 62
7
 10
674.573
 20
284.974
 11
675.152
 21
275.986
  0
LINE
  8
Layer1
  6
DASHED1
 62
7
 10
678.243
 20
266.974
 11
680.562
 21
266.974
  0
LINE
  8
Layer1
  6
CONTINUOUS
 62
7
 10
683.804
 20
266.974
 11
686.122
 21
266.974
  0
LINE
  8
Layer1
  6
CONTINUOUS
 62
7
 10
684.576
 20
284.974
 11
682.258
 21
284.974
  0
LINE
  8
Layer1
  6
CONTINUOUS
 62
7
 10
682.258
 20
280.48
 11
684.576
 21
280.48
  0
LINE
  8
Layer1
  6
CONTINUOUS
 62
7
 10
683.804
 20
271.492
 11
686.122
 21
271.492
  0
LINE
  8
Layer1
  6
CONTINUOUS
 62
7
 10
684.576
 20
284.974
 11
684.576
 21
280.48
  0
LINE
  8
Layer1
  6
CONTINUOUS
 62
7
 10
682.258
 20
284.974
 11
682.258
 21
280.48
  0
LINE
  8
Layer1
  6
CONTINUOUS
 62
7
 10
683.804
 20
271.492
 11
683.804
 21
266.974
  0
LINE
  8
Layer1
  6
CONTINUOUS
 62
7
 10
686.122
 20
271.492
 11
686.122
 21
266.974
  0
LINE
  8
Layer1
  6
CONTINUOUS
 62
7
 10
682.258
 20
280.48
 11
683.804
 21
271.492
  0
LINE
  8
Layer1
  6
CONTINUOUS
 62
7
 10
684.576
 20
280.48
 11
686.122
 21
271.492
  0
LINE
  8
Layer1
  6
CONTINUOUS
 62
7
 10
683.031
 20
275.986
 11
683.804
 21
266.974
  0
LINE
  8
Layer1
  6
CONTINUOUS
 62
7
 10
684.77
 20
284.974
 11
685.349
 21
275.986
  0
LINE
  8
Layer1
  6
CONTINUOUS
 62
7
 10
675.925
 20
270.007
 11
675.925
 21
271.492
  0
LINE
  8
Layer1
  6
CONTINUOUS
 62
7
 10
673.051
 20
273.455
 11
672.834
 21
275.986
  0
LINE
  8
Layer1
  6
CONTINUOUS
 62
7
 10
673.378
 20
272.824
 11
673.607
 21
271.492
  0
LINE
  8
Layer1
  6
CONTINUOUS
 62
7
 10
679.016
 20
284.974
 11
676.698
 21
284.974
  0
LINE
  8
Layer1
  6
CONTINUOUS
 62
7
 10
676.698
 20
280.48
 11
679.016
 21
280.48
  0
LINE
  8
Layer1
  6
CONTINUOUS
 62
7
 10
678.243
 20
271.492
 11
680.562
 21
271.492
  0
LINE
  8
Layer1
  6
CONTINUOUS
 62
7
 10
679.016
 20
284.974
 11
679.016
 21
280.48
  0
LINE
  8
Layer1
  6
CONTINUOUS
 62
7
 10
676.698
 20
284.974
 11
676.698
 21
280.48
  0
LINE
  8
Layer1
  6
CONTINUOUS
 62
7
 10
678.243
 20
271.492
 11
678.243
 21
268.571
  0
LINE
  8
Layer1
  6
CONTINUOUS
 62
7
 10
680.562
 20
271.492
 11
680.562
 21
267.536
  0
LINE
  8
Layer1
  6
CONTINUOUS
 62
7
 10
676.698
 20
280.48
 11
678.243
 21
271.492
  0
LINE
  8
Layer1
  6
CONTINUOUS
 62
7
 10
679.016
 20
280.48
 11
680.562
 21
271.492
  0
LINE
  8
Layer1
  6
CONTINUOUS
 62
7
 10
677.471
 20
275.986
 11
678.1
 21
268.649
  0
LINE
  8
Layer1
  6
CONTINUOUS
 62
7
 10
679.209
 20
284.974
 11
679.789
 21
275.986
  0
LINE
  8
Layer1
  6
DASHED1
 62
7
 10
678.243
 20
266.974
 11
678.071
 21
268.984
  0
LINE
  8
Layer1
  6
DASHED1
 62
7
 10
678.243
 20
268.571
 11
678.243
 21
266.974
  0
LINE
  8
Layer1
  6
CONTINUOUS
 62
7
 10
680.562
 20
267.536
 11
680.562
 21
266.974
  0
LINE
  8
Layer1
  6
CONTINUOUS
 62
7
 10
615.183
 20
334.274
 11
616.184
 21
335.274
  0
LINE
  8
Layer1
  6
DASHED1
 62
7
 10
615.18
 20
330.274
 11
628.141
 21
330.274
  0
LINE
  8
Layer1
  6
DASHED1
 62
7
 10
612.95
 20
325.274
 11
628.141
 21
325.274
  0
LINE
  8
Layer1
  6
CONTINUOUS
 62
7
 10
715.177
 20
265.274
 11
715.177
 21
285.274
  0
LINE
  8
Layer1
  6
CONTINUOUS
 62
7
 10
726.177
 20
280.274
 11
736.177
 21
280.274
  0
LINE
  8
Layer1
  6
CENTER1
 62
7
 10
751.592
 20
293.274
 11
715.142
 21
293.274
  0
LINE
  8
Layer1
  6
CONTINUOUS
 62
7
 10
737.177
 20
281.274
 11
737.177
 21
342.274
  0
LINE
  8
Layer1
  6
CONTINUOUS
 62
7
 10
726.177
 20
343.274
 11
736.177
 21
343.274
  0
LINE
  8
Layer1
  6
CONTINUOUS
 62
7
 10
736.177
 20
343.274
 11
737.177
 21
342.274
  0
LINE
  8
Layer1
  6
CONTINUOUS
 62
7
 10
737.177
 20
281.274
 11
736.177
 21
280.274
  0
LINE
  8
Layer1
  6
CONTINUOUS
 62
7
 10
726.177
 20
280.274
 11
725.177
 21
281.274
  0
LINE
  8
Layer1
  6
CONTINUOUS
 62
7
 10
725.177
 20
342.274
 11
726.177
 21
343.274
  0
LINE
  8
Layer1
  6
DASHED1
 62
7
 10
666.684
 20
347.974
 11
674.684
 21
347.974
  0
LINE
  8
Layer1
  6
DASHED1
 62
7
 10
675.684
 20
346.974
 11
675.684
 21
341.974
  0
LINE
  8
Layer1
  6
DASHED1
 62
7
 10
665.684
 20
346.974
 11
665.684
 21
341.974
  0
LINE
  8
Layer1
  6
DASHED1
 62
7
 10
676.184
 20
341.974
 11
665.184
 21
341.974
  0
LINE
  8
Layer1
  6
DASHED1
 62
7
 10
674.684
 20
347.974
 11
675.684
 21
346.974
  0
LINE
  8
Layer1
  6
DASHED1
 62
7
 10
666.684
 20
347.974
 11
665.684
 21
346.974
  0
LINE
  8
Layer1
  6
DASHED1
 62
7
 10
675.684
 20
346.974
 11
665.684
 21
346.974
  0
LINE
  8
Layer1
  6
DASHED1
 62
7
 10
665.184
 20
347.458
 11
665.184
 21
341.974
  0
LINE
  8
Layer1
  6
DASHED1
 62
7
 10
676.184
 20
347.458
 11
676.184
 21
341.974
  0
LINE
  8
Layer1
  6
DASHED1
 62
7
 10
667.184
 20
341.974
 11
667.184
 21
335.274
  0
LINE
  8
Layer1
  6
DASHED1
 62
7
 10
676.184
 20
341.974
 11
665.184
 21
341.974
  0
LINE
  8
Layer1
  6
DASHED1
 62
7
 10
674.184
 20
341.974
 11
674.184
 21
335.274
  0
LINE
  8
Layer1
  6
DASHED1
 62
7
 10
665.184
 20
347.458
 11
664.168
 21
348.474
  0
LINE
  8
Layer1
  6
DASHED1
 62
7
 10
676.184
 20
347.458
 11
677.2
 21
348.474
  0
LINE
  8
Layer1
  6
DASHED1
 62
7
 10
677.2
 20
348.474
 11
664.168
 21
348.474
  0
LINE
  8
Layer1
  6
DASHED1
 62
7
 10
665.184
 20
347.458
 11
666.168
 21
347.458
  0
LINE
  8
Layer1
  6
DASHED1
 62
7
 10
676.184
 20
347.458
 11
675.2
 21
347.458
  0
LINE
  8
Layer1
  6
CONTINUOUS
 62
7
 10
708.177
 20
267.451
 11
700.177
 21
267.451
  0
LINE
  8
Layer1
  6
CONTINUOUS
 62
7
 10
699.177
 20
268.451
 11
699.177
 21
273.451
  0
LINE
  8
Layer1
  6
CONTINUOUS
 62
7
 10
709.177
 20
268.451
 11
709.177
 21
273.451
  0
LINE
  8
Layer1
  6
CONTINUOUS
 62
7
 10
698.677
 20
273.451
 11
709.677
 21
273.451
  0
LINE
  8
Layer1
  6
CONTINUOUS
 62
7
 10
700.177
 20
267.451
 11
699.177
 21
268.451
  0
LINE
  8
Layer1
  6
CONTINUOUS
 62
7
 10
708.177
 20
267.451
 11
709.177
 21
268.451
  0
LINE
  8
Layer1
  6
CONTINUOUS
 62
7
 10
699.177
 20
268.451
 11
709.177
 21
268.451
  0
LINE
  8
Layer1
  6
CONTINUOUS
 62
7
 10
707.177
 20
300.451
 11
706.677
 21
301.317
  0
LINE
  8
Layer1
  6
CONTINUOUS
 62
7
 10
701.177
 20
300.451
 11
701.677
 21
301.317
  0
LINE
  8
Layer1
  6
DASHED1
 62
7
 10
701.677
 20
301.317
 11
706.677
 21
301.317
  0
POLYLINE
  8
Layer1
  6
CONTINUOUS
 62
7
 66
1
 10
0
 20
0
 30
0
  0
VERTEX
  8
Layer1
 10
698.177
 20
277.451
  0
VERTEX
  8
Layer1
 10
698.364
 20
277.591
  0
VERTEX
  8
Layer1
 10
698.551
 20
277.731
  0
VERTEX
  8
Layer1
 10
698.737
 20
277.869
  0
VERTEX
  8
Layer1
 10
698.925
 20
278.004
  0
VERTEX
  8
Layer1
 10
699.112
 20
278.136
  0
VERTEX
  8
Layer1
 10
699.3
 20
278.262
  0
VERTEX
  8
Layer1
 10
699.489
 20
278.384
  0
VERTEX
  8
Layer1
 10
699.678
 20
278.498
  0
VERTEX
  8
Layer1
 10
699.868
 20
278.605
  0
VERTEX
  8
Layer1
 10
700.059
 20
278.704
  0
VERTEX
  8
Layer1
 10
700.252
 20
278.794
  0
VERTEX
  8
Layer1
 10
700.445
 20
278.873
  0
VERTEX
  8
Layer1
 10
700.639
 20
278.941
  0
VERTEX
  8
Layer1
 10
700.834
 20
278.997
  0
VERTEX
  8
Layer1
 10
701.031
 20
279.04
  0
VERTEX
  8
Layer1
 10
701.23
 20
279.069
  0
VERTEX
  8
Layer1
 10
701.43
 20
279.082
  0
VERTEX
  8
Layer1
 10
701.631
 20
279.081
  0
VERTEX
  8
Layer1
 10
701.835
 20
279.062
  0
VERTEX
  8
Layer1
 10
702.04
 20
279.029
  0
VERTEX
  8
Layer1
 10
702.246
 20
278.984
  0
VERTEX
  8
Layer1
 10
702.453
 20
278.929
  0
VERTEX
  8
Layer1
 10
702.661
 20
278.868
  0
VERTEX
  8
Layer1
 10
702.869
 20
278.804
  0
VERTEX
  8
Layer1
 10
703.077
 20
278.738
  0
VERTEX
  8
Layer1
 10
703.285
 20
278.675
  0
VERTEX
  8
Layer1
 10
703.492
 20
278.616
  0
VERTEX
  8
Layer1
 10
703.698
 20
278.565
  0
VERTEX
  8
Layer1
 10
703.903
 20
278.524
  0
VERTEX
  8
Layer1
 10
704.106
 20
278.496
  0
VERTEX
  8
Layer1
 10
704.307
 20
278.484
  0
VERTEX
  8
Layer1
 10
704.507
 20
278.488
  0
VERTEX
  8
Layer1
 10
704.704
 20
278.508
  0
VERTEX
  8
Layer1
 10
704.9
 20
278.543
  0
VERTEX
  8
Layer1
 10
705.094
 20
278.591
  0
VERTEX
  8
Layer1
 10
705.286
 20
278.652
  0
VERTEX
  8
Layer1
 10
705.477
 20
278.725
  0
VERTEX
  8
Layer1
 10
705.666
 20
278.809
  0
VERTEX
  8
Layer1
 10
705.853
 20
278.904
  0
VERTEX
  8
Layer1
 10
706.038
 20
279.009
  0
VERTEX
  8
Layer1
 10
706.223
 20
279.122
  0
VERTEX
  8
Layer1
 10
706.405
 20
279.242
  0
VERTEX
  8
Layer1
 10
706.587
 20
279.37
  0
VERTEX
  8
Layer1
 10
706.767
 20
279.504
  0
VERTEX
  8
Layer1
 10
706.946
 20
279.643
  0
VERTEX
  8
Layer1
 10
707.124
 20
279.787
  0
VERTEX
  8
Layer1
 10
707.3
 20
279.934
  0
VERTEX
  8
Layer1
 10
707.475
 20
280.084
  0
VERTEX
  8
Layer1
 10
707.65
 20
280.235
  0
VERTEX
  8
Layer1
 10
707.823
 20
280.388
  0
VERTEX
  8
Layer1
 10
707.995
 20
280.541
  0
VERTEX
  8
Layer1
 10
708.167
 20
280.693
  0
VERTEX
  8
Layer1
 10
708.338
 20
280.843
  0
VERTEX
  8
Layer1
 10
708.507
 20
280.992
  0
VERTEX
  8
Layer1
 10
708.677
 20
281.136
  0
VERTEX
  8
Layer1
 10
708.845
 20
281.277
  0
VERTEX
  8
Layer1
 10
709.013
 20
281.415
  0
VERTEX
  8
Layer1
 10
709.18
 20
281.549
  0
VERTEX
  8
Layer1
 10
709.347
 20
281.68
  0
VERTEX
  8
Layer1
 10
709.513
 20
281.809
  0
VERTEX
  8
Layer1
 10
709.68
 20
281.936
  0
VERTEX
  8
Layer1
 10
709.846
 20
282.062
  0
VERTEX
  8
Layer1
 10
710.011
 20
282.187
  0
VERTEX
  8
Layer1
 10
710.177
 20
282.311
  0
SEQEND
  0
LINE
  8
Layer1
  6
CONTINUOUS
 62
7
 10
707.177
 20
279.832
 11
707.177
 21
273.451
  0
LINE
  8
Layer1
  6
CONTINUOUS
 62
7
 10
706.677
 20
279.437
 11
706.677
 21
273.451
  0
LINE
  8
Layer1
  6
CONTINUOUS
 62
7
 10
701.677
 20
279.078
 11
701.677
 21
273.451
  0
LINE
  8
Layer1
  6
CONTINUOUS
 62
7
 10
701.177
 20
279.061
 11
701.177
 21
273.451
  0
LINE
  8
Layer1
  6
CONTINUOUS
 62
7
 10
699.177
 20
273.451
 11
699.177
 21
268.451
  0
LINE
  8
Layer1
  6
CONTINUOUS
 62
7
 10
709.177
 20
273.451
 11
709.177
 21
268.451
  0
LINE
  8
Layer1
  6
CONTINUOUS
 62
7
 10
698.677
 20
266.451
 11
698.677
 21
273.451
  0
LINE
  8
Layer1
  6
CONTINUOUS
 62
7
 10
709.677
 20
266.451
 11
709.677
 21
273.451
  0
LINE
  8
Layer1
  6
CONTINUOUS
 62
7
 10
699.677
 20
273.201
 11
699.677
 21
268.701
  0
LINE
  8
Layer1
  6
CONTINUOUS
 62
7
 10
700.677
 20
272.701
 11
700.677
 21
269.201
  0
LINE
  8
Layer1
  6
CONTINUOUS
 62
7
 10
701.677
 20
272.201
 11
701.677
 21
269.701
  0
LINE
  8
Layer1
  6
CONTINUOUS
 62
7
 10
704.177
 20
273.451
 11
704.177
 21
268.451
  0
LINE
  8
Layer1
  6
DASHED1
 62
7
 10
665.684
 20
341.974
 11
665.684
 21
346.974
  0
LINE
  8
Layer1
  6
DASHED1
 62
7
 10
666.184
 20
346.724
 11
666.184
 21
342.224
  0
LINE
  8
Layer1
  6
DASHED1
 62
7
 10
667.184
 20
346.224
 11
667.184
 21
342.724
  0
LINE
  8
Layer1
  6
DASHED1
 62
7
 10
668.184
 20
345.724
 11
668.184
 21
343.224
  0
LINE
  8
Layer1
  6
CONTINUOUS
 62
7
 10
737.177
 20
487.502
 11
737.177
 21
566.502
  0
LINE
  8
Layer1
  6
CONTINUOUS
 62
7
 10
726.177
 20
566.502
 11
736.177
 21
566.502
  0
LINE
  8
Layer1
  6
CONTINUOUS
 62
7
 10
726.177
 20
486.502
 11
736.177
 21
486.502
  0
LINE
  8
Layer1
  6
CONTINUOUS
 62
7
 10
736.177
 20
566.502
 11
737.177
 21
565.502
  0
LINE
  8
Layer1
  6
CONTINUOUS
 62
7
 10
737.177
 20
487.502
 11
736.177
 21
486.502
  0
LINE
  8
Layer1
  6
CONTINUOUS
 62
7
 10
725.177
 20
566.502
 11
725.177
 21
486.502
  0
LINE
  8
Layer1
  6
CONTINUOUS
 62
7
 10
725.177
 20
487.502
 11
726.177
 21
486.502
  0
LINE
  8
Layer1
  6
CONTINUOUS
 62
7
 10
725.177
 20
565.502
 11
726.177
 21
566.502
  0
LINE
  8
Layer1
  6
CONTINUOUS
 62
7
 10
737.249
 20
552.502
 11
744.749
 21
552.502
  0
LINE
  8
Layer1
  6
CONTINUOUS
 62
7
 10
737.249
 20
565.502
 11
744.749
 21
565.502
  0
LINE
  8
Layer1
  6
CONTINUOUS
 62
7
 10
744.749
 20
552.502
 11
744.749
 21
565.502
  0
LINE
  8
Layer1
  6
CONTINUOUS
 62
7
 10
745.249
 20
553.002
 11
745.249
 21
565.002
  0
LINE
  8
Layer1
  6
CONTINUOUS
 62
7
 10
744.749
 20
552.502
 11
745.249
 21
553.002
  0
LINE
  8
Layer1
  6
CONTINUOUS
 62
7
 10
744.749
 20
565.502
 11
745.249
 21
565.002
  0
LINE
  8
Layer1
  6
CONTINUOUS
 62
7
 10
737.249
 20
565.502
 11
737.249
 21
552.502
  0
LINE
  8
Layer1
  6
CONTINUOUS
 62
7
 10
737.825
 20
564.502
 11
744.172
 21
564.502
  0
LINE
  8
Layer1
  6
CONTINUOUS
 62
7
 10
738.402
 20
563.502
 11
743.595
 21
563.502
  0
LINE
  8
Layer1
  6
CONTINUOUS
 62
7
 10
738.979
 20
562.502
 11
743.018
 21
562.502
  0
LINE
  8
Layer1
  6
CONTINUOUS
 62
7
 10
739.556
 20
561.502
 11
742.441
 21
561.502
  0
LINE
  8
Layer1
  6
CENTER1
 62
7
 10
718.178
 20
327.274
 11
750.049
 21
327.274
  0
LINE
  8
Layer1
  6
CENTER1
 62
7
 10
716.798
 20
308.274
 11
749.364
 21
308.274
  0
LINE
  8
Layer1
  6
CENTER1
 62
7
 10
718.27
 20
289.274
 11
749.204
 21
289.274
  0
CIRCLE
  8
Layer1
  6
CONTINUOUS
 62
7
 10
649.186
 20
526.502
 40
3.76681
  0
ARC
  8
Layer1
  6
CONTINUOUS
 62
7
 10
644.713
 20
526.537
 40
1
 50
140.711
 51
225
  0
LINE
  8
Layer1
  6
CONTINUOUS
 62
7
 10
653.696
 20
528.147
 11
655.959
 21
528.147
  0
LINE
  8
Layer1
  6
CONTINUOUS
 62
7
 10
653.696
 20
524.661
 11
655.959
 21
524.661
  0
LINE
  8
Layer1
  6
CONTINUOUS
 62
7
 10
655.959
 20
528.147
 11
655.959
 21
524.661
  0
ARC
  8
Layer1
  6
CONTINUOUS
 62
7
 10
649.186
 20
526.502
 40
4.80058
 50
20.031
 51
140.098
  0
ARC
  8
Layer1
  6
CONTINUOUS
 62
7
 10
649.186
 20
526.502
 40
4.80058
 50
218.056
 51
337.793
  0
ARC
  8
Layer1
  6
CONTINUOUS
 62
7
 10
636.293
 20
519.252
 40
10.1292
 50
24.1178
 51
40.4581
  0
ARC
  8
Layer1
  6
CONTINUOUS
 62
7
 10
636.232
 20
533.743
 40
10.1292
 50
319.542
 51
335.882
  0
ARC
  8
Layer1
  6
CONTINUOUS
 62
7
 10
654.828
 20
528.147
 40
0.542282
 50
0
 51
180
  0
ARC
  8
Layer1
  6
CONTINUOUS
 62
7
 10
654.828
 20
524.661
 40
0.657613
 50
180
 51
2.03555e-013
  0
LINE
  8
Layer1
  6
CONTINUOUS
 62
7
 10
435.451
 20
354.852
 11
443.296
 21
354.852
  0
LINE
  8
Layer1
  6
CONTINUOUS
 62
7
 10
435.124
 20
354.248
 11
443.598
 21
354.248
  0
LINE
  8
Layer1
  6
CONTINUOUS
 62
7
 10
435.029
 20
350.869
 11
443.477
 21
350.869
  0
LINE
  8
Layer1
  6
CONTINUOUS
 62
7
 10
444.201
 20
350.145
 11
434.305
 21
350.145
  0
LINE
  8
Layer1
  6
CONTINUOUS
 62
7
 10
444.201
 20
350.145
 11
444.201
 21
348.274
  0
LINE
  8
Layer1
  6
CONTINUOUS
 62
7
 10
434.305
 20
350.145
 11
434.305
 21
348.274
  0
POLYLINE
  8
Layer1
  6
CONTINUOUS
 62
7
 66
1
 10
0
 20
0
 30
0
  0
VERTEX
  8
Layer1
 10
439.246
 20
352.065
  0
VERTEX
  8
Layer1
 10
439.181
 20
352.122
  0
VERTEX
  8
Layer1
 10
439.114
 20
352.177
  0
VERTEX
  8
Layer1
 10
439.046
 20
352.231
  0
VERTEX
  8
Layer1
 10
438.976
 20
352.283
  0
VERTEX
  8
Layer1
 10
438.905
 20
352.333
  0
VERTEX
  8
Layer1
 10
438.833
 20
352.381
  0
VERTEX
  8
Layer1
 10
438.76
 20
352.427
  0
VERTEX
  8
Layer1
 10
438.685
 20
352.471
  0
VERTEX
  8
Layer1
 10
438.61
 20
352.514
  0
VERTEX
  8
Layer1
 10
438.533
 20
352.554
  0
VERTEX
  8
Layer1
 10
438.455
 20
352.593
  0
VERTEX
  8
Layer1
 10
438.377
 20
352.629
  0
VERTEX
  8
Layer1
 10
438.297
 20
352.663
  0
VERTEX
  8
Layer1
 10
438.217
 20
352.696
  0
VERTEX
  8
Layer1
 10
438.135
 20
352.726
  0
VERTEX
  8
Layer1
 10
438.053
 20
352.754
  0
VERTEX
  8
Layer1
 10
437.97
 20
352.78
  0
VERTEX
  8
Layer1
 10
437.887
 20
352.804
  0
VERTEX
  8
Layer1
 10
437.803
 20
352.825
  0
VERTEX
  8
Layer1
 10
437.719
 20
352.845
  0
VERTEX
  8
Layer1
 10
437.634
 20
352.862
  0
VERTEX
  8
Layer1
 10
437.548
 20
352.877
  0
VERTEX
  8
Layer1
 10
437.462
 20
352.89
  0
VERTEX
  8
Layer1
 10
437.376
 20
352.901
  0
VERTEX
  8
Layer1
 10
437.29
 20
352.909
  0
VERTEX
  8
Layer1
 10
437.204
 20
352.915
  0
VERTEX
  8
Layer1
 10
437.117
 20
352.919
  0
VERTEX
  8
Layer1
 10
437.03
 20
352.921
  0
VERTEX
  8
Layer1
 10
436.944
 20
352.92
  0
VERTEX
  8
Layer1
 10
436.857
 20
352.917
  0
VERTEX
  8
Layer1
 10
436.77
 20
352.912
  0
VERTEX
  8
Layer1
 10
436.684
 20
352.905
  0
VERTEX
  8
Layer1
 10
436.598
 20
352.895
  0
VERTEX
  8
Layer1
 10
436.512
 20
352.884
  0
VERTEX
  8
Layer1
 10
436.426
 20
352.87
  0
VERTEX
  8
Layer1
 10
436.341
 20
352.853
  0
VERTEX
  8
Layer1
 10
436.256
 20
352.835
  0
VERTEX
  8
Layer1
 10
436.172
 20
352.814
  0
VERTEX
  8
Layer1
 10
436.088
 20
352.792
  0
VERTEX
  8
Layer1
 10
436.005
 20
352.767
  0
VERTEX
  8
Layer1
 10
435.923
 20
352.74
  0
VERTEX
  8
Layer1
 10
435.841
 20
352.711
  0
VERTEX
  8
Layer1
 10
435.76
 20
352.679
  0
VERTEX
  8
Layer1
 10
435.68
 20
352.646
  0
VERTEX
  8
Layer1
 10
435.601
 20
352.611
  0
VERTEX
  8
Layer1
 10
435.523
 20
352.573
  0
VERTEX
  8
Layer1
 10
435.446
 20
352.534
  0
VERTEX
  8
Layer1
 10
435.37
 20
352.492
  0
SEQEND
  0
POLYLINE
  8
Layer1
  6
CONTINUOUS
 62
7
 66
1
 10
0
 20
0
 30
0
  0
VERTEX
  8
Layer1
 10
443.599
 20
352.438
  0
VERTEX
  8
Layer1
 10
443.511
 20
352.473
  0
VERTEX
  8
Layer1
 10
443.423
 20
352.507
  0
VERTEX
  8
Layer1
 10
443.334
 20
352.539
  0
VERTEX
  8
Layer1
 10
443.245
 20
352.569
  0
VERTEX
  8
Layer1
 10
443.155
 20
352.598
  0
VERTEX
  8
Layer1
 10
443.064
 20
352.624
  0
VERTEX
  8
Layer1
 10
442.973
 20
352.649
  0
VERTEX
  8
Layer1
 10
442.881
 20
352.672
  0
VERTEX
  8
Layer1
 10
442.789
 20
352.693
  0
VERTEX
  8
Layer1
 10
442.697
 20
352.713
  0
VERTEX
  8
Layer1
 10
442.604
 20
352.73
  0
VERTEX
  8
Layer1
 10
442.511
 20
352.746
  0
VERTEX
  8
Layer1
 10
442.417
 20
352.76
  0
VERTEX
  8
Layer1
 10
442.324
 20
352.771
  0
VERTEX
  8
Layer1
 10
442.23
 20
352.781
  0
VERTEX
  8
Layer1
 10
442.136
 20
352.79
  0
VERTEX
  8
Layer1
 10
442.042
 20
352.796
  0
VERTEX
  8
Layer1
 10
441.947
 20
352.8
  0
VERTEX
  8
Layer1
 10
441.853
 20
352.803
  0
VERTEX
  8
Layer1
 10
441.758
 20
352.803
  0
VERTEX
  8
Layer1
 10
441.664
 20
352.802
  0
VERTEX
  8
Layer1
 10
441.57
 20
352.799
  0
VERTEX
  8
Layer1
 10
441.475
 20
352.794
  0
VERTEX
  8
Layer1
 10
441.381
 20
352.787
  0
VERTEX
  8
Layer1
 10
441.287
 20
352.778
  0
VERTEX
  8
Layer1
 10
441.193
 20
352.767
  0
VERTEX
  8
Layer1
 10
441.1
 20
352.755
  0
VERTEX
  8
Layer1
 10
441.006
 20
352.74
  0
VERTEX
  8
Layer1
 10
440.913
 20
352.724
  0
VERTEX
  8
Layer1
 10
440.821
 20
352.706
  0
VERTEX
  8
Layer1
 10
440.728
 20
352.686
  0
VERTEX
  8
Layer1
 10
440.637
 20
352.664
  0
VERTEX
  8
Layer1
 10
440.545
 20
352.64
  0
VERTEX
  8
Layer1
 10
440.454
 20
352.614
  0
VERTEX
  8
Layer1
 10
440.364
 20
352.587
  0
VERTEX
  8
Layer1
 10
440.274
 20
352.558
  0
VERTEX
  8
Layer1
 10
440.185
 20
352.527
  0
VERTEX
  8
Layer1
 10
440.096
 20
352.494
  0
VERTEX
  8
Layer1
 10
440.008
 20
352.46
  0
VERTEX
  8
Layer1
 10
439.921
 20
352.424
  0
VERTEX
  8
Layer1
 10
439.835
 20
352.386
  0
VERTEX
  8
Layer1
 10
439.749
 20
352.346
  0
VERTEX
  8
Layer1
 10
439.664
 20
352.305
  0
VERTEX
  8
Layer1
 10
439.58
 20
352.261
  0
VERTEX
  8
Layer1
 10
439.497
 20
352.217
  0
VERTEX
  8
Layer1
 10
439.415
 20
352.17
  0
VERTEX
  8
Layer1
 10
439.333
 20
352.122
  0
VERTEX
  8
Layer1
 10
439.253
 20
352.073
  0
SEQEND
  0
LINE
  8
Layer1
  6
CONTINUOUS
 62
7
 10
435.716
 20
352.661
 11
435.381
 21
352.471
  0
LINE
  8
Layer1
  6
CONTINUOUS
 62
7
 10
435.451
 20
354.852
 11
434.592
 21
353.268
  0
LINE
  8
Layer1
  6
CONTINUOUS
 62
7
 10
443.296
 20
354.852
 11
444.184
 21
353.036
  0
LINE
  8
Layer1
  6
CONTINUOUS
 62
7
 10
443.114
 20
352.582
 11
443.599
 21
352.438
  0
POLYLINE
  8
Layer1
  6
CONTINUOUS
 62
7
 66
1
 10
0
 20
0
 30
0
  0
VERTEX
  8
Layer1
 10
434.592
 20
353.268
  0
VERTEX
  8
Layer1
 10
434.577
 20
353.24
  0
VERTEX
  8
Layer1
 10
434.563
 20
353.212
  0
VERTEX
  8
Layer1
 10
434.551
 20
353.182
  0
VERTEX
  8
Layer1
 10
434.541
 20
353.153
  0
VERTEX
  8
Layer1
 10
434.532
 20
353.122
  0
VERTEX
  8
Layer1
 10
434.525
 20
353.091
  0
VERTEX
  8
Layer1
 10
434.519
 20
353.06
  0
VERTEX
  8
Layer1
 10
434.516
 20
353.029
  0
VERTEX
  8
Layer1
 10
434.514
 20
352.997
  0
VERTEX
  8
Layer1
 10
434.513
 20
352.966
  0
VERTEX
  8
Layer1
 10
434.515
 20
352.934
  0
VERTEX
  8
Layer1
 10
434.518
 20
352.903
  0
VERTEX
  8
Layer1
 10
434.523
 20
352.871
  0
VERTEX
  8
Layer1
 10
434.529
 20
352.84
  0
VERTEX
  8
Layer1
 10
434.538
 20
352.81
  0
VERTEX
  8
Layer1
 10
434.548
 20
352.78
  0
VERTEX
  8
Layer1
 10
434.559
 20
352.75
  0
VERTEX
  8
Layer1
 10
434.572
 20
352.721
  0
VERTEX
  8
Layer1
 10
434.587
 20
352.693
  0
VERTEX
  8
Layer1
 10
434.603
 20
352.666
  0
VERTEX
  8
Layer1
 10
434.621
 20
352.64
  0
VERTEX
  8
Layer1
 10
434.64
 20
352.615
  0
VERTEX
  8
Layer1
 10
434.66
 20
352.59
  0
VERTEX
  8
Layer1
 10
434.682
 20
352.567
  0
VERTEX
  8
Layer1
 10
434.704
 20
352.546
  0
VERTEX
  8
Layer1
 10
434.729
 20
352.525
  0
VERTEX
  8
Layer1
 10
434.754
 20
352.506
  0
VERTEX
  8
Layer1
 10
434.78
 20
352.488
  0
VERTEX
  8
Layer1
 10
434.807
 20
352.471
  0
VERTEX
  8
Layer1
 10
434.835
 20
352.457
  0
VERTEX
  8
Layer1
 10
434.863
 20
352.443
  0
VERTEX
  8
Layer1
 10
434.893
 20
352.431
  0
VERTEX
  8
Layer1
 10
434.923
 20
352.421
  0
VERTEX
  8
Layer1
 10
434.953
 20
352.413
  0
VERTEX
  8
Layer1
 10
434.984
 20
352.406
  0
VERTEX
  8
Layer1
 10
435.015
 20
352.401
  0
VERTEX
  8
Layer1
 10
435.047
 20
352.397
  0
VERTEX
  8
Layer1
 10
435.078
 20
352.396
  0
VERTEX
  8
Layer1
 10
435.11
 20
352.396
  0
VERTEX
  8
Layer1
 10
435.141
 20
352.397
  0
VERTEX
  8
Layer1
 10
435.173
 20
352.401
  0
VERTEX
  8
Layer1
 10
435.204
 20
352.406
  0
VERTEX
  8
Layer1
 10
435.235
 20
352.413
  0
VERTEX
  8
Layer1
 10
435.266
 20
352.421
  0
VERTEX
  8
Layer1
 10
435.295
 20
352.431
  0
VERTEX
  8
Layer1
 10
435.325
 20
352.443
  0
VERTEX
  8
Layer1
 10
435.354
 20
352.456
  0
VERTEX
  8
Layer1
 10
435.381
 20
352.471
  0
SEQEND
  0
POLYLINE
  8
Layer1
  6
CONTINUOUS
 62
7
 66
1
 10
0
 20
0
 30
0
  0
VERTEX
  8
Layer1
 10
443.599
 20
352.438
  0
VERTEX
  8
Layer1
 10
443.619
 20
352.432
  0
VERTEX
  8
Layer1
 10
443.64
 20
352.427
  0
VERTEX
  8
Layer1
 10
443.661
 20
352.424
  0
VERTEX
  8
Layer1
 10
443.682
 20
352.421
  0
VERTEX
  8
Layer1
 10
443.704
 20
352.419
  0
VERTEX
  8
Layer1
 10
443.725
 20
352.418
  0
VERTEX
  8
Layer1
 10
443.747
 20
352.418
  0
VERTEX
  8
Layer1
 10
443.768
 20
352.419
  0
VERTEX
  8
Layer1
 10
443.789
 20
352.421
  0
VERTEX
  8
Layer1
 10
443.81
 20
352.424
  0
VERTEX
  8
Layer1
 10
443.831
 20
352.428
  0
VERTEX
  8
Layer1
 10
443.852
 20
352.433
  0
VERTEX
  8
Layer1
 10
443.873
 20
352.439
  0
VERTEX
  8
Layer1
 10
443.893
 20
352.446
  0
VERTEX
  8
Layer1
 10
443.913
 20
352.454
  0
VERTEX
  8
Layer1
 10
443.933
 20
352.462
  0
VERTEX
  8
Layer1
 10
443.952
 20
352.472
  0
VERTEX
  8
Layer1
 10
443.971
 20
352.482
  0
VERTEX
  8
Layer1
 10
443.989
 20
352.493
  0
VERTEX
  8
Layer1
 10
444.007
 20
352.505
  0
VERTEX
  8
Layer1
 10
444.024
 20
352.518
  0
VERTEX
  8
Layer1
 10
444.04
 20
352.531
  0
VERTEX
  8
Layer1
 10
444.056
 20
352.546
  0
VERTEX
  8
Layer1
 10
444.072
 20
352.56
  0
VERTEX
  8
Layer1
 10
444.086
 20
352.576
  0
VERTEX
  8
Layer1
 10
444.1
 20
352.592
  0
VERTEX
  8
Layer1
 10
444.113
 20
352.609
  0
VERTEX
  8
Layer1
 10
444.126
 20
352.627
  0
VERTEX
  8
Layer1
 10
444.137
 20
352.645
  0
VERTEX
  8
Layer1
 10
444.148
 20
352.663
  0
VERTEX
  8
Layer1
 10
444.158
 20
352.682
  0
VERTEX
  8
Layer1
 10
444.167
 20
352.702
  0
VERTEX
  8
Layer1
 10
444.175
 20
352.722
  0
VERTEX
  8
Layer1
 10
444.182
 20
352.742
  0
VERTEX
  8
Layer1
 10
444.188
 20
352.762
  0
VERTEX
  8
Layer1
 10
444.194
 20
352.783
  0
VERTEX
  8
Layer1
 10
444.198
 20
352.804
  0
VERTEX
  8
Layer1
 10
444.202
 20
352.825
  0
VERTEX
  8
Layer1
 10
444.204
 20
352.846
  0
VERTEX
  8
Layer1
 10
444.206
 20
352.868
  0
VERTEX
  8
Layer1
 10
444.206
 20
352.889
  0
VERTEX
  8
Layer1
 10
444.206
 20
352.91
  0
VERTEX
  8
Layer1
 10
444.205
 20
352.932
  0
VERTEX
  8
Layer1
 10
444.202
 20
352.953
  0
VERTEX
  8
Layer1
 10
444.199
 20
352.974
  0
VERTEX
  8
Layer1
 10
444.195
 20
352.995
  0
VERTEX
  8
Layer1
 10
444.19
 20
353.016
  0
VERTEX
  8
Layer1
 10
444.184
 20
353.036
  0
SEQEND
  0
LINE
  8
Layer1
  6
CONTINUOUS
 62
7
 10
442.32
 20
352.772
 11
442.32
 21
350.869
  0
LINE
  8
Layer1
  6
CONTINUOUS
 62
7
 10
436.175
 20
352.815
 11
436.175
 21
350.869
  0
LINE
  8
Layer1
  6
CONTINUOUS
 62
7
 10
435.029
 20
350.869
 11
434.305
 21
350.145
  0
LINE
  8
Layer1
  6
CONTINUOUS
 62
7
 10
443.477
 20
350.869
 11
444.201
 21
350.145
  0
LINE
  8
Layer1
  6
CENTER1
 62
7
 10
406.753
 20
327.87
 11
406.753
 21
352.087
  0
LINE
  8
Layer1
  6
CONTINUOUS
 62
7
 10
643.822
 20
357.644
 11
652.724
 21
357.644
  0
LINE
  8
Layer1
  6
CONTINUOUS
 62
7
 10
643.822
 20
355.329
 11
651.656
 21
355.329
  0
LINE
  8
Layer1
  6
CONTINUOUS
 62
7
 10
652.724
 20
357.644
 11
654.149
 21
355.982
  0
LINE
  8
Layer1
  6
CONTINUOUS
 62
7
 10
654.149
 20
355.329
 11
654.149
 21
355.982
  0
POLYLINE
  8
Layer1
  6
CONTINUOUS
 62
7
 66
1
 10
0
 20
0
 30
0
  0
VERTEX
  8
Layer1
 10
651.656
 20
355.329
  0
VERTEX
  8
Layer1
 10
651.658
 20
355.247
  0
VERTEX
  8
Layer1
 10
651.665
 20
355.165
  0
VERTEX
  8
Layer1
 10
651.678
 20
355.084
  0
VERTEX
  8
Layer1
 10
651.696
 20
355.004
  0
VERTEX
  8
Layer1
 10
651.719
 20
354.925
  0
VERTEX
  8
Layer1
 10
651.747
 20
354.848
  0
VERTEX
  8
Layer1
 10
651.781
 20
354.773
  0
VERTEX
  8
Layer1
 10
651.819
 20
354.701
  0
VERTEX
  8
Layer1
 10
651.862
 20
354.631
  0
VERTEX
  8
Layer1
 10
651.909
 20
354.564
  0
VERTEX
  8
Layer1
 10
651.961
 20
354.5
  0
VERTEX
  8
Layer1
 10
652.017
 20
354.44
  0
VERTEX
  8
Layer1
 10
652.076
 20
354.383
  0
VERTEX
  8
Layer1
 10
652.139
 20
354.331
  0
VERTEX
  8
Layer1
 10
652.206
 20
354.283
  0
VERTEX
  8
Layer1
 10
652.276
 20
354.239
  0
VERTEX
  8
Layer1
 10
652.348
 20
354.2
  0
VERTEX
  8
Layer1
 10
652.423
 20
354.166
  0
VERTEX
  8
Layer1
 10
652.499
 20
354.137
  0
VERTEX
  8
Layer1
 10
652.578
 20
354.113
  0
VERTEX
  8
Layer1
 10
652.658
 20
354.094
  0
VERTEX
  8
Layer1
 10
652.739
 20
354.081
  0
VERTEX
  8
Layer1
 10
652.82
 20
354.073
  0
VERTEX
  8
Layer1
 10
652.902
 20
354.07
  0
VERTEX
  8
Layer1
 10
652.985
 20
354.073
  0
VERTEX
  8
Layer1
 10
653.066
 20
354.081
  0
VERTEX
  8
Layer1
 10
653.147
 20
354.094
  0
VERTEX
  8
Layer1
 10
653.227
 20
354.113
  0
VERTEX
  8
Layer1
 10
653.306
 20
354.137
  0
VERTEX
  8
Layer1
 10
653.382
 20
354.166
  0
VERTEX
  8
Layer1
 10
653.457
 20
354.2
  0
VERTEX
  8
Layer1
 10
653.529
 20
354.239
  0
VERTEX
  8
Layer1
 10
653.599
 20
354.283
  0
VERTEX
  8
Layer1
 10
653.665
 20
354.331
  0
VERTEX
  8
Layer1
 10
653.729
 20
354.383
  0
VERTEX
  8
Layer1
 10
653.788
 20
354.44
  0
VERTEX
  8
Layer1
 10
653.844
 20
354.5
  0
VERTEX
  8
Layer1
 10
653.896
 20
354.564
  0
VERTEX
  8
Layer1
 10
653.943
 20
354.631
  0
VERTEX
  8
Layer1
 10
653.986
 20
354.701
  0
VERTEX
  8
Layer1
 10
654.024
 20
354.773
  0
VERTEX
  8
Layer1
 10
654.058
 20
354.848
  0
VERTEX
  8
Layer1
 10
654.086
 20
354.925
  0
VERTEX
  8
Layer1
 10
654.109
 20
355.004
  0
VERTEX
  8
Layer1
 10
654.127
 20
355.084
  0
VERTEX
  8
Layer1
 10
654.14
 20
355.165
  0
VERTEX
  8
Layer1
 10
654.147
 20
355.247
  0
VERTEX
  8
Layer1
 10
654.149
 20
355.329
  0
SEQEND
  0
LINE
  8
Layer1
  6
CONTINUOUS
 62
7
 10
643.822
 20
357.644
 11
641.408
 21
355.116
  0
LINE
  8
Layer1
  6
CONTINUOUS
 62
7
 10
643.822
 20
355.329
 11
642.397
 21
354.083
  0
POLYLINE
  8
Layer1
  6
CONTINUOUS
 62
7
 66
1
 10
0
 20
0
 30
0
  0
VERTEX
  8
Layer1
 10
641.408
 20
355.116
  0
VERTEX
  8
Layer1
 10
641.378
 20
355.082
  0
VERTEX
  8
Layer1
 10
641.35
 20
355.046
  0
VERTEX
  8
Layer1
 10
641.324
 20
355.008
  0
VERTEX
  8
Layer1
 10
641.301
 20
354.969
  0
VERTEX
  8
Layer1
 10
641.28
 20
354.929
  0
VERTEX
  8
Layer1
 10
641.261
 20
354.887
  0
VERTEX
  8
Layer1
 10
641.246
 20
354.845
  0
VERTEX
  8
Layer1
 10
641.233
 20
354.801
  0
VERTEX
  8
Layer1
 10
641.223
 20
354.756
  0
VERTEX
  8
Layer1
 10
641.216
 20
354.712
  0
VERTEX
  8
Layer1
 10
641.212
 20
354.666
  0
VERTEX
  8
Layer1
 10
641.21
 20
354.621
  0
VERTEX
  8
Layer1
 10
641.212
 20
354.575
  0
VERTEX
  8
Layer1
 10
641.216
 20
354.53
  0
VERTEX
  8
Layer1
 10
641.223
 20
354.485
  0
VERTEX
  8
Layer1
 10
641.233
 20
354.441
  0
VERTEX
  8
Layer1
 10
641.246
 20
354.397
  0
VERTEX
  8
Layer1
 10
641.262
 20
354.354
  0
VERTEX
  8
Layer1
 10
641.28
 20
354.313
  0
VERTEX
  8
Layer1
 10
641.301
 20
354.272
  0
VERTEX
  8
Layer1
 10
641.325
 20
354.233
  0
VERTEX
  8
Layer1
 10
641.35
 20
354.196
  0
VERTEX
  8
Layer1
 10
641.379
 20
354.16
  0
VERTEX
  8
Layer1
 10
641.409
 20
354.126
  0
VERTEX
  8
Layer1
 10
641.442
 20
354.095
  0
VERTEX
  8
Layer1
 10
641.476
 20
354.065
  0
VERTEX
  8
Layer1
 10
641.512
 20
354.037
  0
VERTEX
  8
Layer1
 10
641.55
 20
354.012
  0
VERTEX
  8
Layer1
 10
641.59
 20
353.99
  0
VERTEX
  8
Layer1
 10
641.63
 20
353.97
  0
VERTEX
  8
Layer1
 10
641.672
 20
353.952
  0
VERTEX
  8
Layer1
 10
641.715
 20
353.937
  0
VERTEX
  8
Layer1
 10
641.759
 20
353.925
  0
VERTEX
  8
Layer1
 10
641.804
 20
353.916
  0
VERTEX
  8
Layer1
 10
641.849
 20
353.91
  0
VERTEX
  8
Layer1
 10
641.894
 20
353.906
  0
VERTEX
  8
Layer1
 10
641.94
 20
353.906
  0
VERTEX
  8
Layer1
 10
641.985
 20
353.908
  0
VERTEX
  8
Layer1
 10
642.03
 20
353.913
  0
VERTEX
  8
Layer1
 10
642.075
 20
353.921
  0
VERTEX
  8
Layer1
 10
642.119
 20
353.932
  0
VERTEX
  8
Layer1
 10
642.163
 20
353.946
  0
VERTEX
  8
Layer1
 10
642.205
 20
353.962
  0
VERTEX
  8
Layer1
 10
642.247
 20
353.982
  0
VERTEX
  8
Layer1
 10
642.287
 20
354.003
  0
VERTEX
  8
Layer1
 10
642.325
 20
354.027
  0
VERTEX
  8
Layer1
 10
642.362
 20
354.054
  0
VERTEX
  8
Layer1
 10
642.397
 20
354.083
  0
SEQEND
  0
LINE
  8
Layer1
  6
CONTINUOUS
 62
7
 10
645.142
 20
355.329
 11
645.142
 21
352.206
  0
LINE
  8
Layer1
  6
CONTINUOUS
 62
7
 10
651.053
 20
355.329
 11
651.053
 21
352.206
  0
LINE
  8
Layer1
  6
CONTINUOUS
 62
7
 10
645.948
 20
342.054
 11
650.336
 21
342.054
  0
LINE
  8
Layer1
  6
CONTINUOUS
 62
7
 10
645.142
 20
342.602
 11
651.142
 21
342.602
  0
LINE
  8
Layer1
  6
CONTINUOUS
 62
7
 10
645.948
 20
342.054
 11
645.142
 21
342.602
  0
LINE
  8
Layer1
  6
CONTINUOUS
 62
7
 10
650.336
 20
342.054
 11
651.142
 21
342.602
  0
LINE
  8
Layer1
  6
CONTINUOUS
 62
7
 10
653.254
 20
348.474
 11
653.254
 21
351.561
  0
LINE
  8
Layer1
  6
CONTINUOUS
 62
7
 10
653.254
 20
351.561
 11
652.135
 21
352.206
  0
LINE
  8
Layer1
  6
CONTINUOUS
 62
7
 10
652.135
 20
352.206
 11
644.233
 21
352.206
  0
LINE
  8
Layer1
  6
CONTINUOUS
 62
7
 10
644.233
 20
352.206
 11
643.114
 21
351.561
  0
LINE
  8
Layer1
  6
CONTINUOUS
 62
7
 10
643.114
 20
351.561
 11
643.114
 21
348.474
  0
LINE
  8
Layer1
  6
CONTINUOUS
 62
7
 10
650.718
 20
348.474
 11
650.718
 21
351.561
  0
LINE
  8
Layer1
  6
CONTINUOUS
 62
7
 10
645.65
 20
348.474
 11
645.65
 21
351.561
  0
POLYLINE
  8
Layer1
  6
CONTINUOUS
 62
7
 66
1
 10
0
 20
0
 30
0
  0
VERTEX
  8
Layer1
 10
650.719
 20
351.561
  0
VERTEX
  8
Layer1
 10
650.616
 20
351.592
  0
VERTEX
  8
Layer1
 10
650.513
 20
351.623
  0
VERTEX
  8
Layer1
 10
650.41
 20
351.652
  0
VERTEX
  8
Layer1
 10
650.307
 20
351.68
  0
VERTEX
  8
Layer1
 10
650.203
 20
351.706
  0
VERTEX
  8
Layer1
 10
650.098
 20
351.731
  0
VERTEX
  8
Layer1
 10
649.994
 20
351.755
  0
VERTEX
  8
Layer1
 10
649.889
 20
351.778
  0
VERTEX
  8
Layer1
 10
649.784
 20
351.799
  0
VERTEX
  8
Layer1
 10
649.678
 20
351.819
  0
VERTEX
  8
Layer1
 10
649.572
 20
351.837
  0
VERTEX
  8
Layer1
 10
649.466
 20
351.854
  0
VERTEX
  8
Layer1
 10
649.36
 20
351.87
  0
VERTEX
  8
Layer1
 10
649.254
 20
351.884
  0
VERTEX
  8
Layer1
 10
649.148
 20
351.897
  0
VERTEX
  8
Layer1
 10
649.041
 20
351.909
  0
VERTEX
  8
Layer1
 10
648.934
 20
351.919
  0
VERTEX
  8
Layer1
 10
648.827
 20
351.928
  0
VERTEX
  8
Layer1
 10
648.72
 20
351.936
  0
VERTEX
  8
Layer1
 10
648.613
 20
351.942
  0
VERTEX
  8
Layer1
 10
648.506
 20
351.946
  0
VERTEX
  8
Layer1
 10
648.399
 20
351.95
  0
VERTEX
  8
Layer1
 10
648.291
 20
351.952
  0
VERTEX
  8
Layer1
 10
648.184
 20
351.953
  0
VERTEX
  8
Layer1
 10
648.077
 20
351.952
  0
VERTEX
  8
Layer1
 10
647.969
 20
351.95
  0
VERTEX
  8
Layer1
 10
647.862
 20
351.946
  0
VERTEX
  8
Layer1
 10
647.755
 20
351.942
  0
VERTEX
  8
Layer1
 10
647.648
 20
351.936
  0
VERTEX
  8
Layer1
 10
647.541
 20
351.928
  0
VERTEX
  8
Layer1
 10
647.434
 20
351.919
  0
VERTEX
  8
Layer1
 10
647.327
 20
351.909
  0
VERTEX
  8
Layer1
 10
647.22
 20
351.897
  0
VERTEX
  8
Layer1
 10
647.114
 20
351.884
  0
VERTEX
  8
Layer1
 10
647.008
 20
351.87
  0
VERTEX
  8
Layer1
 10
646.902
 20
351.854
  0
VERTEX
  8
Layer1
 10
646.796
 20
351.837
  0
VERTEX
  8
Layer1
 10
646.69
 20
351.819
  0
VERTEX
  8
Layer1
 10
646.584
 20
351.799
  0
VERTEX
  8
Layer1
 10
646.479
 20
351.778
  0
VERTEX
  8
Layer1
 10
646.374
 20
351.755
  0
VERTEX
  8
Layer1
 10
646.27
 20
351.731
  0
VERTEX
  8
Layer1
 10
646.165
 20
351.706
  0
VERTEX
  8
Layer1
 10
646.061
 20
351.68
  0
VERTEX
  8
Layer1
 10
645.958
 20
351.652
  0
VERTEX
  8
Layer1
 10
645.855
 20
351.623
  0
VERTEX
  8
Layer1
 10
645.752
 20
351.592
  0
VERTEX
  8
Layer1
 10
645.649
 20
351.561
  0
SEQEND
  0
POLYLINE
  8
Layer1
  6
CONTINUOUS
 62
7
 66
1
 10
0
 20
0
 30
0
  0
VERTEX
  8
Layer1
 10
653.253
 20
351.56
  0
VERTEX
  8
Layer1
 10
653.207
 20
351.592
  0
VERTEX
  8
Layer1
 10
653.159
 20
351.622
  0
VERTEX
  8
Layer1
 10
653.111
 20
351.65
  0
VERTEX
  8
Layer1
 10
653.062
 20
351.678
  0
VERTEX
  8
Layer1
 10
653.013
 20
351.704
  0
VERTEX
  8
Layer1
 10
652.962
 20
351.729
  0
VERTEX
  8
Layer1
 10
652.912
 20
351.753
  0
VERTEX
  8
Layer1
 10
652.86
 20
351.775
  0
VERTEX
  8
Layer1
 10
652.808
 20
351.797
  0
VERTEX
  8
Layer1
 10
652.756
 20
351.817
  0
VERTEX
  8
Layer1
 10
652.703
 20
351.835
  0
VERTEX
  8
Layer1
 10
652.649
 20
351.852
  0
VERTEX
  8
Layer1
 10
652.596
 20
351.868
  0
VERTEX
  8
Layer1
 10
652.541
 20
351.883
  0
VERTEX
  8
Layer1
 10
652.487
 20
351.896
  0
VERTEX
  8
Layer1
 10
652.432
 20
351.908
  0
VERTEX
  8
Layer1
 10
652.377
 20
351.918
  0
VERTEX
  8
Layer1
 10
652.321
 20
351.927
  0
VERTEX
  8
Layer1
 10
652.266
 20
351.935
  0
VERTEX
  8
Layer1
 10
652.21
 20
351.941
  0
VERTEX
  8
Layer1
 10
652.154
 20
351.946
  0
VERTEX
  8
Layer1
 10
652.098
 20
351.95
  0
VERTEX
  8
Layer1
 10
652.042
 20
351.952
  0
VERTEX
  8
Layer1
 10
651.986
 20
351.953
  0
VERTEX
  8
Layer1
 10
651.93
 20
351.952
  0
VERTEX
  8
Layer1
 10
651.874
 20
351.95
  0
VERTEX
  8
Layer1
 10
651.818
 20
351.946
  0
VERTEX
  8
Layer1
 10
651.762
 20
351.941
  0
VERTEX
  8
Layer1
 10
651.706
 20
351.935
  0
VERTEX
  8
Layer1
 10
651.65
 20
351.927
  0
VERTEX
  8
Layer1
 10
651.595
 20
351.918
  0
VERTEX
  8
Layer1
 10
651.54
 20
351.908
  0
VERTEX
  8
Layer1
 10
651.485
 20
351.896
  0
VERTEX
  8
Layer1
 10
651.431
 20
351.883
  0
VERTEX
  8
Layer1
 10
651.376
 20
351.868
  0
VERTEX
  8
Layer1
 10
651.322
 20
351.852
  0
VERTEX
  8
Layer1
 10
651.269
 20
351.835
  0
VERTEX
  8
Layer1
 10
651.216
 20
351.817
  0
VERTEX
  8
Layer1
 10
651.164
 20
351.797
  0
VERTEX
  8
Layer1
 10
651.112
 20
351.775
  0
VERTEX
  8
Layer1
 10
651.06
 20
351.753
  0
VERTEX
  8
Layer1
 10
651.009
 20
351.729
  0
VERTEX
  8
Layer1
 10
650.959
 20
351.704
  0
VERTEX
  8
Layer1
 10
650.91
 20
351.678
  0
VERTEX
  8
Layer1
 10
650.861
 20
351.65
  0
VERTEX
  8
Layer1
 10
650.813
 20
351.622
  0
VERTEX
  8
Layer1
 10
650.765
 20
351.592
  0
VERTEX
  8
Layer1
 10
650.718
 20
351.56
  0
SEQEND
  0
POLYLINE
  8
Layer1
  6
CONTINUOUS
 62
7
 66
1
 10
0
 20
0
 30
0
  0
VERTEX
  8
Layer1
 10
645.65
 20
351.56
  0
VERTEX
  8
Layer1
 10
645.603
 20
351.592
  0
VERTEX
  8
Layer1
 10
645.555
 20
351.622
  0
VERTEX
  8
Layer1
 10
645.507
 20
351.65
  0
VERTEX
  8
Layer1
 10
645.458
 20
351.678
  0
VERTEX
  8
Layer1
 10
645.409
 20
351.704
  0
VERTEX
  8
Layer1
 10
645.359
 20
351.729
  0
VERTEX
  8
Layer1
 10
645.308
 20
351.753
  0
VERTEX
  8
Layer1
 10
645.256
 20
351.775
  0
VERTEX
  8
Layer1
 10
645.204
 20
351.797
  0
VERTEX
  8
Layer1
 10
645.152
 20
351.817
  0
VERTEX
  8
Layer1
 10
645.099
 20
351.835
  0
VERTEX
  8
Layer1
 10
645.046
 20
351.852
  0
VERTEX
  8
Layer1
 10
644.992
 20
351.868
  0
VERTEX
  8
Layer1
 10
644.937
 20
351.883
  0
VERTEX
  8
Layer1
 10
644.883
 20
351.896
  0
VERTEX
  8
Layer1
 10
644.828
 20
351.908
  0
VERTEX
  8
Layer1
 10
644.773
 20
351.918
  0
VERTEX
  8
Layer1
 10
644.718
 20
351.927
  0
VERTEX
  8
Layer1
 10
644.662
 20
351.935
  0
VERTEX
  8
Layer1
 10
644.606
 20
351.941
  0
VERTEX
  8
Layer1
 10
644.55
 20
351.946
  0
VERTEX
  8
Layer1
 10
644.494
 20
351.95
  0
VERTEX
  8
Layer1
 10
644.438
 20
351.952
  0
VERTEX
  8
Layer1
 10
644.382
 20
351.953
  0
VERTEX
  8
Layer1
 10
644.326
 20
351.952
  0
VERTEX
  8
Layer1
 10
644.27
 20
351.95
  0
VERTEX
  8
Layer1
 10
644.214
 20
351.946
  0
VERTEX
  8
Layer1
 10
644.158
 20
351.941
  0
VERTEX
  8
Layer1
 10
644.102
 20
351.935
  0
VERTEX
  8
Layer1
 10
644.047
 20
351.927
  0
VERTEX
  8
Layer1
 10
643.991
 20
351.918
  0
VERTEX
  8
Layer1
 10
643.936
 20
351.908
  0
VERTEX
  8
Layer1
 10
643.881
 20
351.896
  0
VERTEX
  8
Layer1
 10
643.827
 20
351.883
  0
VERTEX
  8
Layer1
 10
643.772
 20
351.868
  0
VERTEX
  8
Layer1
 10
643.719
 20
351.852
  0
VERTEX
  8
Layer1
 10
643.665
 20
351.835
  0
VERTEX
  8
Layer1
 10
643.612
 20
351.817
  0
VERTEX
  8
Layer1
 10
643.56
 20
351.797
  0
VERTEX
  8
Layer1
 10
643.508
 20
351.775
  0
VERTEX
  8
Layer1
 10
643.456
 20
351.753
  0
VERTEX
  8
Layer1
 10
643.406
 20
351.729
  0
VERTEX
  8
Layer1
 10
643.355
 20
351.704
  0
VERTEX
  8
Layer1
 10
643.306
 20
351.678
  0
VERTEX
  8
Layer1
 10
643.257
 20
351.65
  0
VERTEX
  8
Layer1
 10
643.209
 20
351.622
  0
VERTEX
  8
Layer1
 10
643.161
 20
351.592
  0
VERTEX
  8
Layer1
 10
643.115
 20
351.56
  0
SEQEND
  0
POLYLINE
  8
Layer1
  6
CONTINUOUS
 62
7
 66
1
 10
0
 20
0
 30
0
 70
1
  0
VERTEX
  8
Layer1
 10
653.448
 20
355.316
  0
VERTEX
  8
Layer1
 10
653.444
 20
355.388
  0
VERTEX
  8
Layer1
 10
653.43
 20
355.458
  0
VERTEX
  8
Layer1
 10
653.407
 20
355.525
  0
VERTEX
  8
Layer1
 10
653.375
 20
355.589
  0
VERTEX
  8
Layer1
 10
653.336
 20
355.649
  0
VERTEX
  8
Layer1
 10
653.289
 20
355.703
  0
VERTEX
  8
Layer1
 10
653.235
 20
355.75
  0
VERTEX
  8
Layer1
 10
653.175
 20
355.789
  0
VERTEX
  8
Layer1
 10
653.111
 20
355.821
  0
VERTEX
  8
Layer1
 10
653.044
 20
355.844
  0
VERTEX
  8
Layer1
 10
652.974
 20
355.858
  0
VERTEX
  8
Layer1
 10
652.902
 20
355.862
  0
VERTEX
  8
Layer1
 10
652.831
 20
355.858
  0
VERTEX
  8
Layer1
 10
652.761
 20
355.844
  0
VERTEX
  8
Layer1
 10
652.694
 20
355.821
  0
VERTEX
  8
Layer1
 10
652.629
 20
355.789
  0
VERTEX
  8
Layer1
 10
652.57
 20
355.75
  0
VERTEX
  8
Layer1
 10
652.516
 20
355.703
  0
VERTEX
  8
Layer1
 10
652.469
 20
355.649
  0
VERTEX
  8
Layer1
 10
652.43
 20
355.589
  0
VERTEX
  8
Layer1
 10
652.398
 20
355.525
  0
VERTEX
  8
Layer1
 10
652.375
 20
355.458
  0
VERTEX
  8
Layer1
 10
652.361
 20
355.388
  0
VERTEX
  8
Layer1
 10
652.356
 20
355.316
  0
VERTEX
  8
Layer1
 10
652.361
 20
355.245
  0
VERTEX
  8
Layer1
 10
652.375
 20
355.175
  0
VERTEX
  8
Layer1
 10
652.398
 20
355.107
  0
VERTEX
  8
Layer1
 10
652.43
 20
355.043
  0
VERTEX
  8
Layer1
 10
652.469
 20
354.984
  0
VERTEX
  8
Layer1
 10
652.516
 20
354.93
  0
VERTEX
  8
Layer1
 10
652.57
 20
354.883
  0
VERTEX
  8
Layer1
 10
652.629
 20
354.844
  0
VERTEX
  8
Layer1
 10
652.694
 20
354.812
  0
VERTEX
  8
Layer1
 10
652.761
 20
354.789
  0
VERTEX
  8
Layer1
 10
652.831
 20
354.775
  0
VERTEX
  8
Layer1
 10
652.902
 20
354.77
  0
VERTEX
  8
Layer1
 10
652.974
 20
354.775
  0
VERTEX
  8
Layer1
 10
653.044
 20
354.789
  0
VERTEX
  8
Layer1
 10
653.111
 20
354.812
  0
VERTEX
  8
Layer1
 10
653.175
 20
354.844
  0
VERTEX
  8
Layer1
 10
653.235
 20
354.883
  0
VERTEX
  8
Layer1
 10
653.289
 20
354.93
  0
VERTEX
  8
Layer1
 10
653.336
 20
354.984
  0
VERTEX
  8
Layer1
 10
653.375
 20
355.043
  0
VERTEX
  8
Layer1
 10
653.407
 20
355.107
  0
VERTEX
  8
Layer1
 10
653.43
 20
355.175
  0
VERTEX
  8
Layer1
 10
653.444
 20
355.245
  0
SEQEND
  0
LINE
  8
Layer1
  6
CONTINUOUS
 62
7
 10
645.142
 20
342.602
 11
645.142
 21
348.474
  0
LINE
  8
Layer1
  6
CONTINUOUS
 62
7
 10
651.142
 20
342.602
 11
651.142
 21
348.474
  0
LINE
  8
Layer1
  6
CONTINUOUS
 62
7
 10
643.114
 20
348.474
 11
653.254
 21
348.474
  0
LINE
  8
Layer1
  6
DASHED1
 62
7
 10
673.684
 20
341.974
 11
673.684
 21
335.274
  0
LINE
  8
Layer1
  6
DASHED1
 62
7
 10
667.684
 20
341.974
 11
667.684
 21
335.274
  0
LINE
  8
Layer1
  6
CENTER1
 62
7
 10
414.395
 20
292.774
 11
428.52
 21
292.774
  0
LINE
  8
Layer1
  6
CENTER1
 62
7
 10
421.753
 20
303.014
 11
421.753
 21
285.566
  0
CIRCLE
  8
Layer1
  6
CONTINUOUS
 62
7
 10
421.753
 20
292.774
 40
5.5
  0
CIRCLE
  8
Layer1
  6
CONTINUOUS
 62
7
 10
421.753
 20
292.774
 40
5
  0
POLYLINE
  8
Layer1
  6
CONTINUOUS
 62
7
 66
1
 10
0
 20
0
 30
0
 70
1
  0
VERTEX
  8
Layer1
 10
421.753
 20
295.634
  0
VERTEX
  8
Layer1
 10
419.276
 20
294.204
  0
VERTEX
  8
Layer1
 10
419.276
 20
291.344
  0
VERTEX
  8
Layer1
 10
421.753
 20
289.914
  0
VERTEX
  8
Layer1
 10
424.23
 20
291.344
  0
VERTEX
  8
Layer1
 10
424.23
 20
294.204
  0
SEQEND
  0
CIRCLE
  8
Layer1
  6
CONTINUOUS
 62
7
 10
421.753
 20
292.774
 40
2.86
  0
LINE
  8
Layer1
  6
CENTER1
 62
7
 10
449.395
 20
327.774
 11
463.52
 21
327.774
  0
LINE
  8
Layer1
  6
CENTER1
 62
7
 10
456.753
 20
338.014
 11
456.753
 21
320.566
  0
CIRCLE
  8
Layer1
  6
CONTINUOUS
 62
7
 10
456.753
 20
327.774
 40
5.5
  0
CIRCLE
  8
Layer1
  6
CONTINUOUS
 62
7
 10
456.753
 20
327.774
 40
5
  0
POLYLINE
  8
Layer1
  6
CONTINUOUS
 62
7
 66
1
 10
0
 20
0
 30
0
 70
1
  0
VERTEX
  8
Layer1
 10
456.753
 20
330.634
  0
VERTEX
  8
Layer1
 10
454.276
 20
329.204
  0
VERTEX
  8
Layer1
 10
454.276
 20
326.344
  0
VERTEX
  8
Layer1
 10
456.753
 20
324.914
  0
VERTEX
  8
Layer1
 10
459.23
 20
326.344
  0
VERTEX
  8
Layer1
 10
459.23
 20
329.204
  0
SEQEND
  0
CIRCLE
  8
Layer1
  6
CONTINUOUS
 62
7
 10
456.753
 20
327.774
 40
2.86
  0
LINE
  8
Layer1
  6
CENTER1
 62
7
 10
414.395
 20
327.774
 11
428.52
 21
327.774
  0
LINE
  8
Layer1
  6
CENTER1
 62
7
 10
421.753
 20
338.014
 11
421.753
 21
320.566
  0
CIRCLE
  8
Layer1
  6
CONTINUOUS
 62
7
 10
421.753
 20
327.774
 40
5.5
  0
CIRCLE
  8
Layer1
  6
CONTINUOUS
 62
7
 10
421.753
 20
327.774
 40
5
  0
POLYLINE
  8
Layer1
  6
CONTINUOUS
 62
7
 66
1
 10
0
 20
0
 30
0
 70
1
  0
VERTEX
  8
Layer1
 10
421.753
 20
330.634
  0
VERTEX
  8
Layer1
 10
419.276
 20
329.204
  0
VERTEX
  8
Layer1
 10
419.276
 20
326.344
  0
VERTEX
  8
Layer1
 10
421.753
 20
324.914
  0
VERTEX
  8
Layer1
 10
424.23
 20
326.344
  0
VERTEX
  8
Layer1
 10
424.23
 20
329.204
  0
SEQEND
  0
CIRCLE
  8
Layer1
  6
CONTINUOUS
 62
7
 10
421.753
 20
327.774
 40
2.86
  0
LINE
  8
Layer1
  6
CENTER1
 62
7
 10
449.395
 20
292.774
 11
463.52
 21
292.774
  0
LINE
  8
Layer1
  6
CENTER1
 62
7
 10
456.753
 20
303.014
 11
456.753
 21
285.566
  0
CIRCLE
  8
Layer1
  6
CONTINUOUS
 62
7
 10
456.753
 20
292.774
 40
5.5
  0
CIRCLE
  8
Layer1
  6
CONTINUOUS
 62
7
 10
456.753
 20
292.774
 40
5
  0
POLYLINE
  8
Layer1
  6
CONTINUOUS
 62
7
 66
1
 10
0
 20
0
 30
0
 70
1
  0
VERTEX
  8
Layer1
 10
456.753
 20
295.634
  0
VERTEX
  8
Layer1
 10
454.276
 20
294.204
  0
VERTEX
  8
Layer1
 10
454.276
 20
291.344
  0
VERTEX
  8
Layer1
 10
456.753
 20
289.914
  0
VERTEX
  8
Layer1
 10
459.23
 20
291.344
  0
VERTEX
  8
Layer1
 10
459.23
 20
294.204
  0
SEQEND
  0
CIRCLE
  8
Layer1
  6
CONTINUOUS
 62
7
 10
456.753
 20
292.774
 40
2.86
  0
POLYLINE
  8
Layer1
  6
CONTINUOUS
 62
7
 66
1
 10
0
 20
0
 30
0
  0
VERTEX
  8
Layer1
 10
662.7
 20
348.474
  0
VERTEX
  8
Layer1
 10
662.818
 20
348.265
  0
VERTEX
  8
Layer1
 10
662.936
 20
348.057
  0
VERTEX
  8
Layer1
 10
663.052
 20
347.849
  0
VERTEX
  8
Layer1
 10
663.166
 20
347.64
  0
VERTEX
  8
Layer1
 10
663.276
 20
347.432
  0
VERTEX
  8
Layer1
 10
663.382
 20
347.224
  0
VERTEX
  8
Layer1
 10
663.483
 20
347.017
  0
VERTEX
  8
Layer1
 10
663.579
 20
346.81
  0
VERTEX
  8
Layer1
 10
663.667
 20
346.603
  0
VERTEX
  8
Layer1
 10
663.749
 20
346.396
  0
VERTEX
  8
Layer1
 10
663.821
 20
346.19
  0
VERTEX
  8
Layer1
 10
663.885
 20
345.985
  0
VERTEX
  8
Layer1
 10
663.939
 20
345.78
  0
VERTEX
  8
Layer1
 10
663.982
 20
345.576
  0
VERTEX
  8
Layer1
 10
664.014
 20
345.372
  0
VERTEX
  8
Layer1
 10
664.033
 20
345.169
  0
VERTEX
  8
Layer1
 10
664.039
 20
344.967
  0
VERTEX
  8
Layer1
 10
664.031
 20
344.766
  0
VERTEX
  8
Layer1
 10
664.007
 20
344.566
  0
VERTEX
  8
Layer1
 10
663.969
 20
344.366
  0
VERTEX
  8
Layer1
 10
663.914
 20
344.167
  0
VERTEX
  8
Layer1
 10
663.844
 20
343.97
  0
VERTEX
  8
Layer1
 10
663.762
 20
343.772
  0
VERTEX
  8
Layer1
 10
663.671
 20
343.576
  0
VERTEX
  8
Layer1
 10
663.572
 20
343.379
  0
VERTEX
  8
Layer1
 10
663.469
 20
343.183
  0
VERTEX
  8
Layer1
 10
663.363
 20
342.987
  0
VERTEX
  8
Layer1
 10
663.256
 20
342.791
  0
VERTEX
  8
Layer1
 10
663.152
 20
342.595
  0
VERTEX
  8
Layer1
 10
663.051
 20
342.398
  0
VERTEX
  8
Layer1
 10
662.958
 20
342.201
  0
VERTEX
  8
Layer1
 10
662.874
 20
342.003
  0
VERTEX
  8
Layer1
 10
662.802
 20
341.804
  0
VERTEX
  8
Layer1
 10
662.743
 20
341.605
  0
VERTEX
  8
Layer1
 10
662.7
 20
341.404
  0
VERTEX
  8
Layer1
 10
662.676
 20
341.202
  0
VERTEX
  8
Layer1
 10
662.669
 20
340.999
  0
VERTEX
  8
Layer1
 10
662.677
 20
340.794
  0
VERTEX
  8
Layer1
 10
662.699
 20
340.589
  0
VERTEX
  8
Layer1
 10
662.733
 20
340.382
  0
VERTEX
  8
Layer1
 10
662.778
 20
340.175
  0
VERTEX
  8
Layer1
 10
662.832
 20
339.966
  0
VERTEX
  8
Layer1
 10
662.894
 20
339.757
  0
VERTEX
  8
Layer1
 10
662.961
 20
339.547
  0
VERTEX
  8
Layer1
 10
663.033
 20
339.336
  0
VERTEX
  8
Layer1
 10
663.107
 20
339.125
  0
VERTEX
  8
Layer1
 10
663.182
 20
338.913
  0
VERTEX
  8
Layer1
 10
663.257
 20
338.701
  0
VERTEX
  8
Layer1
 10
663.33
 20
338.488
  0
VERTEX
  8
Layer1
 10
663.399
 20
338.275
  0
VERTEX
  8
Layer1
 10
663.462
 20
338.061
  0
VERTEX
  8
Layer1
 10
663.519
 20
337.848
  0
VERTEX
  8
Layer1
 10
663.567
 20
337.634
  0
VERTEX
  8
Layer1
 10
663.606
 20
337.42
  0
VERTEX
  8
Layer1
 10
663.637
 20
337.205
  0
VERTEX
  8
Layer1
 10
663.661
 20
336.991
  0
VERTEX
  8
Layer1
 10
663.678
 20
336.777
  0
VERTEX
  8
Layer1
 10
663.689
 20
336.562
  0
VERTEX
  8
Layer1
 10
663.696
 20
336.348
  0
VERTEX
  8
Layer1
 10
663.698
 20
336.133
  0
VERTEX
  8
Layer1
 10
663.698
 20
335.918
  0
VERTEX
  8
Layer1
 10
663.694
 20
335.704
  0
VERTEX
  8
Layer1
 10
663.69
 20
335.489
  0
VERTEX
  8
Layer1
 10
663.684
 20
335.274
  0
SEQEND
  0
LINE
  8
Layer1
  6
CONTINUOUS
 62
7
 10
643.677
 20
335.274
 11
681.184
 21
335.274
  0
POLYLINE
  8
Layer1
  6
CONTINUOUS
 62
7
 66
1
 10
0
 20
0
 30
0
  0
VERTEX
  8
Layer1
 10
633.028
 20
348.474
  0
VERTEX
  8
Layer1
 10
633.292
 20
348.414
  0
VERTEX
  8
Layer1
 10
633.555
 20
348.354
  0
VERTEX
  8
Layer1
 10
633.817
 20
348.294
  0
VERTEX
  8
Layer1
 10
634.077
 20
348.233
  0
VERTEX
  8
Layer1
 10
634.333
 20
348.171
  0
VERTEX
  8
Layer1
 10
634.584
 20
348.107
  0
VERTEX
  8
Layer1
 10
634.831
 20
348.043
  0
VERTEX
  8
Layer1
 10
635.072
 20
347.976
  0
VERTEX
  8
Layer1
 10
635.307
 20
347.908
  0
VERTEX
  8
Layer1
 10
635.534
 20
347.838
  0
VERTEX
  8
Layer1
 10
635.753
 20
347.765
  0
VERTEX
  8
Layer1
 10
635.962
 20
347.69
  0
VERTEX
  8
Layer1
 10
636.162
 20
347.612
  0
VERTEX
  8
Layer1
 10
636.351
 20
347.531
  0
VERTEX
  8
Layer1
 10
636.528
 20
347.446
  0
VERTEX
  8
Layer1
 10
636.693
 20
347.358
  0
VERTEX
  8
Layer1
 10
636.845
 20
347.266
  0
VERTEX
  8
Layer1
 10
636.983
 20
347.17
  0
VERTEX
  8
Layer1
 10
637.106
 20
347.07
  0
VERTEX
  8
Layer1
 10
637.213
 20
346.966
  0
VERTEX
  8
Layer1
 10
637.303
 20
346.856
  0
VERTEX
  8
Layer1
 10
637.376
 20
346.742
  0
VERTEX
  8
Layer1
 10
637.431
 20
346.623
  0
VERTEX
  8
Layer1
 10
637.467
 20
346.498
  0
VERTEX
  8
Layer1
 10
637.483
 20
346.367
  0
VERTEX
  8
Layer1
 10
637.478
 20
346.231
  0
VERTEX
  8
Layer1
 10
637.452
 20
346.088
  0
VERTEX
  8
Layer1
 10
637.404
 20
345.939
  0
VERTEX
  8
Layer1
 10
637.333
 20
345.784
  0
VERTEX
  8
Layer1
 10
637.244
 20
345.623
  0
VERTEX
  8
Layer1
 10
637.147
 20
345.46
  0
VERTEX
  8
Layer1
 10
637.049
 20
345.295
  0
VERTEX
  8
Layer1
 10
636.959
 20
345.132
  0
VERTEX
  8
Layer1
 10
636.884
 20
344.972
  0
VERTEX
  8
Layer1
 10
636.833
 20
344.817
  0
VERTEX
  8
Layer1
 10
636.815
 20
344.669
  0
VERTEX
  8
Layer1
 10
636.829
 20
344.529
  0
VERTEX
  8
Layer1
 10
636.873
 20
344.395
  0
VERTEX
  8
Layer1
 10
636.943
 20
344.267
  0
VERTEX
  8
Layer1
 10
637.038
 20
344.144
  0
VERTEX
  8
Layer1
 10
637.154
 20
344.025
  0
VERTEX
  8
Layer1
 10
637.288
 20
343.909
  0
VERTEX
  8
Layer1
 10
637.437
 20
343.796
  0
VERTEX
  8
Layer1
 10
637.599
 20
343.684
  0
VERTEX
  8
Layer1
 10
637.771
 20
343.573
  0
VERTEX
  8
Layer1
 10
637.949
 20
343.462
  0
VERTEX
  8
Layer1
 10
638.13
 20
343.35
  0
VERTEX
  8
Layer1
 10
638.313
 20
343.236
  0
VERTEX
  8
Layer1
 10
638.493
 20
343.119
  0
VERTEX
  8
Layer1
 10
638.669
 20
342.999
  0
VERTEX
  8
Layer1
 10
638.836
 20
342.875
  0
VERTEX
  8
Layer1
 10
638.993
 20
342.745
  0
VERTEX
  8
Layer1
 10
639.136
 20
342.61
  0
VERTEX
  8
Layer1
 10
639.262
 20
342.468
  0
VERTEX
  8
Layer1
 10
639.371
 20
342.319
  0
VERTEX
  8
Layer1
 10
639.465
 20
342.164
  0
VERTEX
  8
Layer1
 10
639.545
 20
342.003
  0
VERTEX
  8
Layer1
 10
639.614
 20
341.838
  0
VERTEX
  8
Layer1
 10
639.674
 20
341.669
  0
VERTEX
  8
Layer1
 10
639.726
 20
341.498
  0
VERTEX
  8
Layer1
 10
639.774
 20
341.324
  0
VERTEX
  8
Layer1
 10
639.818
 20
341.148
  0
VERTEX
  8
Layer1
 10
639.86
 20
340.972
  0
VERTEX
  8
Layer1
 10
639.899
 20
340.795
  0
VERTEX
  8
Layer1
 10
639.934
 20
340.618
  0
VERTEX
  8
Layer1
 10
639.966
 20
340.439
  0
VERTEX
  8
Layer1
 10
639.994
 20
340.261
  0
VERTEX
  8
Layer1
 10
640.018
 20
340.082
  0
VERTEX
  8
Layer1
 10
640.037
 20
339.904
  0
VERTEX
  8
Layer1
 10
640.051
 20
339.725
  0
VERTEX
  8
Layer1
 10
640.06
 20
339.547
  0
VERTEX
  8
Layer1
 10
640.063
 20
339.369
  0
VERTEX
  8
Layer1
 10
640.061
 20
339.192
  0
VERTEX
  8
Layer1
 10
640.052
 20
339.016
  0
VERTEX
  8
Layer1
 10
640.037
 20
338.84
  0
VERTEX
  8
Layer1
 10
640.016
 20
338.665
  0
VERTEX
  8
Layer1
 10
639.989
 20
338.491
  0
VERTEX
  8
Layer1
 10
639.957
 20
338.318
  0
VERTEX
  8
Layer1
 10
639.92
 20
338.145
  0
VERTEX
  8
Layer1
 10
639.879
 20
337.973
  0
VERTEX
  8
Layer1
 10
639.832
 20
337.802
  0
VERTEX
  8
Layer1
 10
639.782
 20
337.631
  0
VERTEX
  8
Layer1
 10
639.728
 20
337.46
  0
VERTEX
  8
Layer1
 10
639.67
 20
337.29
  0
VERTEX
  8
Layer1
 10
639.609
 20
337.121
  0
VERTEX
  8
Layer1
 10
639.544
 20
336.952
  0
VERTEX
  8
Layer1
 10
639.477
 20
336.783
  0
VERTEX
  8
Layer1
 10
639.408
 20
336.614
  0
VERTEX
  8
Layer1
 10
639.336
 20
336.446
  0
VERTEX
  8
Layer1
 10
639.262
 20
336.278
  0
VERTEX
  8
Layer1
 10
639.186
 20
336.111
  0
VERTEX
  8
Layer1
 10
639.109
 20
335.943
  0
VERTEX
  8
Layer1
 10
639.031
 20
335.776
  0
VERTEX
  8
Layer1
 10
638.953
 20
335.608
  0
VERTEX
  8
Layer1
 10
638.873
 20
335.441
  0
VERTEX
  8
Layer1
 10
638.793
 20
335.274
  0
SEQEND
  0
LINE
  8
Layer1
  6
CONTINUOUS
 62
7
 10
637.305
 20
346.213
 11
639.567
 21
348.474
  0
LINE
  8
Layer1
  6
CONTINUOUS
 62
7
 10
635.253
 20
348.16
 11
635.567
 21
348.474
  0
LINE
  8
Layer1
  6
CONTINUOUS
 62
7
 10
638.305
 20
343.212
 11
643.567
 21
348.474
  0
LINE
  8
Layer1
  6
CONTINUOUS
 62
7
 10
640.367
 20
341.274
 11
645.142
 21
346.05
  0
LINE
  8
Layer1
  6
CONTINUOUS
 62
7
 10
644.367
 20
341.274
 11
645.142
 21
342.05
  0
LINE
  8
Layer1
  6
CONTINUOUS
 62
7
 10
651.184
 20
344.091
 11
655.567
 21
348.474
  0
LINE
  8
Layer1
  6
CONTINUOUS
 62
7
 10
652.367
 20
341.274
 11
659.567
 21
348.474
  0
LINE
  8
Layer1
  6
CONTINUOUS
 62
7
 10
656.367
 20
341.274
 11
662.974
 21
347.881
  0
LINE
  8
Layer1
  6
CONTINUOUS
 62
7
 10
660.074
 20
340.981
 11
663.953
 21
344.86
  0
LINE
  8
Layer1
  6
CONTINUOUS
 62
7
 10
660.684
 20
337.591
 11
662.893
 21
339.8
  0
LINE
  8
Layer1
  6
CONTINUOUS
 62
7
 10
662.367
 20
335.274
 11
663.636
 21
336.543
  0
LINE
  8
Layer1
  6
PHANTOM1
 62
7
 10
684.177
 20
335.274
 11
704.327
 21
300.374
  0
TEXT
  8
Layer1
 62
7
 10
578.329
 20
253.462
 72
1
 11
578.329
 21
253.462
 40
8
 41
1
  1
20ストローク
  0
LINE
  8
Layer1
  6
CONTINUOUS
 62
7
 10
615.183
 20
334.274
 11
614.184
 21
335.274
  0
LINE
  8
Layer1
  6
CONTINUOUS
 62
7
 10
615.184
 20
286.274
 11
614.184
 21
285.274
  0
TEXT
  8
Layer1
 62
7
 10
389.253
 20
402.774
 72
1
 11
389.253
 21
402.774
 40
8
 41
1
 50
90
  1
 15 
  0
LINE
  8
Layer1
  6
CONTINUOUS
 62
7
 10
400.253
 20
395.274
 11
387.253
 21
395.274
  0
LINE
  8
Layer1
  6
CONTINUOUS
 62
7
 10
399.253
 20
410.274
 11
387.253
 21
410.274
  0
POLYLINE
  8
Layer1
  6
CONTINUOUS
 62
7
 66
1
 10
0
 20
0
 30
0
  0
VERTEX
  8
Layer1
 10
389.253
 20
385.274
  0
VERTEX
  8
Layer1
 10
389.253
 20
395.274
  0
SEQEND
  0
POLYLINE
  8
Layer1
  6
CONTINUOUS
 62
7
 66
1
 10
0
 20
0
 30
0
 70
1
  0
VERTEX
  8
Layer1
 10
388.218
 20
391.41
  0
VERTEX
  8
Layer1
 10
389.253
 20
395.274
  0
VERTEX
  8
Layer1
 10
390.288
 20
391.41
  0
SEQEND
  0
POLYLINE
  8
Layer1
  6
CONTINUOUS
 62
7
 66
1
 10
0
 20
0
 30
0
  0
VERTEX
  8
Layer1
 10
389.253
 20
420.274
  0
VERTEX
  8
Layer1
 10
389.253
 20
410.274
  0
SEQEND
  0
POLYLINE
  8
Layer1
  6
CONTINUOUS
 62
7
 66
1
 10
0
 20
0
 30
0
 70
1
  0
VERTEX
  8
Layer1
 10
390.288
 20
414.138
  0
VERTEX
  8
Layer1
 10
389.253
 20
410.274
  0
VERTEX
  8
Layer1
 10
388.218
 20
414.138
  0
SEQEND
  0
LINE
  8
Layer1
  6
CONTINUOUS
 62
7
 10
389.253
 20
395.274
 11
389.253
 21
410.274
  0
TEXT
  8
Layer1
 62
7
 10
377.634
 20
367.774
 72
1
 11
377.634
 21
367.774
 40
8
 41
1
 50
90
  1
 85 
  0
LINE
  8
Layer1
  6
CONTINUOUS
 62
7
 10
399.253
 20
410.274
 11
375.634
 21
410.274
  0
LINE
  8
Layer1
  6
CONTINUOUS
 62
7
 10
416.753
 20
325.274
 11
375.634
 21
325.274
  0
POLYLINE
  8
Layer1
  6
CONTINUOUS
 62
7
 66
1
 10
0
 20
0
 30
0
  0
VERTEX
  8
Layer1
 10
377.634
 20
410.274
  0
VERTEX
  8
Layer1
 10
377.634
 20
325.274
  0
SEQEND
  0
POLYLINE
  8
Layer1
  6
CONTINUOUS
 62
7
 66
1
 10
0
 20
0
 30
0
 70
1
  0
VERTEX
  8
Layer1
 10
376.599
 20
406.41
  0
VERTEX
  8
Layer1
 10
377.634
 20
410.274
  0
VERTEX
  8
Layer1
 10
378.67
 20
406.41
  0
SEQEND
  0
POLYLINE
  8
Layer1
  6
CONTINUOUS
 62
7
 66
1
 10
0
 20
0
 30
0
 70
1
  0
VERTEX
  8
Layer1
 10
378.67
 20
329.138
  0
VERTEX
  8
Layer1
 10
377.634
 20
325.274
  0
VERTEX
  8
Layer1
 10
376.599
 20
329.138
  0
SEQEND
  0
TEXT
  8
Layer1
 62
7
 10
510.103
 20
272.774
 72
1
 11
510.103
 21
272.774
 40
8
 41
1
 50
90
  1
15
  0
LINE
  8
Layer1
  6
CONTINUOUS
 62
7
 10
496.253
 20
280.274
 11
512.103
 21
280.274
  0
LINE
  8
Layer1
  6
CONTINUOUS
 62
7
 10
495.478
 20
265.274
 11
512.103
 21
265.274
  0
POLYLINE
  8
Layer1
  6
CONTINUOUS
 62
7
 66
1
 10
0
 20
0
 30
0
  0
VERTEX
  8
Layer1
 10
510.103
 20
280.274
  0
VERTEX
  8
Layer1
 10
510.103
 20
265.274
  0
SEQEND
  0
POLYLINE
  8
Layer1
  6
CONTINUOUS
 62
7
 66
1
 10
0
 20
0
 30
0
 70
1
  0
VERTEX
  8
Layer1
 10
509.068
 20
276.41
  0
VERTEX
  8
Layer1
 10
510.103
 20
280.274
  0
VERTEX
  8
Layer1
 10
511.138
 20
276.41
  0
SEQEND
  0
POLYLINE
  8
Layer1
  6
CONTINUOUS
 62
7
 66
1
 10
0
 20
0
 30
0
 70
1
  0
VERTEX
  8
Layer1
 10
511.138
 20
269.138
  0
VERTEX
  8
Layer1
 10
510.103
 20
265.274
  0
VERTEX
  8
Layer1
 10
509.068
 20
269.138
  0
SEQEND
  0
TEXT
  8
Layer1
 62
7
 10
497.166
 20
310.274
 72
1
 11
497.166
 21
310.274
 40
8
 41
1
 50
90
  1
 35 
  0
LINE
  8
Layer1
  6
CONTINUOUS
 62
7
 10
463.52
 20
327.774
 11
499.166
 21
327.774
  0
LINE
  8
Layer1
  6
CONTINUOUS
 62
7
 10
463.52
 20
292.774
 11
499.166
 21
292.774
  0
POLYLINE
  8
Layer1
  6
CONTINUOUS
 62
7
 66
1
 10
0
 20
0
 30
0
  0
VERTEX
  8
Layer1
 10
497.166
 20
327.774
  0
VERTEX
  8
Layer1
 10
497.166
 20
292.774
  0
SEQEND
  0
POLYLINE
  8
Layer1
  6
CONTINUOUS
 62
7
 66
1
 10
0
 20
0
 30
0
 70
1
  0
VERTEX
  8
Layer1
 10
496.13
 20
323.91
  0
VERTEX
  8
Layer1
 10
497.166
 20
327.774
  0
VERTEX
  8
Layer1
 10
498.201
 20
323.91
  0
SEQEND
  0
POLYLINE
  8
Layer1
  6
CONTINUOUS
 62
7
 66
1
 10
0
 20
0
 30
0
 70
1
  0
VERTEX
  8
Layer1
 10
498.201
 20
296.638
  0
VERTEX
  8
Layer1
 10
497.166
 20
292.774
  0
VERTEX
  8
Layer1
 10
496.13
 20
296.638
  0
SEQEND
  0
TEXT
  8
Layer1
 62
7
 10
510.103
 20
310.274
 72
1
 11
510.103
 21
310.274
 40
8
 41
1
 50
90
  1
 50 
  0
LINE
  8
Layer1
  6
CONTINUOUS
 62
7
 10
462.953
 20
285.274
 11
512.103
 21
285.274
  0
LINE
  8
Layer1
  6
CONTINUOUS
 62
7
 10
478.253
 20
335.274
 11
512.103
 21
335.274
  0
POLYLINE
  8
Layer1
  6
CONTINUOUS
 62
7
 66
1
 10
0
 20
0
 30
0
  0
VERTEX
  8
Layer1
 10
510.103
 20
285.274
  0
VERTEX
  8
Layer1
 10
510.103
 20
335.274
  0
SEQEND
  0
POLYLINE
  8
Layer1
  6
CONTINUOUS
 62
7
 66
1
 10
0
 20
0
 30
0
 70
1
  0
VERTEX
  8
Layer1
 10
511.138
 20
289.138
  0
VERTEX
  8
Layer1
 10
510.103
 20
285.274
  0
VERTEX
  8
Layer1
 10
509.068
 20
289.138
  0
SEQEND
  0
POLYLINE
  8
Layer1
  6
CONTINUOUS
 62
7
 66
1
 10
0
 20
0
 30
0
 70
1
  0
VERTEX
  8
Layer1
 10
509.068
 20
331.41
  0
VERTEX
  8
Layer1
 10
510.103
 20
335.274
  0
VERTEX
  8
Layer1
 10
511.138
 20
331.41
  0
SEQEND
  0
TEXT
  8
Layer1
 62
7
 10
526.134
 20
287.774
 72
1
 11
526.134
 21
287.774
 40
8
 41
1
 50
90
  1
45
  0
LINE
  8
Layer1
  6
CONTINUOUS
 62
7
 10
484.818
 20
310.274
 11
528.134
 21
310.274
  0
LINE
  8
Layer1
  6
CONTINUOUS
 62
7
 10
510.103
 20
265.274
 11
528.134
 21
265.274
  0
POLYLINE
  8
Layer1
  6
CONTINUOUS
 62
7
 66
1
 10
0
 20
0
 30
0
  0
VERTEX
  8
Layer1
 10
526.134
 20
310.274
  0
VERTEX
  8
Layer1
 10
526.134
 20
265.274
  0
SEQEND
  0
POLYLINE
  8
Layer1
  6
CONTINUOUS
 62
7
 66
1
 10
0
 20
0
 30
0
 70
1
  0
VERTEX
  8
Layer1
 10
525.099
 20
306.41
  0
VERTEX
  8
Layer1
 10
526.134
 20
310.274
  0
VERTEX
  8
Layer1
 10
527.17
 20
306.41
  0
SEQEND
  0
POLYLINE
  8
Layer1
  6
CONTINUOUS
 62
7
 66
1
 10
0
 20
0
 30
0
 70
1
  0
VERTEX
  8
Layer1
 10
527.17
 20
269.138
  0
VERTEX
  8
Layer1
 10
526.134
 20
265.274
  0
VERTEX
  8
Layer1
 10
525.099
 20
269.138
  0
SEQEND
  0
TEXT
  8
Layer1
 62
7
 10
534.317
 20
288.243
 72
1
 11
534.317
 21
288.243
 40
6
 41
1
 50
90
  1
(中心間距離）
  0
TEXT
  8
Layer1
 62
7
 10
544.416
 20
306.774
 72
1
 11
544.416
 21
306.774
 40
8
 41
1
 50
90
  1
 83 
  0
LINE
  8
Layer1
  6
CONTINUOUS
 62
7
 10
477.753
 20
348.274
 11
546.416
 21
348.274
  0
LINE
  8
Layer1
  6
CONTINUOUS
 62
7
 10
526.134
 20
265.274
 11
546.416
 21
265.274
  0
POLYLINE
  8
Layer1
  6
CONTINUOUS
 62
7
 66
1
 10
0
 20
0
 30
0
  0
VERTEX
  8
Layer1
 10
544.416
 20
348.274
  0
VERTEX
  8
Layer1
 10
544.416
 20
265.274
  0
SEQEND
  0
POLYLINE
  8
Layer1
  6
CONTINUOUS
 62
7
 66
1
 10
0
 20
0
 30
0
 70
1
  0
VERTEX
  8
Layer1
 10
543.38
 20
344.41
  0
VERTEX
  8
Layer1
 10
544.416
 20
348.274
  0
VERTEX
  8
Layer1
 10
545.451
 20
344.41
  0
SEQEND
  0
POLYLINE
  8
Layer1
  6
CONTINUOUS
 62
7
 66
1
 10
0
 20
0
 30
0
 70
1
  0
VERTEX
  8
Layer1
 10
545.451
 20
269.138
  0
VERTEX
  8
Layer1
 10
544.416
 20
265.274
  0
VERTEX
  8
Layer1
 10
543.38
 20
269.138
  0
SEQEND
  0
TEXT
  8
Layer1
 62
7
 10
439.253
 20
254.774
 72
1
 11
439.253
 21
254.774
 40
8
 41
1
  1
 35 
  0
LINE
  8
Layer1
  6
CONTINUOUS
 62
7
 10
421.753
 20
285.166
 11
421.753
 21
252.774
  0
LINE
  8
Layer1
  6
CONTINUOUS
 62
7
 10
456.753
 20
285.166
 11
456.753
 21
252.774
  0
POLYLINE
  8
Layer1
  6
CONTINUOUS
 62
7
 66
1
 10
0
 20
0
 30
0
  0
VERTEX
  8
Layer1
 10
421.753
 20
254.774
  0
VERTEX
  8
Layer1
 10
456.753
 20
254.774
  0
SEQEND
  0
POLYLINE
  8
Layer1
  6
CONTINUOUS
 62
7
 66
1
 10
0
 20
0
 30
0
 70
1
  0
VERTEX
  8
Layer1
 10
425.617
 20
253.739
  0
VERTEX
  8
Layer1
 10
421.753
 20
254.774
  0
VERTEX
  8
Layer1
 10
425.617
 20
255.809
  0
SEQEND
  0
POLYLINE
  8
Layer1
  6
CONTINUOUS
 62
7
 66
1
 10
0
 20
0
 30
0
 70
1
  0
VERTEX
  8
Layer1
 10
452.889
 20
255.809
  0
VERTEX
  8
Layer1
 10
456.753
 20
254.774
  0
VERTEX
  8
Layer1
 10
452.889
 20
253.739
  0
SEQEND
  0
TEXT
  8
Layer1
 62
7
 10
439.253
 20
242.962
 72
1
 11
439.253
 21
242.962
 40
8
 41
1
  1
50
  0
LINE
  8
Layer1
  6
CONTINUOUS
 62
7
 10
464.253
 20
286.774
 11
464.253
 21
240.962
  0
LINE
  8
Layer1
  6
CONTINUOUS
 62
7
 10
414.253
 20
286.774
 11
414.253
 21
240.962
  0
POLYLINE
  8
Layer1
  6
CONTINUOUS
 62
7
 66
1
 10
0
 20
0
 30
0
  0
VERTEX
  8
Layer1
 10
464.253
 20
242.962
  0
VERTEX
  8
Layer1
 10
414.253
 20
242.962
  0
SEQEND
  0
POLYLINE
  8
Layer1
  6
CONTINUOUS
 62
7
 66
1
 10
0
 20
0
 30
0
 70
1
  0
VERTEX
  8
Layer1
 10
460.389
 20
243.997
  0
VERTEX
  8
Layer1
 10
464.253
 20
242.962
  0
VERTEX
  8
Layer1
 10
460.389
 20
241.926
  0
SEQEND
  0
POLYLINE
  8
Layer1
  6
CONTINUOUS
 62
7
 66
1
 10
0
 20
0
 30
0
 70
1
  0
VERTEX
  8
Layer1
 10
418.117
 20
241.926
  0
VERTEX
  8
Layer1
 10
414.253
 20
242.962
  0
VERTEX
  8
Layer1
 10
418.117
 20
243.997
  0
SEQEND
  0
LINE
  8
Layer1
  6
CONTINUOUS
 62
7
 10
737.177
 20
320.774
 11
744.677
 21
320.774
  0
LINE
  8
Layer1
  6
CONTINUOUS
 62
7
 10
737.177
 20
333.774
 11
744.677
 21
333.774
  0
LINE
  8
Layer1
  6
CONTINUOUS
 62
7
 10
744.677
 20
320.774
 11
744.677
 21
333.774
  0
LINE
  8
Layer1
  6
CONTINUOUS
 62
7
 10
745.177
 20
321.274
 11
745.177
 21
333.274
  0
LINE
  8
Layer1
  6
CONTINUOUS
 62
7
 10
744.677
 20
320.774
 11
745.177
 21
321.274
  0
LINE
  8
Layer1
  6
CONTINUOUS
 62
7
 10
744.677
 20
333.774
 11
745.177
 21
333.274
  0
LINE
  8
Layer1
  6
CONTINUOUS
 62
7
 10
737.177
 20
333.774
 11
737.177
 21
320.774
  0
LINE
  8
Layer1
  6
CONTINUOUS
 62
7
 10
737.754
 20
332.774
 11
744.1
 21
332.774
  0
LINE
  8
Layer1
  6
CONTINUOUS
 62
7
 10
738.331
 20
331.774
 11
743.523
 21
331.774
  0
LINE
  8
Layer1
  6
CONTINUOUS
 62
7
 10
738.908
 20
330.774
 11
742.946
 21
330.774
  0
LINE
  8
Layer1
  6
CONTINUOUS
 62
7
 10
739.485
 20
329.774
 11
742.37
 21
329.774
  0
LINE
  8
Layer1
  6
CONTINUOUS
 62
7
 10
737.177
 20
301.774
 11
744.677
 21
301.774
  0
LINE
  8
Layer1
  6
CONTINUOUS
 62
7
 10
737.177
 20
314.774
 11
744.677
 21
314.774
  0
LINE
  8
Layer1
  6
CONTINUOUS
 62
7
 10
744.677
 20
301.774
 11
744.677
 21
314.774
  0
LINE
  8
Layer1
  6
CONTINUOUS
 62
7
 10
745.177
 20
302.274
 11
745.177
 21
314.274
  0
LINE
  8
Layer1
  6
CONTINUOUS
 62
7
 10
744.677
 20
301.774
 11
745.177
 21
302.274
  0
LINE
  8
Layer1
  6
CONTINUOUS
 62
7
 10
744.677
 20
314.774
 11
745.177
 21
314.274
  0
LINE
  8
Layer1
  6
CONTINUOUS
 62
7
 10
737.177
 20
314.774
 11
737.177
 21
301.774
  0
LINE
  8
Layer1
  6
CONTINUOUS
 62
7
 10
737.754
 20
313.774
 11
744.1
 21
313.774
  0
LINE
  8
Layer1
  6
CONTINUOUS
 62
7
 10
738.331
 20
312.774
 11
743.523
 21
312.774
  0
LINE
  8
Layer1
  6
CONTINUOUS
 62
7
 10
738.908
 20
311.774
 11
742.946
 21
311.774
  0
LINE
  8
Layer1
  6
CONTINUOUS
 62
7
 10
739.485
 20
310.774
 11
742.37
 21
310.774
  0
LINE
  8
Layer1
  6
CONTINUOUS
 62
7
 10
737.177
 20
282.774
 11
744.677
 21
282.774
  0
LINE
  8
Layer1
  6
CONTINUOUS
 62
7
 10
737.177
 20
295.774
 11
744.677
 21
295.774
  0
LINE
  8
Layer1
  6
CONTINUOUS
 62
7
 10
744.677
 20
282.774
 11
744.677
 21
295.774
  0
LINE
  8
Layer1
  6
CONTINUOUS
 62
7
 10
745.177
 20
283.274
 11
745.177
 21
295.274
  0
LINE
  8
Layer1
  6
CONTINUOUS
 62
7
 10
744.677
 20
282.774
 11
745.177
 21
283.274
  0
LINE
  8
Layer1
  6
CONTINUOUS
 62
7
 10
744.677
 20
295.774
 11
745.177
 21
295.274
  0
LINE
  8
Layer1
  6
CONTINUOUS
 62
7
 10
737.177
 20
295.774
 11
737.177
 21
282.774
  0
LINE
  8
Layer1
  6
CONTINUOUS
 62
7
 10
737.754
 20
294.774
 11
744.1
 21
294.774
  0
LINE
  8
Layer1
  6
CONTINUOUS
 62
7
 10
738.331
 20
293.774
 11
743.523
 21
293.774
  0
LINE
  8
Layer1
  6
CONTINUOUS
 62
7
 10
738.908
 20
292.774
 11
742.946
 21
292.774
  0
LINE
  8
Layer1
  6
CONTINUOUS
 62
7
 10
739.485
 20
291.774
 11
742.37
 21
291.774
  0
LINE
  8
Layer1
  6
DASHED1
 62
7
 10
725.22
 20
289.274
 11
736.686
 21
289.274
  0
LINE
  8
Layer1
  6
DASHED1
 62
7
 10
725.177
 20
297.274
 11
737.177
 21
297.274
  0
LINE
  8
Layer1
  6
DASHED1
 62
7
 10
725.177
 20
297.774
 11
737.177
 21
297.774
  0
LINE
  8
Layer1
  6
DASHED1
 62
7
 10
725.22
 20
288.774
 11
736.686
 21
288.774
  0
TEXT
  8
Layer1
 62
7
 10
763.124
 20
272.774
 72
1
 11
763.124
 21
272.774
 40
8
 41
1
 50
90
  1
 15 
  0
LINE
  8
Layer1
  6
CONTINUOUS
 62
7
 10
724.177
 20
265.274
 11
765.124
 21
265.274
  0
LINE
  8
Layer1
  6
CONTINUOUS
 62
7
 10
736.177
 20
280.274
 11
765.124
 21
280.274
  0
POLYLINE
  8
Layer1
  6
CONTINUOUS
 62
7
 66
1
 10
0
 20
0
 30
0
  0
VERTEX
  8
Layer1
 10
763.124
 20
255.274
  0
VERTEX
  8
Layer1
 10
763.124
 20
265.274
  0
SEQEND
  0
POLYLINE
  8
Layer1
  6
CONTINUOUS
 62
7
 66
1
 10
0
 20
0
 30
0
 70
1
  0
VERTEX
  8
Layer1
 10
762.088
 20
261.41
  0
VERTEX
  8
Layer1
 10
763.124
 20
265.274
  0
VERTEX
  8
Layer1
 10
764.159
 20
261.41
  0
SEQEND
  0
POLYLINE
  8
Layer1
  6
CONTINUOUS
 62
7
 66
1
 10
0
 20
0
 30
0
  0
VERTEX
  8
Layer1
 10
763.124
 20
290.274
  0
VERTEX
  8
Layer1
 10
763.124
 20
280.274
  0
SEQEND
  0
POLYLINE
  8
Layer1
  6
CONTINUOUS
 62
7
 66
1
 10
0
 20
0
 30
0
 70
1
  0
VERTEX
  8
Layer1
 10
764.159
 20
284.138
  0
VERTEX
  8
Layer1
 10
763.124
 20
280.274
  0
VERTEX
  8
Layer1
 10
762.088
 20
284.138
  0
SEQEND
  0
LINE
  8
Layer1
  6
CONTINUOUS
 62
7
 10
763.124
 20
265.274
 11
763.124
 21
280.274
  0
TEXT
  8
Layer1
 62
7
 10
763.124
 20
286.774
 72
1
 11
763.124
 21
286.774
 40
8
 41
1
 50
90
  1
 13 
  0
LINE
  8
Layer1
  6
CONTINUOUS
 62
7
 10
751.592
 20
293.274
 11
765.124
 21
293.274
  0
POLYLINE
  8
Layer1
  6
CONTINUOUS
 62
7
 66
1
 10
0
 20
0
 30
0
  0
VERTEX
  8
Layer1
 10
763.124
 20
270.274
  0
VERTEX
  8
Layer1
 10
763.124
 20
280.274
  0
SEQEND
  0
POLYLINE
  8
Layer1
  6
CONTINUOUS
 62
7
 66
1
 10
0
 20
0
 30
0
 70
1
  0
VERTEX
  8
Layer1
 10
762.088
 20
276.41
  0
VERTEX
  8
Layer1
 10
763.124
 20
280.274
  0
VERTEX
  8
Layer1
 10
764.159
 20
276.41
  0
SEQEND
  0
POLYLINE
  8
Layer1
  6
CONTINUOUS
 62
7
 66
1
 10
0
 20
0
 30
0
  0
VERTEX
  8
Layer1
 10
763.124
 20
303.274
  0
VERTEX
  8
Layer1
 10
763.124
 20
293.274
  0
SEQEND
  0
POLYLINE
  8
Layer1
  6
CONTINUOUS
 62
7
 66
1
 10
0
 20
0
 30
0
 70
1
  0
VERTEX
  8
Layer1
 10
764.159
 20
297.138
  0
VERTEX
  8
Layer1
 10
763.124
 20
293.274
  0
VERTEX
  8
Layer1
 10
762.088
 20
297.138
  0
SEQEND
  0
LINE
  8
Layer1
  6
CONTINUOUS
 62
7
 10
763.124
 20
280.274
 11
763.124
 21
293.274
  0
TEXT
  8
Layer1
 62
7
 10
779.717
 20
298.774
 72
1
 11
779.717
 21
298.774
 40
8
 41
1
 50
90
  1
 19 
  0
LINE
  8
Layer1
  6
CONTINUOUS
 62
7
 10
739.585
 20
289.274
 11
781.717
 21
289.274
  0
LINE
  8
Layer1
  6
CONTINUOUS
 62
7
 10
749.364
 20
308.274
 11
781.717
 21
308.274
  0
POLYLINE
  8
Layer1
  6
CONTINUOUS
 62
7
 66
1
 10
0
 20
0
 30
0
  0
VERTEX
  8
Layer1
 10
779.717
 20
289.274
  0
VERTEX
  8
Layer1
 10
779.717
 20
308.274
  0
SEQEND
  0
POLYLINE
  8
Layer1
  6
CONTINUOUS
 62
7
 66
1
 10
0
 20
0
 30
0
 70
1
  0
VERTEX
  8
Layer1
 10
780.753
 20
293.138
  0
VERTEX
  8
Layer1
 10
779.717
 20
289.274
  0
VERTEX
  8
Layer1
 10
778.682
 20
293.138
  0
SEQEND
  0
POLYLINE
  8
Layer1
  6
CONTINUOUS
 62
7
 66
1
 10
0
 20
0
 30
0
 70
1
  0
VERTEX
  8
Layer1
 10
778.682
 20
304.41
  0
VERTEX
  8
Layer1
 10
779.717
 20
308.274
  0
VERTEX
  8
Layer1
 10
780.753
 20
304.41
  0
SEQEND
  0
TEXT
  8
Layer1
 62
7
 10
779.717
 20
317.774
 72
1
 11
779.717
 21
317.774
 40
8
 41
1
 50
90
  1
 19 
  0
LINE
  8
Layer1
  6
CONTINUOUS
 62
7
 10
750.049
 20
327.274
 11
781.717
 21
327.274
  0
POLYLINE
  8
Layer1
  6
CONTINUOUS
 62
7
 66
1
 10
0
 20
0
 30
0
  0
VERTEX
  8
Layer1
 10
779.717
 20
327.274
  0
VERTEX
  8
Layer1
 10
779.717
 20
308.274
  0
SEQEND
  0
POLYLINE
  8
Layer1
  6
CONTINUOUS
 62
7
 66
1
 10
0
 20
0
 30
0
 70
1
  0
VERTEX
  8
Layer1
 10
778.682
 20
323.41
  0
VERTEX
  8
Layer1
 10
779.717
 20
327.274
  0
VERTEX
  8
Layer1
 10
780.753
 20
323.41
  0
SEQEND
  0
POLYLINE
  8
Layer1
  6
CONTINUOUS
 62
7
 66
1
 10
0
 20
0
 30
0
 70
1
  0
VERTEX
  8
Layer1
 10
780.753
 20
312.138
  0
VERTEX
  8
Layer1
 10
779.717
 20
308.274
  0
VERTEX
  8
Layer1
 10
778.682
 20
312.138
  0
SEQEND
  0
TEXT
  8
Layer1
 62
7
 10
779.717
 20
284.579
 72
1
 11
779.717
 21
284.579
 40
8
 41
1
 50
90
  1
9
  0
LINE
  8
Layer1
  6
CONTINUOUS
 62
7
 10
763.124
 20
280.274
 11
781.717
 21
280.274
  0
POLYLINE
  8
Layer1
  6
CONTINUOUS
 62
7
 66
1
 10
0
 20
0
 30
0
  0
VERTEX
  8
Layer1
 10
779.717
 20
280.274
  0
VERTEX
  8
Layer1
 10
779.717
 20
288.884
  0
SEQEND
  0
POLYLINE
  8
Layer1
  6
CONTINUOUS
 62
7
 66
1
 10
0
 20
0
 30
0
 70
1
  0
VERTEX
  8
Layer1
 10
780.753
 20
284.138
  0
VERTEX
  8
Layer1
 10
779.717
 20
280.274
  0
VERTEX
  8
Layer1
 10
778.682
 20
284.138
  0
SEQEND
  0
POLYLINE
  8
Layer1
  6
CONTINUOUS
 62
7
 66
1
 10
0
 20
0
 30
0
 70
1
  0
VERTEX
  8
Layer1
 10
778.682
 20
285.02
  0
VERTEX
  8
Layer1
 10
779.717
 20
288.884
  0
VERTEX
  8
Layer1
 10
780.753
 20
285.02
  0
SEQEND
  0
TEXT
  8
Layer1
 62
7
 10
556.311
 20
599.837
 73
3
 11
556.311
 21
599.837
 40
5
 41
1
  1
(ベース取付穴）
  0
TEXT
  8
Layer1
 62
7
 10
739.749
 20
595.274
 73
3
 11
739.749
 21
595.274
 40
5
 41
1
  1
(アッパー取付穴）
  0
TEXT
  8
Layer1
 62
7
 10
786.802
 20
312.854
 73
3
 11
786.802
 21
312.854
 40
6
 41
1
 50
90
  1
（シャットハイト）
  0
TEXT
  8
Layer1
 62
7
 10
812.682
 20
349.324
 73
3
 11
812.682
 21
349.324
 40
6
 41
1
 50
90
  1
（オープンハイト）
  0
TEXT
  8
Layer1
 62
7
 10
704.677
 20
430.243
 72
1
 11
704.677
 21
430.243
 40
8
 41
1
  1
 41 
  0
LINE
  8
Layer1
  6
CONTINUOUS
 62
7
 10
684.177
 20
486.502
 11
684.177
 21
428.243
  0
LINE
  8
Layer1
  6
CONTINUOUS
 62
7
 10
725.177
 20
486.502
 11
725.177
 21
428.243
  0
POLYLINE
  8
Layer1
  6
CONTINUOUS
 62
7
 66
1
 10
0
 20
0
 30
0
  0
VERTEX
  8
Layer1
 10
684.177
 20
430.243
  0
VERTEX
  8
Layer1
 10
725.177
 20
430.243
  0
SEQEND
  0
POLYLINE
  8
Layer1
  6
CONTINUOUS
 62
7
 66
1
 10
0
 20
0
 30
0
 70
1
  0
VERTEX
  8
Layer1
 10
688.041
 20
429.207
  0
VERTEX
  8
Layer1
 10
684.177
 20
430.243
  0
VERTEX
  8
Layer1
 10
688.041
 20
431.278
  0
SEQEND
  0
POLYLINE
  8
Layer1
  6
CONTINUOUS
 62
7
 66
1
 10
0
 20
0
 30
0
 70
1
  0
VERTEX
  8
Layer1
 10
721.314
 20
431.278
  0
VERTEX
  8
Layer1
 10
725.177
 20
430.243
  0
VERTEX
  8
Layer1
 10
721.314
 20
429.207
  0
SEQEND
  0
TEXT
  8
Layer1
 62
7
 10
721.225
 20
448.143
 72
1
 11
721.225
 21
448.143
 40
8
 41
1
  1
 8 
  0
LINE
  8
Layer1
  6
CONTINUOUS
 62
7
 10
692.177
 20
481.199
 11
692.177
 21
446.243
  0
POLYLINE
  8
Layer1
  6
CONTINUOUS
 62
7
 66
1
 10
0
 20
0
 30
0
  0
VERTEX
  8
Layer1
 10
702.177
 20
448.243
  0
VERTEX
  8
Layer1
 10
692.177
 20
448.243
  0
SEQEND
  0
POLYLINE
  8
Layer1
  6
CONTINUOUS
 62
7
 66
1
 10
0
 20
0
 30
0
 70
1
  0
VERTEX
  8
Layer1
 10
696.041
 20
447.207
  0
VERTEX
  8
Layer1
 10
692.177
 20
448.243
  0
VERTEX
  8
Layer1
 10
696.041
 20
449.278
  0
SEQEND
  0
POLYLINE
  8
Layer1
  6
CONTINUOUS
 62
7
 66
1
 10
0
 20
0
 30
0
  0
VERTEX
  8
Layer1
 10
725.177
 20
448.243
  0
VERTEX
  8
Layer1
 10
735.177
 20
448.243
  0
SEQEND
  0
POLYLINE
  8
Layer1
  6
CONTINUOUS
 62
7
 66
1
 10
0
 20
0
 30
0
 70
1
  0
VERTEX
  8
Layer1
 10
729.04
 20
449.278
  0
VERTEX
  8
Layer1
 10
725.177
 20
448.243
  0
VERTEX
  8
Layer1
 10
729.04
 20
447.207
  0
SEQEND
  0
LINE
  8
Layer1
  6
CONTINUOUS
 62
7
 10
725.177
 20
448.243
 11
717.177
 21
448.243
  0
TEXT
  8
Layer1
 62
7
 10
704.677
 20
448.243
 72
1
 11
704.677
 21
448.243
 40
8
 41
1
  1
 25 
  0
LINE
  8
Layer1
  6
CONTINUOUS
 62
7
 10
717.177
 20
485.502
 11
717.177
 21
446.243
  0
POLYLINE
  8
Layer1
  6
CONTINUOUS
 62
7
 66
1
 10
0
 20
0
 30
0
  0
VERTEX
  8
Layer1
 10
692.177
 20
448.243
  0
VERTEX
  8
Layer1
 10
717.177
 20
448.243
  0
SEQEND
  0
POLYLINE
  8
Layer1
  6
CONTINUOUS
 62
7
 66
1
 10
0
 20
0
 30
0
 70
1
  0
VERTEX
  8
Layer1
 10
696.041
 20
447.207
  0
VERTEX
  8
Layer1
 10
692.177
 20
448.243
  0
VERTEX
  8
Layer1
 10
696.041
 20
449.278
  0
SEQEND
  0
POLYLINE
  8
Layer1
  6
CONTINUOUS
 62
7
 66
1
 10
0
 20
0
 30
0
 70
1
  0
VERTEX
  8
Layer1
 10
713.314
 20
449.278
  0
VERTEX
  8
Layer1
 10
717.177
 20
448.243
  0
VERTEX
  8
Layer1
 10
713.314
 20
447.207
  0
SEQEND
  0
LINE
  8
Layer1
  6
CONTINUOUS
 62
7
 10
724.177
 20
567.502
 11
685.177
 21
567.502
  0
CIRCLE
  8
Layer1
  6
CONTINUOUS
 62
7
 10
692.177
 20
559.002
 40
4.5
  0
CIRCLE
  8
Layer1
  6
CONTINUOUS
 62
7
 10
717.177
 20
559.002
 40
4.5
  0
CIRCLE
  8
Layer1
  6
CONTINUOUS
 62
7
 10
717.177
 20
494.002
 40
4.5
  0
CIRCLE
  8
Layer1
  6
CONTINUOUS
 62
7
 10
692.177
 20
494.002
 40
4.5
  0
CIRCLE
  8
Layer1
  6
DASHED1
 62
7
 10
692.177
 20
559.002
 40
7
  0
CIRCLE
  8
Layer1
  6
DASHED1
 62
7
 10
717.177
 20
559.002
 40
7
  0
CIRCLE
  8
Layer1
  6
DASHED1
 62
7
 10
717.177
 20
494.002
 40
7
  0
CIRCLE
  8
Layer1
  6
DASHED1
 62
7
 10
692.177
 20
494.002
 40
7
  0
LINE
  8
Layer1
  6
CONTINUOUS
 62
7
 10
725.177
 20
566.502
 11
725.177
 21
486.502
  0
LINE
  8
Layer1
  6
CONTINUOUS
 62
7
 10
684.177
 20
486.502
 11
684.177
 21
566.502
  0
LINE
  8
Layer1
  6
CONTINUOUS
 62
7
 10
685.177
 20
567.502
 11
684.177
 21
566.502
  0
LINE
  8
Layer1
  6
CONTINUOUS
 62
7
 10
684.177
 20
486.502
 11
685.177
 21
485.502
  0
LINE
  8
Layer1
  6
CONTINUOUS
 62
7
 10
724.177
 20
485.502
 11
725.177
 21
486.502
  0
LINE
  8
Layer1
  6
CONTINUOUS
 62
7
 10
725.177
 20
566.502
 11
724.177
 21
567.502
  0
LINE
  8
Layer1
  6
CENTER1
 62
7
 10
717.177
 20
569.823
 11
717.177
 21
547.944
  0
LINE
  8
Layer1
  6
CENTER1
 62
7
 10
692.177
 20
569.823
 11
692.177
 21
549.052
  0
LINE
  8
Layer1
  6
CENTER1
 62
7
 10
680.545
 20
494.002
 11
701.558
 21
494.002
  0
LINE
  8
Layer1
  6
CENTER1
 62
7
 10
682.944
 20
559.002
 11
702.764
 21
559.002
  0
LINE
  8
Layer1
  6
CENTER1
 62
7
 10
717.177
 20
501.693
 11
717.177
 21
482.307
  0
LINE
  8
Layer1
  6
CENTER1
 62
7
 10
692.177
 20
503.078
 11
692.177
 21
481.199
  0
LINE
  8
Layer1
  6
CENTER1
 62
7
 10
708.759
 20
494.002
 11
731.053
 21
494.002
  0
LINE
  8
Layer1
  6
CENTER1
 62
7
 10
706.403
 20
559.002
 11
727.952
 21
559.002
  0
TEXT
  8
Layer1
 62
7
 10
752.155
 20
526.502
 72
1
 11
752.155
 21
526.502
 40
8
 41
1
 50
90
  1
 65 
  0
LINE
  8
Layer1
  6
CONTINUOUS
 62
7
 10
727.952
 20
559.002
 11
754.155
 21
559.002
  0
LINE
  8
Layer1
  6
CONTINUOUS
 62
7
 10
731.053
 20
494.002
 11
754.155
 21
494.002
  0
POLYLINE
  8
Layer1
  6
CONTINUOUS
 62
7
 66
1
 10
0
 20
0
 30
0
  0
VERTEX
  8
Layer1
 10
752.155
 20
559.002
  0
VERTEX
  8
Layer1
 10
752.155
 20
494.002
  0
SEQEND
  0
POLYLINE
  8
Layer1
  6
CONTINUOUS
 62
7
 66
1
 10
0
 20
0
 30
0
 70
1
  0
VERTEX
  8
Layer1
 10
751.119
 20
555.139
  0
VERTEX
  8
Layer1
 10
752.155
 20
559.002
  0
VERTEX
  8
Layer1
 10
753.19
 20
555.139
  0
SEQEND
  0
POLYLINE
  8
Layer1
  6
CONTINUOUS
 62
7
 66
1
 10
0
 20
0
 30
0
 70
1
  0
VERTEX
  8
Layer1
 10
753.19
 20
497.866
  0
VERTEX
  8
Layer1
 10
752.155
 20
494.002
  0
VERTEX
  8
Layer1
 10
751.119
 20
497.866
  0
SEQEND
  0
TEXT
  8
Layer1
 62
7
 10
774.655
 20
526.502
 72
1
 11
774.655
 21
526.502
 40
8
 41
1
 50
90
  1
 82 
  0
LINE
  8
Layer1
  6
CONTINUOUS
 62
7
 10
722.011
 20
567.502
 11
776.655
 21
567.502
  0
LINE
  8
Layer1
  6
CONTINUOUS
 62
7
 10
724.177
 20
485.502
 11
776.655
 21
485.502
  0
POLYLINE
  8
Layer1
  6
CONTINUOUS
 62
7
 66
1
 10
0
 20
0
 30
0
  0
VERTEX
  8
Layer1
 10
774.655
 20
567.502
  0
VERTEX
  8
Layer1
 10
774.655
 20
485.502
  0
SEQEND
  0
POLYLINE
  8
Layer1
  6
CONTINUOUS
 62
7
 66
1
 10
0
 20
0
 30
0
 70
1
  0
VERTEX
  8
Layer1
 10
773.619
 20
563.639
  0
VERTEX
  8
Layer1
 10
774.655
 20
567.502
  0
VERTEX
  8
Layer1
 10
775.69
 20
563.639
  0
SEQEND
  0
POLYLINE
  8
Layer1
  6
CONTINUOUS
 62
7
 66
1
 10
0
 20
0
 30
0
 70
1
  0
VERTEX
  8
Layer1
 10
775.69
 20
489.366
  0
VERTEX
  8
Layer1
 10
774.655
 20
485.502
  0
VERTEX
  8
Layer1
 10
773.619
 20
489.366
  0
SEQEND
  0
TEXT
  8
Layer1
 62
7
 10
785.905
 20
526.483
 72
1
 11
785.905
 21
526.483
 40
8
 41
1
 50
90
  1
 100 
  0
LINE
  8
Layer1
  6
CONTINUOUS
 62
7
 10
724.001
 20
576.464
 11
787.905
 21
576.464
  0
LINE
  8
Layer1
  6
CONTINUOUS
 62
7
 10
723.776
 20
476.502
 11
787.905
 21
476.502
  0
POLYLINE
  8
Layer1
  6
CONTINUOUS
 62
7
 66
1
 10
0
 20
0
 30
0
  0
VERTEX
  8
Layer1
 10
785.905
 20
576.464
  0
VERTEX
  8
Layer1
 10
785.905
 20
476.502
  0
SEQEND
  0
POLYLINE
  8
Layer1
  6
CONTINUOUS
 62
7
 66
1
 10
0
 20
0
 30
0
 70
1
  0
VERTEX
  8
Layer1
 10
784.869
 20
572.601
  0
VERTEX
  8
Layer1
 10
785.905
 20
576.464
  0
VERTEX
  8
Layer1
 10
786.94
 20
572.601
  0
SEQEND
  0
POLYLINE
  8
Layer1
  6
CONTINUOUS
 62
7
 66
1
 10
0
 20
0
 30
0
 70
1
  0
VERTEX
  8
Layer1
 10
786.94
 20
480.366
  0
VERTEX
  8
Layer1
 10
785.905
 20
476.502
  0
VERTEX
  8
Layer1
 10
784.869
 20
480.366
  0
SEQEND
  0
TEXT
  8
Layer1
 62
7
 10
796.592
 20
526.502
 72
1
 11
796.592
 21
526.502
 40
8
 41
1
 50
90
  1
 120 
  0
LINE
  8
Layer1
  6
CONTINUOUS
 62
7
 10
725.211
 20
466.502
 11
798.592
 21
466.502
  0
LINE
  8
Layer1
  6
CONTINUOUS
 62
7
 10
724.177
 20
586.502
 11
798.592
 21
586.502
  0
POLYLINE
  8
Layer1
  6
CONTINUOUS
 62
7
 66
1
 10
0
 20
0
 30
0
  0
VERTEX
  8
Layer1
 10
796.592
 20
466.502
  0
VERTEX
  8
Layer1
 10
796.592
 20
586.502
  0
SEQEND
  0
POLYLINE
  8
Layer1
  6
CONTINUOUS
 62
7
 66
1
 10
0
 20
0
 30
0
 70
1
  0
VERTEX
  8
Layer1
 10
797.628
 20
470.366
  0
VERTEX
  8
Layer1
 10
796.592
 20
466.502
  0
VERTEX
  8
Layer1
 10
795.557
 20
470.366
  0
SEQEND
  0
POLYLINE
  8
Layer1
  6
CONTINUOUS
 62
7
 66
1
 10
0
 20
0
 30
0
 70
1
  0
VERTEX
  8
Layer1
 10
795.557
 20
582.639
  0
VERTEX
  8
Layer1
 10
796.592
 20
586.502
  0
VERTEX
  8
Layer1
 10
797.628
 20
582.639
  0
SEQEND
  0
TEXT
  8
Layer1
 62
7
 10
670.177
 20
606.305
 72
1
 11
670.177
 21
606.305
 40
8
 41
1
  1
 110 
  0
LINE
  8
Layer1
  6
CONTINUOUS
 62
7
 10
615.177
 20
583.749
 11
615.177
 21
608.305
  0
LINE
  8
Layer1
  6
CONTINUOUS
 62
7
 10
725.177
 20
583.749
 11
725.177
 21
608.305
  0
POLYLINE
  8
Layer1
  6
CONTINUOUS
 62
7
 66
1
 10
0
 20
0
 30
0
  0
VERTEX
  8
Layer1
 10
615.177
 20
606.305
  0
VERTEX
  8
Layer1
 10
725.177
 20
606.305
  0
SEQEND
  0
POLYLINE
  8
Layer1
  6
CONTINUOUS
 62
7
 66
1
 10
0
 20
0
 30
0
 70
1
  0
VERTEX
  8
Layer1
 10
619.041
 20
605.27
  0
VERTEX
  8
Layer1
 10
615.177
 20
606.305
  0
VERTEX
  8
Layer1
 10
619.041
 20
607.341
  0
SEQEND
  0
POLYLINE
  8
Layer1
  6
CONTINUOUS
 62
7
 66
1
 10
0
 20
0
 30
0
 70
1
  0
VERTEX
  8
Layer1
 10
721.314
 20
607.341
  0
VERTEX
  8
Layer1
 10
725.177
 20
606.305
  0
VERTEX
  8
Layer1
 10
721.314
 20
605.27
  0
SEQEND
  0
TEXT
  8
Layer1
 62
7
 10
620.177
 20
593.649
 72
1
 11
620.177
 21
593.649
 40
8
 41
1
  1
 10 
  0
LINE
  8
Layer1
  6
CONTINUOUS
 62
7
 10
625.177
 20
586.502
 11
625.177
 21
595.649
  0
LINE
  8
Layer1
  6
CONTINUOUS
 62
7
 10
615.177
 20
593.368
 11
615.177
 21
595.649
  0
POLYLINE
  8
Layer1
  6
CONTINUOUS
 62
7
 66
1
 10
0
 20
0
 30
0
  0
VERTEX
  8
Layer1
 10
635.177
 20
593.649
  0
VERTEX
  8
Layer1
 10
625.177
 20
593.649
  0
SEQEND
  0
POLYLINE
  8
Layer1
  6
CONTINUOUS
 62
7
 66
1
 10
0
 20
0
 30
0
 70
1
  0
VERTEX
  8
Layer1
 10
629.041
 20
592.614
  0
VERTEX
  8
Layer1
 10
625.177
 20
593.649
  0
VERTEX
  8
Layer1
 10
629.041
 20
594.684
  0
SEQEND
  0
POLYLINE
  8
Layer1
  6
CONTINUOUS
 62
7
 66
1
 10
0
 20
0
 30
0
  0
VERTEX
  8
Layer1
 10
605.177
 20
593.649
  0
VERTEX
  8
Layer1
 10
615.177
 20
593.649
  0
SEQEND
  0
POLYLINE
  8
Layer1
  6
CONTINUOUS
 62
7
 66
1
 10
0
 20
0
 30
0
 70
1
  0
VERTEX
  8
Layer1
 10
611.313
 20
594.684
  0
VERTEX
  8
Layer1
 10
615.177
 20
593.649
  0
VERTEX
  8
Layer1
 10
611.313
 20
592.614
  0
SEQEND
  0
LINE
  8
Layer1
  6
CONTINUOUS
 62
7
 10
625.177
 20
593.649
 11
615.177
 21
593.649
  0
TEXT
  8
Layer1
 62
7
 10
670.16
 20
593.649
 72
1
 11
670.16
 21
593.649
 40
8
 41
1
  1
 90 
  0
LINE
  8
Layer1
  6
CONTINUOUS
 62
7
 10
715.177
 20
585.175
 11
715.177
 21
595.649
  0
POLYLINE
  8
Layer1
  6
CONTINUOUS
 62
7
 66
1
 10
0
 20
0
 30
0
  0
VERTEX
  8
Layer1
 10
625.143
 20
593.649
  0
VERTEX
  8
Layer1
 10
715.177
 20
593.649
  0
SEQEND
  0
POLYLINE
  8
Layer1
  6
CONTINUOUS
 62
7
 66
1
 10
0
 20
0
 30
0
 70
1
  0
VERTEX
  8
Layer1
 10
629.007
 20
592.614
  0
VERTEX
  8
Layer1
 10
625.143
 20
593.649
  0
VERTEX
  8
Layer1
 10
629.007
 20
594.684
  0
SEQEND
  0
POLYLINE
  8
Layer1
  6
CONTINUOUS
 62
7
 66
1
 10
0
 20
0
 30
0
 70
1
  0
VERTEX
  8
Layer1
 10
711.314
 20
594.684
  0
VERTEX
  8
Layer1
 10
715.177
 20
593.649
  0
VERTEX
  8
Layer1
 10
711.314
 20
592.614
  0
SEQEND
  0
POLYLINE
  8
Layer1
  6
CONTINUOUS
 62
7
 66
1
 10
0
 20
0
 30
0
  0
VERTEX
  8
Layer1
 10
719.081
 20
578.942
  0
VERTEX
  8
Layer1
 10
745.484
 20
599.474
  0
VERTEX
  8
Layer1
 10
745.484
 20
599.474
  0
SEQEND
  0
POLYLINE
  8
Layer1
  6
CONTINUOUS
 62
7
 66
1
 10
0
 20
0
 30
0
 70
1
  0
VERTEX
  8
Layer1
 10
722.766
 20
580.497
  0
VERTEX
  8
Layer1
 10
719.081
 20
578.942
  0
VERTEX
  8
Layer1
 10
721.495
 20
582.131
  0
SEQEND
  0
LINE
  8
Layer1
  6
CONTINUOUS
 62
7
 10
745.484
 20
599.474
 11
757.984
 21
599.474
  0
TEXT
  8
Layer1
 62
7
 10
757.984
 20
600.474
 72
2
 11
757.984
 21
600.474
 40
5
 41
1
  1
4-φ9
  0
POLYLINE
  8
Layer1
  6
CONTINUOUS
 62
7
 66
1
 10
0
 20
0
 30
0
  0
VERTEX
  8
Layer1
 10
620.227
 20
581.452
  0
VERTEX
  8
Layer1
 10
595.924
 20
605.281
  0
VERTEX
  8
Layer1
 10
595.924
 20
605.281
  0
SEQEND
  0
POLYLINE
  8
Layer1
  6
CONTINUOUS
 62
7
 66
1
 10
0
 20
0
 30
0
 70
1
  0
VERTEX
  8
Layer1
 10
618.193
 20
584.896
  0
VERTEX
  8
Layer1
 10
620.227
 20
581.452
  0
VERTEX
  8
Layer1
 10
616.744
 20
583.418
  0
SEQEND
  0
LINE
  8
Layer1
  6
CONTINUOUS
 62
7
 10
595.924
 20
605.281
 11
583.424
 21
605.281
  0
TEXT
  8
Layer1
 62
7
 10
583.424
 20
606.281
 40
5
 41
1
  1
4-φ9
  0
POLYLINE
  8
Layer1
  6
CONTINUOUS
 62
7
 66
1
 10
0
 20
0
 30
0
  0
VERTEX
  8
Layer1
 10
727.967
 20
288.774
  0
VERTEX
  8
Layer1
 10
738.699
 20
260.438
  0
VERTEX
  8
Layer1
 10
740.433
 20
256.793
  0
SEQEND
  0
POLYLINE
  8
Layer1
  6
CONTINUOUS
 62
7
 66
1
 10
0
 20
0
 30
0
 70
1
  0
VERTEX
  8
Layer1
 10
728.368
 20
284.794
  0
VERTEX
  8
Layer1
 10
727.967
 20
288.774
  0
VERTEX
  8
Layer1
 10
730.304
 20
285.527
  0
SEQEND
  0
LINE
  8
Layer1
  6
CONTINUOUS
 62
7
 10
740.433
 20
256.793
 11
760.433
 21
256.793
  0
TEXT
  8
Layer1
 62
7
 10
760.433
 20
257.793
 72
2
 11
760.433
 21
257.793
 40
5
 41
1
  1
M8タップ
  0
TEXT
  8
Layer1
 62
7
 10
731.177
 20
606.305
 72
1
 11
731.177
 21
606.305
 40
8
 41
1
  1
 12 
  0
LINE
  8
Layer1
  6
CONTINUOUS
 62
7
 10
737.177
 20
566.502
 11
737.177
 21
608.305
  0
POLYLINE
  8
Layer1
  6
CONTINUOUS
 62
7
 66
1
 10
0
 20
0
 30
0
  0
VERTEX
  8
Layer1
 10
747.177
 20
606.305
  0
VERTEX
  8
Layer1
 10
737.177
 20
606.305
  0
SEQEND
  0
POLYLINE
  8
Layer1
  6
CONTINUOUS
 62
7
 66
1
 10
0
 20
0
 30
0
 70
1
  0
VERTEX
  8
Layer1
 10
741.041
 20
605.27
  0
VERTEX
  8
Layer1
 10
737.177
 20
606.305
  0
VERTEX
  8
Layer1
 10
741.041
 20
607.341
  0
SEQEND
  0
POLYLINE
  8
Layer1
  6
CONTINUOUS
 62
7
 66
1
 10
0
 20
0
 30
0
  0
VERTEX
  8
Layer1
 10
715.177
 20
606.305
  0
VERTEX
  8
Layer1
 10
725.177
 20
606.305
  0
SEQEND
  0
POLYLINE
  8
Layer1
  6
CONTINUOUS
 62
7
 66
1
 10
0
 20
0
 30
0
 70
1
  0
VERTEX
  8
Layer1
 10
721.314
 20
607.341
  0
VERTEX
  8
Layer1
 10
725.177
 20
606.305
  0
VERTEX
  8
Layer1
 10
721.314
 20
605.27
  0
SEQEND
  0
LINE
  8
Layer1
  6
CONTINUOUS
 62
7
 10
737.177
 20
606.305
 11
725.177
 21
606.305
  0
POLYLINE
  8
Layer1
  6
CONTINUOUS
 62
7
 66
1
 10
0
 20
0
 30
0
  0
VERTEX
  8
Layer1
 10
633.143
 20
342.831
  0
VERTEX
  8
Layer1
 10
624.243
 20
382.55
  0
VERTEX
  8
Layer1
 10
624.243
 20
382.55
  0
SEQEND
  0
CIRCLE
  8
Layer1
  6
CONTINUOUS
 62
7
 10
633.143
 20
342.831
 40
1
  0
CIRCLE
  8
Layer1
  6
CONTINUOUS
 62
7
 10
623.51
 20
385.823
 40
3.3541
  0
TEXT
  8
Layer1
 62
7
 10
623.51
 20
385.823
 72
1
 73
2
 11
623.51
 21
385.823
 40
6
 41
1
  1
4
  0
POLYLINE
  8
Layer1
  6
CONTINUOUS
 62
7
 66
1
 10
0
 20
0
 30
0
  0
VERTEX
  8
Layer1
 10
649.121
 20
354.579
  0
VERTEX
  8
Layer1
 10
640.576
 20
382.534
  0
VERTEX
  8
Layer1
 10
640.576
 20
382.534
  0
SEQEND
  0
CIRCLE
  8
Layer1
  6
CONTINUOUS
 62
7
 10
649.121
 20
354.579
 40
1
  0
CIRCLE
  8
Layer1
  6
CONTINUOUS
 62
7
 10
639.595
 20
385.741
 40
3.3541
  0
TEXT
  8
Layer1
 62
7
 10
639.595
 20
385.741
 72
1
 73
2
 11
639.595
 21
385.741
 40
6
 41
1
  1
8
  0
POLYLINE
  8
Layer1
  6
CONTINUOUS
 62
7
 66
1
 10
0
 20
0
 30
0
  0
VERTEX
  8
Layer1
 10
670.684
 20
341.974
  0
VERTEX
  8
Layer1
 10
654.626
 20
382.738
  0
VERTEX
  8
Layer1
 10
654.626
 20
382.738
  0
SEQEND
  0
CIRCLE
  8
Layer1
  6
CONTINUOUS
 62
7
 10
670.684
 20
341.974
 40
1
  0
CIRCLE
  8
Layer1
  6
CONTINUOUS
 62
7
 10
653.071
 20
386.685
 40
4.24264
  0
TEXT
  8
Layer1
 62
7
 10
653.071
 20
386.685
 72
1
 73
2
 11
653.071
 21
386.685
 40
6
 41
1
  1
11
  0
POLYLINE
  8
Layer1
  6
CONTINUOUS
 62
7
 66
1
 10
0
 20
0
 30
0
  0
VERTEX
  8
Layer1
 10
730.241
 20
331.229
  0
VERTEX
  8
Layer1
 10
755.004
 20
395.181
  0
VERTEX
  8
Layer1
 10
755.004
 20
395.181
  0
SEQEND
  0
CIRCLE
  8
Layer1
  6
CONTINUOUS
 62
7
 10
730.241
 20
331.229
 40
1
  0
CIRCLE
  8
Layer1
  6
CONTINUOUS
 62
7
 10
756.215
 20
398.309
 40
3.3541
  0
TEXT
  8
Layer1
 62
7
 10
756.215
 20
398.309
 72
1
 73
2
 11
756.215
 21
398.309
 40
6
 41
1
  1
5
  0
POLYLINE
  8
Layer1
  6
CONTINUOUS
 62
7
 66
1
 10
0
 20
0
 30
0
  0
VERTEX
  8
Layer1
 10
741.979
 20
325.417
  0
VERTEX
  8
Layer1
 10
771.39
 20
395.382
  0
VERTEX
  8
Layer1
 10
771.39
 20
395.382
  0
SEQEND
  0
CIRCLE
  8
Layer1
  6
CONTINUOUS
 62
7
 10
741.979
 20
325.417
 40
1
  0
CIRCLE
  8
Layer1
  6
CONTINUOUS
 62
7
 10
772.69
 20
398.474
 40
3.3541
  0
TEXT
  8
Layer1
 62
7
 10
772.69
 20
398.474
 72
1
 73
2
 11
772.69
 21
398.474
 40
6
 41
1
  1
9
  0
POLYLINE
  8
Layer1
  6
CONTINUOUS
 62
7
 66
1
 10
0
 20
0
 30
0
  0
VERTEX
  8
Layer1
 10
642.309
 20
300.899
  0
VERTEX
  8
Layer1
 10
608.149
 20
235.42
  0
VERTEX
  8
Layer1
 10
608.149
 20
235.42
  0
SEQEND
  0
CIRCLE
  8
Layer1
  6
CONTINUOUS
 62
7
 10
642.309
 20
300.899
 40
1
  0
CIRCLE
  8
Layer1
  6
CONTINUOUS
 62
7
 10
606.598
 20
232.446
 40
3.3541
  0
TEXT
  8
Layer1
 62
7
 10
606.598
 20
232.446
 72
1
 73
2
 11
606.598
 21
232.446
 40
6
 41
1
  1
1
  0
POLYLINE
  8
Layer1
  6
CONTINUOUS
 62
7
 66
1
 10
0
 20
0
 30
0
  0
VERTEX
  8
Layer1
 10
679.997
 20
302.587
  0
VERTEX
  8
Layer1
 10
644.271
 20
234.25
  0
VERTEX
  8
Layer1
 10
644.271
 20
234.25
  0
SEQEND
  0
CIRCLE
  8
Layer1
  6
CONTINUOUS
 62
7
 10
679.997
 20
302.587
 40
1
  0
CIRCLE
  8
Layer1
  6
CONTINUOUS
 62
7
 10
642.717
 20
231.278
 40
3.3541
  0
TEXT
  8
Layer1
 62
7
 10
642.717
 20
231.278
 72
1
 73
2
 11
642.717
 21
231.278
 40
6
 41
1
  1
2
  0
POLYLINE
  8
Layer1
  6
CONTINUOUS
 62
7
 66
1
 10
0
 20
0
 30
0
  0
VERTEX
  8
Layer1
 10
687.516
 20
269.233
  0
VERTEX
  8
Layer1
 10
674.936
 20
234.417
  0
VERTEX
  8
Layer1
 10
674.936
 20
234.417
  0
SEQEND
  0
CIRCLE
  8
Layer1
  6
CONTINUOUS
 62
7
 10
687.516
 20
269.233
 40
1
  0
CIRCLE
  8
Layer1
  6
CONTINUOUS
 62
7
 10
673.796
 20
231.262
 40
3.3541
  0
TEXT
  8
Layer1
 62
7
 10
673.796
 20
231.262
 72
1
 73
2
 11
673.796
 21
231.262
 40
6
 41
1
  1
7
  0
POLYLINE
  8
Layer1
  6
CONTINUOUS
 62
7
 66
1
 10
0
 20
0
 30
0
  0
VERTEX
  8
Layer1
 10
704.177
 20
285.172
  0
VERTEX
  8
Layer1
 10
690.562
 20
233.608
  0
VERTEX
  8
Layer1
 10
690.562
 20
233.608
  0
SEQEND
  0
CIRCLE
  8
Layer1
  6
CONTINUOUS
 62
7
 10
704.177
 20
285.172
 40
1
  0
CIRCLE
  8
Layer1
  6
CONTINUOUS
 62
7
 10
689.706
 20
230.365
 40
3.3541
  0
TEXT
  8
Layer1
 62
7
 10
689.706
 20
230.365
 72
1
 73
2
 11
689.706
 21
230.365
 40
6
 41
1
  1
6
  0
POLYLINE
  8
Layer1
  6
CONTINUOUS
 62
7
 66
1
 10
0
 20
0
 30
0
  0
VERTEX
  8
Layer1
 10
706.874
 20
268.451
  0
VERTEX
  8
Layer1
 10
703.099
 20
235.154
  0
VERTEX
  8
Layer1
 10
703.099
 20
235.154
  0
SEQEND
  0
CIRCLE
  8
Layer1
  6
CONTINUOUS
 62
7
 10
706.874
 20
268.451
 40
1
  0
CIRCLE
  8
Layer1
  6
CONTINUOUS
 62
7
 10
702.621
 20
230.938
 40
4.24264
  0
TEXT
  8
Layer1
 62
7
 10
702.621
 20
230.938
 72
1
 73
2
 11
702.621
 21
230.938
 40
6
 41
1
  1
10
  0
POLYLINE
  8
Layer1
  6
CONTINUOUS
 62
7
 66
1
 10
0
 20
0
 30
0
  0
VERTEX
  8
Layer1
 10
622.621
 20
275.974
  0
VERTEX
  8
Layer1
 10
591.817
 20
237.008
  0
VERTEX
  8
Layer1
 10
591.817
 20
237.008
  0
SEQEND
  0
CIRCLE
  8
Layer1
  6
CONTINUOUS
 62
7
 10
622.621
 20
275.974
 40
1
  0
CIRCLE
  8
Layer1
  6
CONTINUOUS
 62
7
 10
589.186
 20
233.68
 40
4.24264
  0
TEXT
  8
Layer1
 62
7
 10
589.186
 20
233.68
 72
1
 73
2
 11
589.186
 21
233.68
 40
6
 41
1
  1
12
  0
TEXT
  8
Layer1
 62
7
 10
717.199
 20
293.274
 72
1
 11
717.199
 21
293.274
 40
8
 41
1
 50
90
  1
16
  0
LINE
  8
Layer1
  6
CONTINUOUS
 62
7
 10
725.177
 20
301.274
 11
715.199
 21
301.274
  0
LINE
  8
Layer1
  6
CONTINUOUS
 62
7
 10
714.581
 20
285.274
 11
719.199
 21
285.274
  0
POLYLINE
  8
Layer1
  6
CONTINUOUS
 62
7
 66
1
 10
0
 20
0
 30
0
  0
VERTEX
  8
Layer1
 10
717.199
 20
301.274
  0
VERTEX
  8
Layer1
 10
717.199
 20
285.274
  0
SEQEND
  0
POLYLINE
  8
Layer1
  6
CONTINUOUS
 62
7
 66
1
 10
0
 20
0
 30
0
 70
1
  0
VERTEX
  8
Layer1
 10
716.163
 20
297.41
  0
VERTEX
  8
Layer1
 10
717.199
 20
301.274
  0
VERTEX
  8
Layer1
 10
718.234
 20
297.41
  0
SEQEND
  0
POLYLINE
  8
Layer1
  6
CONTINUOUS
 62
7
 66
1
 10
0
 20
0
 30
0
 70
1
  0
VERTEX
  8
Layer1
 10
718.234
 20
289.138
  0
VERTEX
  8
Layer1
 10
717.199
 20
285.274
  0
VERTEX
  8
Layer1
 10
716.163
 20
289.138
  0
SEQEND
  0
LINE
  8
Layer1
  6
CENTER1
 62
7
 10
563.454
 20
526.502
 11
742.006
 21
526.502
  0
LINE
  8
Layer1
  6
CONTINUOUS
 62
7
 10
710.455
 20
326.774
 11
684.177
 21
372.288
  0
LINE
  8
Layer1
  6
CONTINUOUS
 62
7
 10
725.177
 20
397.274
 11
725.177
 21
328.274
  0
LINE
  8
Layer1
  6
CONTINUOUS
 62
7
 10
684.177
 20
409.274
 11
684.177
 21
372.288
  0
LINE
  8
Layer1
  6
CONTINUOUS
 62
7
 10
724.177
 20
410.274
 11
685.177
 21
410.274
  0
LINE
  8
Layer1
  6
CONTINUOUS
 62
7
 10
724.177
 20
395.274
 11
685.177
 21
395.274
  0
LINE
  8
Layer1
  6
CONTINUOUS
 62
7
 10
684.077
 20
409.274
 11
685.077
 21
410.274
  0
LINE
  8
Layer1
  6
CONTINUOUS
 62
7
 10
724.177
 20
410.274
 11
725.177
 21
409.274
  0
LINE
  8
Layer1
  6
CONTINUOUS
 62
7
 10
725.177
 20
396.274
 11
725.177
 21
409.274
  0
LINE
  8
Layer1
  6
CONTINUOUS
 62
7
 10
717.177
 20
412.926
 11
717.177
 21
406.663
  0
LINE
  8
Layer1
  6
CONTINUOUS
 62
7
 10
692.177
 20
412.71
 11
692.177
 21
406.771
  0
LINE
  8
Layer1
  6
CONTINUOUS
 62
7
 10
724.177
 20
395.274
 11
724.177
 21
396.274
  0
LINE
  8
Layer1
  6
CONTINUOUS
 62
7
 10
699.177
 20
395.274
 11
699.177
 21
396.274
  0
LINE
  8
Layer1
  6
CENTER2
 62
7
 10
704.677
 20
414.983
 11
704.677
 21
321.554
  0
LINE
  8
Layer1
  6
CONTINUOUS
 62
7
 10
692.177
 20
405.488
 11
692.177
 21
402.572
  0
LINE
  8
Layer1
  6
CONTINUOUS
 62
7
 10
692.177
 20
400.197
 11
692.177
 21
392.747
  0
LINE
  8
Layer1
  6
CONTINUOUS
 62
7
 10
717.177
 20
405.596
 11
717.177
 21
402.572
  0
LINE
  8
Layer1
  6
CONTINUOUS
 62
7
 10
717.177
 20
400.197
 11
717.177
 21
392.963
  0
LINE
  8
Layer1
  6
CONTINUOUS
 62
7
 10
685.077
 20
395.274
 11
685.077
 21
396.274
  0
LINE
  8
Layer1
  6
DASHED1
 62
7
 10
685.177
 20
396.274
 11
699.177
 21
396.274
  0
LINE
  8
Layer1
  6
DASHED1
 62
7
 10
696.677
 20
396.274
 11
696.677
 21
409.274
  0
LINE
  8
Layer1
  6
DASHED1
 62
7
 10
687.577
 20
396.274
 11
687.577
 21
409.274
  0
LINE
  8
Layer1
  6
DASHED1
 62
7
 10
687.677
 20
409.274
 11
696.677
 21
409.274
  0
LINE
  8
Layer1
  6
CONTINUOUS
 62
7
 10
696.677
 20
409.274
 11
697.677
 21
410.274
  0
LINE
  8
Layer1
  6
CONTINUOUS
 62
7
 10
687.577
 20
409.274
 11
686.577
 21
410.274
  0
LINE
  8
Layer1
  6
CONTINUOUS
 62
7
 10
686.577
 20
410.274
 11
697.577
 21
410.274
  0
LINE
  8
Layer1
  6
CONTINUOUS
 62
7
 10
710.177
 20
395.274
 11
710.177
 21
396.274
  0
LINE
  8
Layer1
  6
DASHED1
 62
7
 10
710.177
 20
396.274
 11
724.177
 21
396.274
  0
LINE
  8
Layer1
  6
DASHED1
 62
7
 10
721.677
 20
396.274
 11
721.677
 21
409.274
  0
LINE
  8
Layer1
  6
DASHED1
 62
7
 10
712.677
 20
396.274
 11
712.677
 21
409.274
  0
LINE
  8
Layer1
  6
DASHED1
 62
7
 10
712.677
 20
409.274
 11
721.677
 21
409.274
  0
LINE
  8
Layer1
  6
CONTINUOUS
 62
7
 10
721.677
 20
409.274
 11
722.677
 21
410.274
  0
LINE
  8
Layer1
  6
CONTINUOUS
 62
7
 10
712.677
 20
409.274
 11
711.677
 21
410.274
  0
LINE
  8
Layer1
  6
CONTINUOUS
 62
7
 10
711.577
 20
410.274
 11
722.577
 21
410.274
  0
LINE
  8
Layer1
  6
CONTINUOUS
 62
7
 10
684.077
 20
396.274
 11
685.077
 21
395.274
  0
LINE
  8
Layer1
  6
CONTINUOUS
 62
7
 10
724.177
 20
395.274
 11
725.177
 21
396.274
  0
LINE
  8
Layer1
  6
PHANTOM1
 62
7
 10
725.177
 20
375.674
 11
684.077
 21
375.674
  0
LINE
  8
Layer1
  6
PHANTOM1
 62
7
 10
725.177
 20
360.674
 11
684.077
 21
360.674
  0
LINE
  8
Layer1
  6
PHANTOM1
 62
7
 10
684.077
 20
375.674
 11
684.077
 21
360.674
  0
TEXT
  8
Layer1
 62
7
 10
801.936
 20
320.474
 72
1
 11
801.936
 21
320.474
 40
8
 41
1
 50
90
  1
 110.4 
  0
LINE
  8
Layer1
  6
CONTINUOUS
 62
7
 10
724.177
 20
265.274
 11
803.936
 21
265.274
  0
LINE
  8
Layer1
  6
CONTINUOUS
 62
7
 10
725.177
 20
375.674
 11
803.936
 21
375.674
  0
POLYLINE
  8
Layer1
  6
CONTINUOUS
 62
7
 66
1
 10
0
 20
0
 30
0
  0
VERTEX
  8
Layer1
 10
801.936
 20
265.274
  0
VERTEX
  8
Layer1
 10
801.936
 20
375.674
  0
SEQEND
  0
POLYLINE
  8
Layer1
  6
CONTINUOUS
 62
7
 66
1
 10
0
 20
0
 30
0
 70
1
  0
VERTEX
  8
Layer1
 10
802.971
 20
269.138
  0
VERTEX
  8
Layer1
 10
801.936
 20
265.274
  0
VERTEX
  8
Layer1
 10
800.901
 20
269.138
  0
SEQEND
  0
POLYLINE
  8
Layer1
  6
CONTINUOUS
 62
7
 66
1
 10
0
 20
0
 30
0
 70
1
  0
VERTEX
  8
Layer1
 10
800.901
 20
371.81
  0
VERTEX
  8
Layer1
 10
801.936
 20
375.674
  0
VERTEX
  8
Layer1
 10
802.971
 20
371.81
  0
SEQEND
  0
TEXT
  8
Layer1
 62
7
 10
817.686
 20
337.774
 72
1
 11
817.686
 21
337.774
 40
8
 41
1
 50
90
  1
 145 
  0
LINE
  8
Layer1
  6
CONTINUOUS
 62
7
 10
722.577
 20
410.274
 11
819.686
 21
410.274
  0
LINE
  8
Layer1
  6
CONTINUOUS
 62
7
 10
801.936
 20
265.274
 11
819.686
 21
265.274
  0
POLYLINE
  8
Layer1
  6
CONTINUOUS
 62
7
 66
1
 10
0
 20
0
 30
0
  0
VERTEX
  8
Layer1
 10
817.686
 20
410.274
  0
VERTEX
  8
Layer1
 10
817.686
 20
265.274
  0
SEQEND
  0
POLYLINE
  8
Layer1
  6
CONTINUOUS
 62
7
 66
1
 10
0
 20
0
 30
0
 70
1
  0
VERTEX
  8
Layer1
 10
816.651
 20
406.41
  0
VERTEX
  8
Layer1
 10
817.686
 20
410.274
  0
VERTEX
  8
Layer1
 10
818.721
 20
406.41
  0
SEQEND
  0
POLYLINE
  8
Layer1
  6
CONTINUOUS
 62
7
 66
1
 10
0
 20
0
 30
0
 70
1
  0
VERTEX
  8
Layer1
 10
818.721
 20
269.138
  0
VERTEX
  8
Layer1
 10
817.686
 20
265.274
  0
VERTEX
  8
Layer1
 10
816.651
 20
269.138
  0
SEQEND
  0
POLYLINE
  8
Layer1
  6
CONTINUOUS
 62
7
 66
1
 10
0
 20
0
 30
0
  0
VERTEX
  8
Layer1
 10
688.512
 20
385.837
  0
VERTEX
  8
Layer1
 10
669.42
 20
414.242
  0
VERTEX
  8
Layer1
 10
669.42
 20
414.242
  0
SEQEND
  0
CIRCLE
  8
Layer1
  6
CONTINUOUS
 62
7
 10
688.512
 20
385.837
 40
1
  0
CIRCLE
  8
Layer1
  6
CONTINUOUS
 62
7
 10
667.549
 20
417.025
 40
3.3541
  0
TEXT
  8
Layer1
 62
7
 10
667.549
 20
417.025
 72
1
 73
2
 11
667.549
 21
417.025
 40
6
 41
1
  1
3
  0
TEXT
  8
Layer1
 62
7
 10
711.595
 20
351.064
 72
1
 11
711.595
 21
351.064
 40
8
 41
1
 50
15
  1
 30°
  0
ARC
  8
Layer1
  6
CONTINUOUS
 62
7
 10
725.177
 20
300.374
 40
52.4779
 50
90
 51
120
  0
LINE
  8
Layer1
  6
CONTINUOUS
 62
7
 10
711.177
 20
325.274
 11
711.177
 21
341.993
  0
TEXT
  8
Layer1
 62
7
 10
718.166
 20
339.993
 72
1
 11
718.166
 21
339.993
 40
8
 41
1
  1
14
  0
LINE
  8
Layer1
  6
CONTINUOUS
 62
7
 10
713.053
 20
325.274
 11
722.177
 21
325.274
  0
ARC
  8
Layer1
  6
CONTINUOUS
 62
7
 10
722.177
 20
328.274
 40
3
 50
270
 51
0
  0
POLYLINE
  8
Layer1
  6
CONTINUOUS
 62
7
 66
1
 10
0
 20
0
 30
0
  0
VERTEX
  8
Layer1
 10
711.177
 20
339.993
  0
VERTEX
  8
Layer1
 10
725.155
 20
339.993
  0
SEQEND
  0
POLYLINE
  8
Layer1
  6
CONTINUOUS
 62
7
 66
1
 10
0
 20
0
 30
0
 70
1
  0
VERTEX
  8
Layer1
 10
715.041
 20
338.957
  0
VERTEX
  8
Layer1
 10
711.177
 20
339.993
  0
VERTEX
  8
Layer1
 10
715.041
 20
341.028
  0
SEQEND
  0
POLYLINE
  8
Layer1
  6
CONTINUOUS
 62
7
 66
1
 10
0
 20
0
 30
0
 70
1
  0
VERTEX
  8
Layer1
 10
721.291
 20
341.028
  0
VERTEX
  8
Layer1
 10
725.155
 20
339.993
  0
VERTEX
  8
Layer1
 10
721.291
 20
338.957
  0
SEQEND
  0
ARC
  8
Layer1
  6
CONTINUOUS
 62
7
 10
713.053
 20
328.274
 40
3
 50
210
 51
270
  0
LINE
  8
Layer1
  6
CONTINUOUS
 62
7
 10
615.177
 20
334.274
 11
615.177
 21
280.938
  0
LINE
  8
Layer1
  6
CENTER2
 62
7
 10
583.72
 20
310.274
 11
733.922
 21
310.274
  0
LINE
  8
Layer1
  6
CONTINUOUS
 62
7
 10
587.677
 20
286.274
 11
587.677
 21
334.274
  0
LINE
  8
Layer1
  6
CONTINUOUS
 62
7
 10
609.677
 20
285.274
 11
588.677
 21
285.274
  0
LINE
  8
Layer1
  6
CONTINUOUS
 62
7
 10
609.677
 20
335.274
 11
588.677
 21
335.274
  0
LINE
  8
Layer1
  6
CONTINUOUS
 62
7
 10
610.677
 20
334.274
 11
610.677
 21
330.774
  0
LINE
  8
Layer1
  6
CONTINUOUS
 62
7
 10
587.677
 20
334.274
 11
588.677
 21
335.274
  0
LINE
  8
Layer1
  6
CONTINUOUS
 62
7
 10
587.677
 20
286.274
 11
588.677
 21
285.274
  0
LINE
  8
Layer1
  6
CONTINUOUS
 62
7
 10
609.677
 20
285.274
 11
610.677
 21
286.274
  0
LINE
  8
Layer1
  6
CONTINUOUS
 62
7
 10
610.677
 20
286.274
 11
611.677
 21
285.274
  0
LINE
  8
Layer1
  6
CONTINUOUS
 62
7
 10
609.677
 20
335.274
 11
610.677
 21
334.274
  0
LINE
  8
Layer1
  6
CONTINUOUS
 62
7
 10
610.677
 20
334.274
 11
611.677
 21
335.274
  0
LINE
  8
Layer1
  6
CENTER1
 62
7
 10
642.288
 20
327.774
 11
581.79
 21
327.774
  0
LINE
  8
Layer1
  6
CENTER1
 62
7
 10
638.735
 20
292.774
 11
582.757
 21
292.774
  0
LINE
  8
Layer1
  6
CONTINUOUS
 62
7
 10
588.677
 20
323.774
 11
588.677
 21
331.774
  0
LINE
  8
Layer1
  6
CONTINUOUS
 62
7
 10
589.677
 20
332.774
 11
594.677
 21
332.774
  0
LINE
  8
Layer1
  6
CONTINUOUS
 62
7
 10
589.677
 20
322.774
 11
594.677
 21
322.774
  0
LINE
  8
Layer1
  6
CONTINUOUS
 62
7
 10
594.677
 20
333.274
 11
594.677
 21
322.274
  0
LINE
  8
Layer1
  6
CONTINUOUS
 62
7
 10
594.677
 20
330.274
 11
616.216
 21
330.274
  0
LINE
  8
Layer1
  6
CONTINUOUS
 62
7
 10
594.677
 20
325.274
 11
613.986
 21
325.274
  0
LINE
  8
Layer1
  6
CONTINUOUS
 62
7
 10
588.677
 20
323.774
 11
589.677
 21
322.774
  0
LINE
  8
Layer1
  6
CONTINUOUS
 62
7
 10
594.677
 20
333.274
 11
587.677
 21
333.274
  0
LINE
  8
Layer1
  6
CONTINUOUS
 62
7
 10
594.677
 20
322.274
 11
587.677
 21
322.274
  0
LINE
  8
Layer1
  6
CONTINUOUS
 62
7
 10
589.677
 20
332.774
 11
589.677
 21
322.774
  0
LINE
  8
Layer1
  6
CONTINUOUS
 62
7
 10
615.22
 20
335.274
 11
611.677
 21
335.274
  0
POLYLINE
  8
Layer1
  6
CONTINUOUS
 62
7
 66
1
 10
0
 20
0
 30
0
  0
VERTEX
  8
Layer1
 10
614.29
 20
335.274
  0
VERTEX
  8
Layer1
 10
614.299
 20
334.946
  0
VERTEX
  8
Layer1
 10
614.308
 20
334.618
  0
VERTEX
  8
Layer1
 10
614.318
 20
334.288
  0
VERTEX
  8
Layer1
 10
614.327
 20
333.958
  0
VERTEX
  8
Layer1
 10
614.337
 20
333.625
  0
VERTEX
  8
Layer1
 10
614.347
 20
333.29
  0
VERTEX
  8
Layer1
 10
614.357
 20
332.952
  0
VERTEX
  8
Layer1
 10
614.367
 20
332.61
  0
VERTEX
  8
Layer1
 10
614.378
 20
332.265
  0
VERTEX
  8
Layer1
 10
614.389
 20
331.915
  0
VERTEX
  8
Layer1
 10
614.4
 20
331.56
  0
VERTEX
  8
Layer1
 10
614.412
 20
331.2
  0
VERTEX
  8
Layer1
 10
614.425
 20
330.834
  0
VERTEX
  8
Layer1
 10
614.438
 20
330.462
  0
VERTEX
  8
Layer1
 10
614.451
 20
330.084
  0
VERTEX
  8
Layer1
 10
614.463
 20
329.7
  0
VERTEX
  8
Layer1
 10
614.473
 20
329.314
  0
VERTEX
  8
Layer1
 10
614.479
 20
328.926
  0
VERTEX
  8
Layer1
 10
614.479
 20
328.538
  0
VERTEX
  8
Layer1
 10
614.473
 20
328.153
  0
VERTEX
  8
Layer1
 10
614.459
 20
327.77
  0
VERTEX
  8
Layer1
 10
614.435
 20
327.393
  0
VERTEX
  8
Layer1
 10
614.4
 20
327.023
  0
VERTEX
  8
Layer1
 10
614.353
 20
326.661
  0
VERTEX
  8
Layer1
 10
614.292
 20
326.309
  0
VERTEX
  8
Layer1
 10
614.216
 20
325.97
  0
VERTEX
  8
Layer1
 10
614.123
 20
325.643
  0
VERTEX
  8
Layer1
 10
614.012
 20
325.332
  0
VERTEX
  8
Layer1
 10
613.881
 20
325.038
  0
VERTEX
  8
Layer1
 10
613.73
 20
324.763
  0
VERTEX
  8
Layer1
 10
613.556
 20
324.507
  0
VERTEX
  8
Layer1
 10
613.358
 20
324.273
  0
VERTEX
  8
Layer1
 10
613.136
 20
324.063
  0
VERTEX
  8
Layer1
 10
612.887
 20
323.878
  0
VERTEX
  8
Layer1
 10
612.615
 20
323.714
  0
VERTEX
  8
Layer1
 10
612.323
 20
323.567
  0
VERTEX
  8
Layer1
 10
612.014
 20
323.434
  0
VERTEX
  8
Layer1
 10
611.692
 20
323.31
  0
VERTEX
  8
Layer1
 10
611.361
 20
323.191
  0
VERTEX
  8
Layer1
 10
611.023
 20
323.074
  0
VERTEX
  8
Layer1
 10
610.682
 20
322.955
  0
VERTEX
  8
Layer1
 10
610.341
 20
322.828
  0
VERTEX
  8
Layer1
 10
610.005
 20
322.691
  0
VERTEX
  8
Layer1
 10
609.675
 20
322.54
  0
VERTEX
  8
Layer1
 10
609.355
 20
322.371
  0
VERTEX
  8
Layer1
 10
609.044
 20
322.188
  0
VERTEX
  8
Layer1
 10
608.74
 20
321.993
  0
VERTEX
  8
Layer1
 10
608.443
 20
321.789
  0
VERTEX
  8
Layer1
 10
608.151
 20
321.578
  0
VERTEX
  8
Layer1
 10
607.864
 20
321.362
  0
VERTEX
  8
Layer1
 10
607.58
 20
321.144
  0
VERTEX
  8
Layer1
 10
607.299
 20
320.926
  0
VERTEX
  8
Layer1
 10
607.02
 20
320.712
  0
VERTEX
  8
Layer1
 10
606.741
 20
320.503
  0
VERTEX
  8
Layer1
 10
606.461
 20
320.302
  0
VERTEX
  8
Layer1
 10
606.181
 20
320.112
  0
VERTEX
  8
Layer1
 10
605.898
 20
319.934
  0
VERTEX
  8
Layer1
 10
605.611
 20
319.772
  0
VERTEX
  8
Layer1
 10
605.32
 20
319.628
  0
VERTEX
  8
Layer1
 10
605.024
 20
319.504
  0
VERTEX
  8
Layer1
 10
604.721
 20
319.404
  0
VERTEX
  8
Layer1
 10
604.411
 20
319.329
  0
VERTEX
  8
Layer1
 10
604.094
 20
319.279
  0
VERTEX
  8
Layer1
 10
603.769
 20
319.253
  0
VERTEX
  8
Layer1
 10
603.438
 20
319.248
  0
VERTEX
  8
Layer1
 10
603.101
 20
319.259
  0
VERTEX
  8
Layer1
 10
602.76
 20
319.285
  0
VERTEX
  8
Layer1
 10
602.414
 20
319.321
  0
VERTEX
  8
Layer1
 10
602.066
 20
319.366
  0
VERTEX
  8
Layer1
 10
601.715
 20
319.416
  0
VERTEX
  8
Layer1
 10
601.362
 20
319.467
  0
VERTEX
  8
Layer1
 10
601.009
 20
319.518
  0
VERTEX
  8
Layer1
 10
600.656
 20
319.564
  0
VERTEX
  8
Layer1
 10
600.303
 20
319.604
  0
VERTEX
  8
Layer1
 10
599.952
 20
319.633
  0
VERTEX
  8
Layer1
 10
599.603
 20
319.649
  0
VERTEX
  8
Layer1
 10
599.257
 20
319.649
  0
VERTEX
  8
Layer1
 10
598.915
 20
319.629
  0
VERTEX
  8
Layer1
 10
598.577
 20
319.59
  0
VERTEX
  8
Layer1
 10
598.242
 20
319.533
  0
VERTEX
  8
Layer1
 10
597.911
 20
319.459
  0
VERTEX
  8
Layer1
 10
597.583
 20
319.371
  0
VERTEX
  8
Layer1
 10
597.257
 20
319.269
  0
VERTEX
  8
Layer1
 10
596.934
 20
319.156
  0
VERTEX
  8
Layer1
 10
596.612
 20
319.032
  0
VERTEX
  8
Layer1
 10
596.292
 20
318.901
  0
VERTEX
  8
Layer1
 10
595.974
 20
318.763
  0
VERTEX
  8
Layer1
 10
595.656
 20
318.619
  0
VERTEX
  8
Layer1
 10
595.339
 20
318.472
  0
VERTEX
  8
Layer1
 10
595.022
 20
318.324
  0
VERTEX
  8
Layer1
 10
594.705
 20
318.175
  0
VERTEX
  8
Layer1
 10
594.388
 20
318.028
  0
VERTEX
  8
Layer1
 10
594.07
 20
317.884
  0
VERTEX
  8
Layer1
 10
593.75
 20
317.745
  0
VERTEX
  8
Layer1
 10
593.429
 20
317.612
  0
VERTEX
  8
Layer1
 10
593.107
 20
317.487
  0
VERTEX
  8
Layer1
 10
592.782
 20
317.371
  0
VERTEX
  8
Layer1
 10
592.455
 20
317.268
  0
VERTEX
  8
Layer1
 10
592.125
 20
317.176
  0
VERTEX
  8
Layer1
 10
591.792
 20
317.095
  0
VERTEX
  8
Layer1
 10
591.458
 20
317.025
  0
VERTEX
  8
Layer1
 10
591.121
 20
316.965
  0
VERTEX
  8
Layer1
 10
590.782
 20
316.914
  0
VERTEX
  8
Layer1
 10
590.441
 20
316.871
  0
VERTEX
  8
Layer1
 10
590.099
 20
316.834
  0
VERTEX
  8
Layer1
 10
589.756
 20
316.804
  0
VERTEX
  8
Layer1
 10
589.411
 20
316.779
  0
VERTEX
  8
Layer1
 10
589.065
 20
316.759
  0
VERTEX
  8
Layer1
 10
588.719
 20
316.742
  0
VERTEX
  8
Layer1
 10
588.372
 20
316.727
  0
VERTEX
  8
Layer1
 10
588.025
 20
316.715
  0
VERTEX
  8
Layer1
 10
587.677
 20
316.703
  0
SEQEND
  0
LINE
  8
Layer1
  6
CONTINUOUS
 62
7
 10
610.677
 20
324.774
 11
610.677
 21
286.274
  0
LINE
  8
Layer1
  6
CONTINUOUS
 62
7
 10
614.427
 20
330.774
 11
594.677
 21
330.774
  0
LINE
  8
Layer1
  6
CONTINUOUS
 62
7
 10
613.736
 20
324.774
 11
594.677
 21
324.774
  0
LINE
  8
Layer1
  6
CONTINUOUS
 62
7
 10
589.677
 20
332.774
 11
594.677
 21
332.774
  0
LINE
  8
Layer1
  6
CONTINUOUS
 62
7
 10
588.677
 20
331.774
 11
589.677
 21
332.774
  0
LINE
  8
Layer1
  6
CONTINUOUS
 62
7
 10
594.677
 20
332.774
 11
589.677
 21
332.774
  0
LINE
  8
Layer1
  6
CONTINUOUS
 62
7
 10
594.427
 20
332.274
 11
589.927
 21
332.274
  0
LINE
  8
Layer1
  6
CONTINUOUS
 62
7
 10
593.927
 20
331.274
 11
590.427
 21
331.274
  0
LINE
  8
Layer1
  6
CONTINUOUS
 62
7
 10
593.427
 20
330.274
 11
590.927
 21
330.274
  0
LINE
  8
Layer1
  6
PHANTOM1
 62
7
 10
567.677
 20
286.274
 11
567.677
 21
334.274
  0
LINE
  8
Layer1
  6
PHANTOM1
 62
7
 10
589.677
 20
285.274
 11
568.677
 21
285.274
  0
LINE
  8
Layer1
  6
PHANTOM1
 62
7
 10
589.677
 20
335.274
 11
568.677
 21
335.274
  0
LINE
  8
Layer1
  6
PHANTOM1
 62
7
 10
567.677
 20
334.274
 11
568.677
 21
335.274
  0
LINE
  8
Layer1
  6
PHANTOM1
 62
7
 10
567.677
 20
286.274
 11
568.677
 21
285.274
  0
TEXT
  8
Layer1
 62
7
 10
612.931
 20
356.587
 72
1
 11
612.931
 21
356.587
 40
8
 41
1
  1
4.5
  0
LINE
  8
Layer1
  6
CONTINUOUS
 62
7
 10
610.677
 20
334.274
 11
610.677
 21
358.587
  0
LINE
  8
Layer1
  6
CONTINUOUS
 62
7
 10
615.184
 20
347.474
 11
615.184
 21
358.587
  0
POLYLINE
  8
Layer1
  6
CONTINUOUS
 62
7
 66
1
 10
0
 20
0
 30
0
  0
VERTEX
  8
Layer1
 10
600.677
 20
356.587
  0
VERTEX
  8
Layer1
 10
610.677
 20
356.587
  0
SEQEND
  0
POLYLINE
  8
Layer1
  6
CONTINUOUS
 62
7
 66
1
 10
0
 20
0
 30
0
 70
1
  0
VERTEX
  8
Layer1
 10
606.814
 20
357.622
  0
VERTEX
  8
Layer1
 10
610.677
 20
356.587
  0
VERTEX
  8
Layer1
 10
606.814
 20
355.552
  0
SEQEND
  0
POLYLINE
  8
Layer1
  6
CONTINUOUS
 62
7
 66
1
 10
0
 20
0
 30
0
  0
VERTEX
  8
Layer1
 10
625.184
 20
356.587
  0
VERTEX
  8
Layer1
 10
615.184
 20
356.587
  0
SEQEND
  0
POLYLINE
  8
Layer1
  6
CONTINUOUS
 62
7
 66
1
 10
0
 20
0
 30
0
 70
1
  0
VERTEX
  8
Layer1
 10
619.048
 20
355.552
  0
VERTEX
  8
Layer1
 10
615.184
 20
356.587
  0
VERTEX
  8
Layer1
 10
619.048
 20
357.622
  0
SEQEND
  0
LINE
  8
Layer1
  6
CONTINUOUS
 62
7
 10
610.677
 20
356.587
 11
615.184
 21
356.587
  0
TEXT
  8
Layer1
 62
7
 10
599.177
 20
356.587
 72
1
 11
599.177
 21
356.587
 40
8
 41
1
  1
 23 
  0
LINE
  8
Layer1
  6
CONTINUOUS
 62
7
 10
587.677
 20
334.274
 11
587.677
 21
358.587
  0
POLYLINE
  8
Layer1
  6
CONTINUOUS
 62
7
 66
1
 10
0
 20
0
 30
0
  0
VERTEX
  8
Layer1
 10
610.677
 20
356.587
  0
VERTEX
  8
Layer1
 10
587.677
 20
356.587
  0
SEQEND
  0
POLYLINE
  8
Layer1
  6
CONTINUOUS
 62
7
 66
1
 10
0
 20
0
 30
0
 70
1
  0
VERTEX
  8
Layer1
 10
606.814
 20
357.622
  0
VERTEX
  8
Layer1
 10
610.677
 20
356.587
  0
VERTEX
  8
Layer1
 10
606.814
 20
355.552
  0
SEQEND
  0
POLYLINE
  8
Layer1
  6
CONTINUOUS
 62
7
 66
1
 10
0
 20
0
 30
0
 70
1
  0
VERTEX
  8
Layer1
 10
591.541
 20
355.552
  0
VERTEX
  8
Layer1
 10
587.677
 20
356.587
  0
VERTEX
  8
Layer1
 10
591.541
 20
357.622
  0
SEQEND
  0
LINE
  8
Layer1
  6
CONTINUOUS
 62
7
 10
567.677
 20
286.274
 11
567.677
 21
263.274
  0
LINE
  8
Layer1
  6
CONTINUOUS
 62
7
 10
587.677
 20
286.274
 11
587.677
 21
263.274
  0
POLYLINE
  8
Layer1
  6
CONTINUOUS
 62
7
 66
1
 10
0
 20
0
 30
0
  0
VERTEX
  8
Layer1
 10
589.677
 20
327.774
  0
VERTEX
  8
Layer1
 10
560.232
 20
367.017
  0
VERTEX
  8
Layer1
 10
560.232
 20
367.017
  0
SEQEND
  0
CIRCLE
  8
Layer1
  6
CONTINUOUS
 62
7
 10
589.677
 20
327.774
 40
1
  0
CIRCLE
  8
Layer1
  6
CONTINUOUS
 62
7
 10
557.686
 20
370.411
 40
4.24264
  0
TEXT
  8
Layer1
 62
7
 10
557.686
 20
370.411
 72
1
 73
2
 11
557.686
 21
370.411
 40
6
 41
1
  1
14
  0
POLYLINE
  8
Layer1
  6
CONTINUOUS
 62
7
 66
1
 10
0
 20
0
 30
0
  0
VERTEX
  8
Layer1
 10
593.845
 20
303.712
  0
VERTEX
  8
Layer1
 10
561.302
 20
345.425
  0
VERTEX
  8
Layer1
 10
561.302
 20
345.425
  0
SEQEND
  0
CIRCLE
  8
Layer1
  6
CONTINUOUS
 62
7
 10
593.845
 20
303.712
 40
1
  0
CIRCLE
  8
Layer1
  6
CONTINUOUS
 62
7
 10
558.693
 20
348.771
 40
4.24264
  0
TEXT
  8
Layer1
 62
7
 10
558.693
 20
348.771
 72
1
 73
2
 11
558.693
 21
348.771
 40
6
 41
1
  1
13
  0
POLYLINE
  8
Layer1
  6
CONTINUOUS
 62
7
 66
1
 10
0
 20
0
 30
0
  0
VERTEX
  8
Layer1
 10
613.251
 20
310.274
  0
VERTEX
  8
Layer1
 10
576.385
 20
366.455
  0
VERTEX
  8
Layer1
 10
576.385
 20
366.455
  0
SEQEND
  0
CIRCLE
  8
Layer1
  6
CONTINUOUS
 62
7
 10
613.251
 20
310.274
 40
1
  0
CIRCLE
  8
Layer1
  6
CONTINUOUS
 62
7
 10
574.058
 20
370.003
 40
4.24264
  0
TEXT
  8
Layer1
 62
7
 10
574.058
 20
370.003
 72
1
 73
2
 11
574.058
 21
370.003
 40
6
 41
1
  1
15
  0
POLYLINE
  8
Layer1
  6
CONTINUOUS
 62
7
 66
1
 10
0
 20
0
 30
0
  0
VERTEX
  8
Layer1
 10
567.677
 20
265.274
  0
VERTEX
  8
Layer1
 10
587.677
 20
265.274
  0
SEQEND
  0
POLYLINE
  8
Layer1
  6
CONTINUOUS
 62
7
 66
1
 10
0
 20
0
 30
0
 70
1
  0
VERTEX
  8
Layer1
 10
571.541
 20
264.239
  0
VERTEX
  8
Layer1
 10
567.677
 20
265.274
  0
VERTEX
  8
Layer1
 10
571.541
 20
266.309
  0
SEQEND
  0
POLYLINE
  8
Layer1
  6
CONTINUOUS
 62
7
 66
1
 10
0
 20
0
 30
0
 70
1
  0
VERTEX
  8
Layer1
 10
583.814
 20
266.309
  0
VERTEX
  8
Layer1
 10
587.677
 20
265.274
  0
VERTEX
  8
Layer1
 10
583.814
 20
264.239
  0
SEQEND
  0
LINE
  8
Layer1
  6
CONTINUOUS
 62
7
 10
737.177
 20
487.502
 11
744.677
 21
487.502
  0
LINE
  8
Layer1
  6
CONTINUOUS
 62
7
 10
737.177
 20
500.502
 11
744.677
 21
500.502
  0
LINE
  8
Layer1
  6
CONTINUOUS
 62
7
 10
744.677
 20
487.502
 11
744.677
 21
500.502
  0
LINE
  8
Layer1
  6
CONTINUOUS
 62
7
 10
745.177
 20
488.002
 11
745.177
 21
500.002
  0
LINE
  8
Layer1
  6
CONTINUOUS
 62
7
 10
744.677
 20
487.502
 11
745.177
 21
488.002
  0
LINE
  8
Layer1
  6
CONTINUOUS
 62
7
 10
744.677
 20
500.502
 11
745.177
 21
500.002
  0
LINE
  8
Layer1
  6
CONTINUOUS
 62
7
 10
737.754
 20
499.502
 11
744.1
 21
499.502
  0
LINE
  8
Layer1
  6
CONTINUOUS
 62
7
 10
738.331
 20
498.502
 11
743.523
 21
498.502
  0
LINE
  8
Layer1
  6
CONTINUOUS
 62
7
 10
738.908
 20
497.502
 11
742.946
 21
497.502
  0
LINE
  8
Layer1
  6
CONTINUOUS
 62
7
 10
739.485
 20
496.502
 11
742.369
 21
496.502
  0
LINE
  8
Layer1
  6
CONTINUOUS
 62
7
 10
737.177
 20
500.502
 11
737.177
 21
487.502
  0
TEXT
  8
Layer1
 62
7
 10
761.09
 20
526.502
 72
1
 11
761.09
 21
526.502
 40
7
 41
1
 50
90
  1
 80 
  0
LINE
  8
Layer1
  6
CONTINUOUS
 62
7
 10
738.177
 20
566.502
 11
764.09
 21
566.502
  0
LINE
  8
Layer1
  6
CONTINUOUS
 62
7
 10
735.726
 20
486.502
 11
764.09
 21
486.502
  0
POLYLINE
  8
Layer1
  6
CONTINUOUS
 62
7
 66
1
 10
0
 20
0
 30
0
  0
VERTEX
  8
Layer1
 10
762.09
 20
566.502
  0
VERTEX
  8
Layer1
 10
762.09
 20
486.502
  0
SEQEND
  0
POLYLINE
  8
Layer1
  6
CONTINUOUS
 62
7
 66
1
 10
0
 20
0
 30
0
  0
VERTEX
  8
Layer1
 10
761.313
 20
563.604
  0
VERTEX
  8
Layer1
 10
762.09
 20
566.502
  0
VERTEX
  8
Layer1
 10
762.866
 20
563.604
  0
SEQEND
  0
POLYLINE
  8
Layer1
  6
CONTINUOUS
 62
7
 66
1
 10
0
 20
0
 30
0
  0
VERTEX
  8
Layer1
 10
762.866
 20
489.4
  0
VERTEX
  8
Layer1
 10
762.09
 20
486.502
  0
VERTEX
  8
Layer1
 10
761.313
 20
489.4
  0
SEQEND
  0
ENDSEC
  0
EOF
