  0
SECTION
  2
HEADER
  9
$EXTMIN
 10
0
 20
0
  9
$EXTMAX
 10
1485
 20
1050
  9
$LTSCALE
 40
1
  9
$LIMMIN
 10
0
 20
0
  9
$LIMMAX
 10
1485
 20
1050
  9
$DIMSCALE
 40
1
  0
ENDSEC
  0
SECTION
  2
TABLES
  0
TABLE
  2
LTYPE
 70
9
  0
LTYPE
  2
CONTINUOUS
 70
64
  3
----------
 72
65
 73
0
 40
0
  0
LTYPE
  2
DASHED1
 70
64
  3
--  --  --  --  --  --  --  --  
 72
65
 73
2
 40
2.5
 49
1.25
 49
-1.25
  0
LTYPE
  2
DASHED2
 70
64
  3
----    ----    ----    ----    
 72
65
 73
2
 40
5
 49
2.5
 49
-2.5
  0
LTYPE
  2
DASHED3
 70
64
  3
------  ------  ------  ------  
 72
65
 73
2
 40
5
 49
3.75
 49
-1.25
  0
LTYPE
  2
CENTER1
 70
64
  3
----- - ----- - ----- - ----- - 
 72
65
 73
4
 40
7.5
 49
3.75
 49
-1.25
 49
1.25
 49
-1.25
  0
LTYPE
  2
CENTER2
 70
64
  3
----------  --  ----------  --  
 72
65
 73
4
 40
13.75
 49
6.25
 49
-2.5
 49
2.5
 49
-2.5
  0
LTYPE
  2
PHANTOM1
 70
64
  3
--- - - --- - - --- - - --- - - 
 72
65
 73
6
 40
9.5
 49
3.25
 49
-1.25
 49
1.25
 49
-1.25
 49
1.25
 49
-1.25
  0
LTYPE
  2
PHANTOM2
 70
64
  3
--------  -  -  --------  -  -  
 72
65
 73
6
 40
18
 49
8
 49
-2.5
 49
1.25
 49
-2.5
 49
1.25
 49
-2.5
  0
LTYPE
  2
DOT
 70
64
  3
-   -   -   -   -   -   -   -   
 72
65
 73
2
 40
2.5
 49
0.625
 49
-1.875
  0
LTYPE
  2
HOJO
 70
64
  3
-   -   -   -   -   -   -   -   
 72
65
 73
2
 40
2.5
 49
0.625
 49
-1.875
  0
ENDTAB
  0
TABLE
  2
STYLE
 70
2
  0
STYLE
  2
STANDARD
 70
64
 40
0
 41
1
 42
0
 50
0
 71
0
  3
TXT
  4
BIGFONT
  0
STYLE
  2
TATEGAKI
 70
68
 40
0
 41
1
 42
0
 50
0
 71
0
  3
TXT
  4
EXTFONT
  0
ENDTAB
  0
TABLE
  2
LAYER
 70
1
  0
LAYER
  2
Layer1
 70
64
 62
7
  6
CONTINUOUS
  0
ENDTAB
  0
ENDSEC
  0
SECTION
  2
ENTITIES
  0
LINE
  8
Layer1
  6
CONTINUOUS
 62
7
 10
839.892
 20
415.535
 11
834.241
 21
409.884
  0
LINE
  8
Layer1
  6
CONTINUOUS
 62
7
 10
604.789
 20
333.727
 11
486.789
 21
333.727
  0
LINE
  8
Layer1
  6
CENTER2
 62
7
 10
545.789
 20
410.896
 11
545.789
 21
328.57
  0
LINE
  8
Layer1
  6
CONTINUOUS
 62
7
 10
556.789
 20
333.727
 11
565.157
 21
333.727
  0
LINE
  8
Layer1
  6
CENTER2
 62
7
 10
753.938
 20
622.455
 11
966.258
 21
622.455
  0
CIRCLE
  8
Layer1
  6
CONTINUOUS
 62
7
 10
806.478
 20
697.455
 40
7
  0
CIRCLE
  8
Layer1
  6
CONTINUOUS
 62
7
 10
926.478
 20
697.455
 40
7
  0
CIRCLE
  8
Layer1
  6
CONTINUOUS
 62
7
 10
806.478
 20
547.455
 40
7
  0
CIRCLE
  8
Layer1
  6
CONTINUOUS
 62
7
 10
926.478
 20
547.455
 40
7
  0
CIRCLE
  8
Layer1
  6
CONTINUOUS
 62
7
 10
806.478
 20
697.455
 40
4.5
  0
CIRCLE
  8
Layer1
  6
CONTINUOUS
 62
7
 10
926.478
 20
697.455
 40
4.5
  0
CIRCLE
  8
Layer1
  6
CONTINUOUS
 62
7
 10
806.478
 20
547.455
 40
4.5
  0
CIRCLE
  8
Layer1
  6
CONTINUOUS
 62
7
 10
926.478
 20
547.455
 40
4.5
  0
LINE
  8
Layer1
  6
CONTINUOUS
 62
7
 10
554.663
 20
333.727
 11
572.266
 21
333.727
  0
LINE
  8
Layer1
  6
DASHED1
 62
7
 10
581.306
 20
416.727
 11
581.289
 21
416.71
  0
CIRCLE
  8
Layer1
  6
CONTINUOUS
 62
7
 10
588.289
 20
396.227
 40
4
  0
CIRCLE
  8
Layer1
  6
CONTINUOUS
 62
7
 10
588.289
 20
361.227
 40
4
  0
LINE
  8
Layer1
  6
CENTER1
 62
7
 10
484.482
 20
378.727
 11
598.85
 21
378.727
  0
LINE
  8
Layer1
  6
CENTER2
 62
7
 10
545.789
 20
486.594
 11
545.789
 21
413.985
  0
LINE
  8
Layer1
  6
CENTER1
 62
7
 10
806.478
 20
559.212
 11
806.478
 21
530.984
  0
LINE
  8
Layer1
  6
CENTER1
 62
7
 10
793.96
 20
547.455
 11
820.89
 21
547.455
  0
LINE
  8
Layer1
  6
CENTER1
 62
7
 10
806.478
 20
685.428
 11
806.478
 21
709.482
  0
LINE
  8
Layer1
  6
CENTER1
 62
7
 10
926.478
 20
687.626
 11
926.478
 21
704.991
  0
LINE
  8
Layer1
  6
CENTER1
 62
7
 10
917.869
 20
547.455
 11
936.023
 21
547.455
  0
LINE
  8
Layer1
  6
CENTER1
 62
7
 10
926.478
 20
555.838
 11
926.478
 21
533.737
  0
LINE
  8
Layer1
  6
CONTINUOUS
 62
7
 10
953.977
 20
673.955
 11
961.477
 21
673.955
  0
LINE
  8
Layer1
  6
CONTINUOUS
 62
7
 10
953.977
 20
686.955
 11
961.477
 21
686.955
  0
LINE
  8
Layer1
  6
CONTINUOUS
 62
7
 10
961.477
 20
673.955
 11
961.477
 21
686.955
  0
LINE
  8
Layer1
  6
CONTINUOUS
 62
7
 10
961.977
 20
674.455
 11
961.977
 21
686.455
  0
LINE
  8
Layer1
  6
CONTINUOUS
 62
7
 10
961.477
 20
673.955
 11
961.977
 21
674.455
  0
LINE
  8
Layer1
  6
CONTINUOUS
 62
7
 10
961.477
 20
686.955
 11
961.977
 21
686.455
  0
LINE
  8
Layer1
  6
CONTINUOUS
 62
7
 10
953.977
 20
686.955
 11
953.977
 21
673.955
  0
LINE
  8
Layer1
  6
CONTINUOUS
 62
7
 10
954.554
 20
685.955
 11
960.9
 21
685.955
  0
LINE
  8
Layer1
  6
CONTINUOUS
 62
7
 10
955.131
 20
684.955
 11
960.324
 21
684.955
  0
LINE
  8
Layer1
  6
CONTINUOUS
 62
7
 10
955.708
 20
683.955
 11
959.747
 21
683.955
  0
LINE
  8
Layer1
  6
CONTINUOUS
 62
7
 10
956.285
 20
682.955
 11
959.17
 21
682.955
  0
LINE
  8
Layer1
  6
CONTINUOUS
 62
7
 10
953.977
 20
557.955
 11
961.477
 21
557.955
  0
LINE
  8
Layer1
  6
CONTINUOUS
 62
7
 10
953.977
 20
570.955
 11
961.477
 21
570.955
  0
LINE
  8
Layer1
  6
CONTINUOUS
 62
7
 10
961.477
 20
557.955
 11
961.477
 21
570.955
  0
LINE
  8
Layer1
  6
CONTINUOUS
 62
7
 10
961.977
 20
558.455
 11
961.977
 21
570.455
  0
LINE
  8
Layer1
  6
CONTINUOUS
 62
7
 10
961.477
 20
557.955
 11
961.977
 21
558.455
  0
LINE
  8
Layer1
  6
CONTINUOUS
 62
7
 10
961.477
 20
570.955
 11
961.977
 21
570.455
  0
LINE
  8
Layer1
  6
CONTINUOUS
 62
7
 10
953.977
 20
570.955
 11
953.977
 21
557.955
  0
LINE
  8
Layer1
  6
CONTINUOUS
 62
7
 10
954.554
 20
569.955
 11
960.9
 21
569.955
  0
LINE
  8
Layer1
  6
CONTINUOUS
 62
7
 10
955.131
 20
568.955
 11
960.324
 21
568.955
  0
LINE
  8
Layer1
  6
CONTINUOUS
 62
7
 10
955.708
 20
567.955
 11
959.747
 21
567.955
  0
LINE
  8
Layer1
  6
CONTINUOUS
 62
7
 10
956.285
 20
566.955
 11
959.17
 21
566.955
  0
CIRCLE
  8
Layer1
  6
CONTINUOUS
 62
7
 10
842.978
 20
622.455
 40
3.76681
  0
ARC
  8
Layer1
  6
CONTINUOUS
 62
7
 10
838.505
 20
622.49
 40
1
 50
140.711
 51
225
  0
LINE
  8
Layer1
  6
CONTINUOUS
 62
7
 10
847.488
 20
624.099
 11
849.751
 21
624.099
  0
LINE
  8
Layer1
  6
CONTINUOUS
 62
7
 10
847.488
 20
620.614
 11
849.751
 21
620.614
  0
LINE
  8
Layer1
  6
CONTINUOUS
 62
7
 10
849.751
 20
624.099
 11
849.751
 21
620.614
  0
ARC
  8
Layer1
  6
CONTINUOUS
 62
7
 10
842.978
 20
622.455
 40
4.80058
 50
20.031
 51
140.098
  0
ARC
  8
Layer1
  6
CONTINUOUS
 62
7
 10
842.978
 20
622.455
 40
4.80058
 50
218.056
 51
337.793
  0
ARC
  8
Layer1
  6
CONTINUOUS
 62
7
 10
830.085
 20
615.205
 40
10.1292
 50
24.1178
 51
40.4581
  0
ARC
  8
Layer1
  6
CONTINUOUS
 62
7
 10
830.024
 20
629.696
 40
10.1292
 50
319.542
 51
335.882
  0
ARC
  8
Layer1
  6
CONTINUOUS
 62
7
 10
848.619
 20
624.099
 40
0.542282
 50
0
 51
180
  0
ARC
  8
Layer1
  6
CONTINUOUS
 62
7
 10
848.619
 20
620.614
 40
0.657613
 50
180
 51
2.03555e-013
  0
LINE
  8
Layer1
  6
CONTINUOUS
 62
7
 10
541.988
 20
425.319
 11
549.833
 21
425.319
  0
LINE
  8
Layer1
  6
CONTINUOUS
 62
7
 10
541.66
 20
424.716
 11
550.134
 21
424.716
  0
LINE
  8
Layer1
  6
CONTINUOUS
 62
7
 10
541.565
 20
421.337
 11
550.014
 21
421.337
  0
LINE
  8
Layer1
  6
CONTINUOUS
 62
7
 10
550.738
 20
420.612
 11
540.841
 21
420.612
  0
LINE
  8
Layer1
  6
CONTINUOUS
 62
7
 10
550.738
 20
420.612
 11
550.738
 21
418.742
  0
LINE
  8
Layer1
  6
CONTINUOUS
 62
7
 10
540.841
 20
420.612
 11
540.841
 21
418.742
  0
POLYLINE
  8
Layer1
  6
CONTINUOUS
 62
7
 66
1
 10
0
 20
0
 30
0
  0
VERTEX
  8
Layer1
 10
545.783
 20
422.533
  0
VERTEX
  8
Layer1
 10
545.717
 20
422.59
  0
VERTEX
  8
Layer1
 10
545.651
 20
422.645
  0
VERTEX
  8
Layer1
 10
545.582
 20
422.699
  0
VERTEX
  8
Layer1
 10
545.513
 20
422.75
  0
VERTEX
  8
Layer1
 10
545.442
 20
422.8
  0
VERTEX
  8
Layer1
 10
545.37
 20
422.849
  0
VERTEX
  8
Layer1
 10
545.296
 20
422.895
  0
VERTEX
  8
Layer1
 10
545.222
 20
422.939
  0
VERTEX
  8
Layer1
 10
545.146
 20
422.981
  0
VERTEX
  8
Layer1
 10
545.07
 20
423.022
  0
VERTEX
  8
Layer1
 10
544.992
 20
423.06
  0
VERTEX
  8
Layer1
 10
544.913
 20
423.097
  0
VERTEX
  8
Layer1
 10
544.833
 20
423.131
  0
VERTEX
  8
Layer1
 10
544.753
 20
423.163
  0
VERTEX
  8
Layer1
 10
544.672
 20
423.194
  0
VERTEX
  8
Layer1
 10
544.59
 20
423.222
  0
VERTEX
  8
Layer1
 10
544.507
 20
423.248
  0
VERTEX
  8
Layer1
 10
544.424
 20
423.271
  0
VERTEX
  8
Layer1
 10
544.34
 20
423.293
  0
VERTEX
  8
Layer1
 10
544.255
 20
423.312
  0
VERTEX
  8
Layer1
 10
544.17
 20
423.33
  0
VERTEX
  8
Layer1
 10
544.085
 20
423.345
  0
VERTEX
  8
Layer1
 10
543.999
 20
423.358
  0
VERTEX
  8
Layer1
 10
543.913
 20
423.368
  0
VERTEX
  8
Layer1
 10
543.827
 20
423.377
  0
VERTEX
  8
Layer1
 10
543.74
 20
423.383
  0
VERTEX
  8
Layer1
 10
543.653
 20
423.387
  0
VERTEX
  8
Layer1
 10
543.567
 20
423.388
  0
VERTEX
  8
Layer1
 10
543.48
 20
423.388
  0
VERTEX
  8
Layer1
 10
543.393
 20
423.385
  0
VERTEX
  8
Layer1
 10
543.307
 20
423.38
  0
VERTEX
  8
Layer1
 10
543.22
 20
423.373
  0
VERTEX
  8
Layer1
 10
543.134
 20
423.363
  0
VERTEX
  8
Layer1
 10
543.048
 20
423.351
  0
VERTEX
  8
Layer1
 10
542.963
 20
423.337
  0
VERTEX
  8
Layer1
 10
542.878
 20
423.321
  0
VERTEX
  8
Layer1
 10
542.793
 20
423.303
  0
VERTEX
  8
Layer1
 10
542.709
 20
423.282
  0
VERTEX
  8
Layer1
 10
542.625
 20
423.259
  0
VERTEX
  8
Layer1
 10
542.542
 20
423.234
  0
VERTEX
  8
Layer1
 10
542.459
 20
423.207
  0
VERTEX
  8
Layer1
 10
542.378
 20
423.178
  0
VERTEX
  8
Layer1
 10
542.297
 20
423.147
  0
VERTEX
  8
Layer1
 10
542.217
 20
423.114
  0
VERTEX
  8
Layer1
 10
542.138
 20
423.078
  0
VERTEX
  8
Layer1
 10
542.059
 20
423.041
  0
VERTEX
  8
Layer1
 10
541.982
 20
423.001
  0
VERTEX
  8
Layer1
 10
541.906
 20
422.96
  0
SEQEND
  0
POLYLINE
  8
Layer1
  6
CONTINUOUS
 62
7
 66
1
 10
0
 20
0
 30
0
  0
VERTEX
  8
Layer1
 10
550.135
 20
422.905
  0
VERTEX
  8
Layer1
 10
550.048
 20
422.941
  0
VERTEX
  8
Layer1
 10
549.959
 20
422.975
  0
VERTEX
  8
Layer1
 10
549.871
 20
423.007
  0
VERTEX
  8
Layer1
 10
549.781
 20
423.037
  0
VERTEX
  8
Layer1
 10
549.691
 20
423.065
  0
VERTEX
  8
Layer1
 10
549.6
 20
423.092
  0
VERTEX
  8
Layer1
 10
549.509
 20
423.117
  0
VERTEX
  8
Layer1
 10
549.418
 20
423.14
  0
VERTEX
  8
Layer1
 10
549.326
 20
423.161
  0
VERTEX
  8
Layer1
 10
549.233
 20
423.18
  0
VERTEX
  8
Layer1
 10
549.14
 20
423.198
  0
VERTEX
  8
Layer1
 10
549.047
 20
423.213
  0
VERTEX
  8
Layer1
 10
548.954
 20
423.227
  0
VERTEX
  8
Layer1
 10
548.86
 20
423.239
  0
VERTEX
  8
Layer1
 10
548.766
 20
423.249
  0
VERTEX
  8
Layer1
 10
548.672
 20
423.257
  0
VERTEX
  8
Layer1
 10
548.578
 20
423.263
  0
VERTEX
  8
Layer1
 10
548.484
 20
423.268
  0
VERTEX
  8
Layer1
 10
548.389
 20
423.27
  0
VERTEX
  8
Layer1
 10
548.295
 20
423.271
  0
VERTEX
  8
Layer1
 10
548.2
 20
423.27
  0
VERTEX
  8
Layer1
 10
548.106
 20
423.266
  0
VERTEX
  8
Layer1
 10
548.012
 20
423.261
  0
VERTEX
  8
Layer1
 10
547.918
 20
423.254
  0
VERTEX
  8
Layer1
 10
547.824
 20
423.246
  0
VERTEX
  8
Layer1
 10
547.73
 20
423.235
  0
VERTEX
  8
Layer1
 10
547.636
 20
423.222
  0
VERTEX
  8
Layer1
 10
547.543
 20
423.208
  0
VERTEX
  8
Layer1
 10
547.45
 20
423.191
  0
VERTEX
  8
Layer1
 10
547.357
 20
423.173
  0
VERTEX
  8
Layer1
 10
547.265
 20
423.153
  0
VERTEX
  8
Layer1
 10
547.173
 20
423.131
  0
VERTEX
  8
Layer1
 10
547.082
 20
423.108
  0
VERTEX
  8
Layer1
 10
546.991
 20
423.082
  0
VERTEX
  8
Layer1
 10
546.9
 20
423.055
  0
VERTEX
  8
Layer1
 10
546.81
 20
423.026
  0
VERTEX
  8
Layer1
 10
546.721
 20
422.995
  0
VERTEX
  8
Layer1
 10
546.633
 20
422.962
  0
VERTEX
  8
Layer1
 10
546.545
 20
422.927
  0
VERTEX
  8
Layer1
 10
546.458
 20
422.891
  0
VERTEX
  8
Layer1
 10
546.371
 20
422.853
  0
VERTEX
  8
Layer1
 10
546.285
 20
422.814
  0
VERTEX
  8
Layer1
 10
546.201
 20
422.772
  0
VERTEX
  8
Layer1
 10
546.116
 20
422.729
  0
VERTEX
  8
Layer1
 10
546.033
 20
422.684
  0
VERTEX
  8
Layer1
 10
545.951
 20
422.638
  0
VERTEX
  8
Layer1
 10
545.87
 20
422.59
  0
VERTEX
  8
Layer1
 10
545.789
 20
422.54
  0
SEQEND
  0
LINE
  8
Layer1
  6
CONTINUOUS
 62
7
 10
542.252
 20
423.129
 11
541.918
 21
422.939
  0
LINE
  8
Layer1
  6
CONTINUOUS
 62
7
 10
541.988
 20
425.319
 11
541.128
 21
423.736
  0
LINE
  8
Layer1
  6
CONTINUOUS
 62
7
 10
549.833
 20
425.319
 11
550.72
 21
423.504
  0
LINE
  8
Layer1
  6
CONTINUOUS
 62
7
 10
549.651
 20
423.049
 11
550.135
 21
422.905
  0
POLYLINE
  8
Layer1
  6
CONTINUOUS
 62
7
 66
1
 10
0
 20
0
 30
0
  0
VERTEX
  8
Layer1
 10
541.128
 20
423.736
  0
VERTEX
  8
Layer1
 10
541.113
 20
423.708
  0
VERTEX
  8
Layer1
 10
541.1
 20
423.679
  0
VERTEX
  8
Layer1
 10
541.088
 20
423.65
  0
VERTEX
  8
Layer1
 10
541.077
 20
423.62
  0
VERTEX
  8
Layer1
 10
541.068
 20
423.59
  0
VERTEX
  8
Layer1
 10
541.061
 20
423.559
  0
VERTEX
  8
Layer1
 10
541.056
 20
423.528
  0
VERTEX
  8
Layer1
 10
541.052
 20
423.496
  0
VERTEX
  8
Layer1
 10
541.05
 20
423.465
  0
VERTEX
  8
Layer1
 10
541.05
 20
423.433
  0
VERTEX
  8
Layer1
 10
541.051
 20
423.402
  0
VERTEX
  8
Layer1
 10
541.055
 20
423.37
  0
VERTEX
  8
Layer1
 10
541.059
 20
423.339
  0
VERTEX
  8
Layer1
 10
541.066
 20
423.308
  0
VERTEX
  8
Layer1
 10
541.074
 20
423.277
  0
VERTEX
  8
Layer1
 10
541.084
 20
423.247
  0
VERTEX
  8
Layer1
 10
541.096
 20
423.218
  0
VERTEX
  8
Layer1
 10
541.109
 20
423.189
  0
VERTEX
  8
Layer1
 10
541.123
 20
423.161
  0
VERTEX
  8
Layer1
 10
541.139
 20
423.134
  0
VERTEX
  8
Layer1
 10
541.157
 20
423.108
  0
VERTEX
  8
Layer1
 10
541.176
 20
423.082
  0
VERTEX
  8
Layer1
 10
541.196
 20
423.058
  0
VERTEX
  8
Layer1
 10
541.218
 20
423.035
  0
VERTEX
  8
Layer1
 10
541.241
 20
423.013
  0
VERTEX
  8
Layer1
 10
541.265
 20
422.993
  0
VERTEX
  8
Layer1
 10
541.29
 20
422.973
  0
VERTEX
  8
Layer1
 10
541.316
 20
422.955
  0
VERTEX
  8
Layer1
 10
541.343
 20
422.939
  0
VERTEX
  8
Layer1
 10
541.371
 20
422.924
  0
VERTEX
  8
Layer1
 10
541.4
 20
422.911
  0
VERTEX
  8
Layer1
 10
541.429
 20
422.899
  0
VERTEX
  8
Layer1
 10
541.459
 20
422.889
  0
VERTEX
  8
Layer1
 10
541.49
 20
422.88
  0
VERTEX
  8
Layer1
 10
541.521
 20
422.874
  0
VERTEX
  8
Layer1
 10
541.552
 20
422.868
  0
VERTEX
  8
Layer1
 10
541.583
 20
422.865
  0
VERTEX
  8
Layer1
 10
541.615
 20
422.863
  0
VERTEX
  8
Layer1
 10
541.646
 20
422.863
  0
VERTEX
  8
Layer1
 10
541.678
 20
422.865
  0
VERTEX
  8
Layer1
 10
541.709
 20
422.868
  0
VERTEX
  8
Layer1
 10
541.741
 20
422.873
  0
VERTEX
  8
Layer1
 10
541.772
 20
422.88
  0
VERTEX
  8
Layer1
 10
541.802
 20
422.889
  0
VERTEX
  8
Layer1
 10
541.832
 20
422.899
  0
VERTEX
  8
Layer1
 10
541.861
 20
422.911
  0
VERTEX
  8
Layer1
 10
541.89
 20
422.924
  0
VERTEX
  8
Layer1
 10
541.918
 20
422.939
  0
SEQEND
  0
POLYLINE
  8
Layer1
  6
CONTINUOUS
 62
7
 66
1
 10
0
 20
0
 30
0
  0
VERTEX
  8
Layer1
 10
550.135
 20
422.905
  0
VERTEX
  8
Layer1
 10
550.156
 20
422.9
  0
VERTEX
  8
Layer1
 10
550.177
 20
422.895
  0
VERTEX
  8
Layer1
 10
550.198
 20
422.891
  0
VERTEX
  8
Layer1
 10
550.219
 20
422.888
  0
VERTEX
  8
Layer1
 10
550.24
 20
422.887
  0
VERTEX
  8
Layer1
 10
550.262
 20
422.886
  0
VERTEX
  8
Layer1
 10
550.283
 20
422.886
  0
VERTEX
  8
Layer1
 10
550.304
 20
422.887
  0
VERTEX
  8
Layer1
 10
550.326
 20
422.889
  0
VERTEX
  8
Layer1
 10
550.347
 20
422.892
  0
VERTEX
  8
Layer1
 10
550.368
 20
422.896
  0
VERTEX
  8
Layer1
 10
550.389
 20
422.901
  0
VERTEX
  8
Layer1
 10
550.409
 20
422.907
  0
VERTEX
  8
Layer1
 10
550.43
 20
422.913
  0
VERTEX
  8
Layer1
 10
550.45
 20
422.921
  0
VERTEX
  8
Layer1
 10
550.469
 20
422.93
  0
VERTEX
  8
Layer1
 10
550.488
 20
422.939
  0
VERTEX
  8
Layer1
 10
550.507
 20
422.95
  0
VERTEX
  8
Layer1
 10
550.525
 20
422.961
  0
VERTEX
  8
Layer1
 10
550.543
 20
422.973
  0
VERTEX
  8
Layer1
 10
550.56
 20
422.985
  0
VERTEX
  8
Layer1
 10
550.577
 20
422.999
  0
VERTEX
  8
Layer1
 10
550.593
 20
423.013
  0
VERTEX
  8
Layer1
 10
550.608
 20
423.028
  0
VERTEX
  8
Layer1
 10
550.623
 20
423.044
  0
VERTEX
  8
Layer1
 10
550.637
 20
423.06
  0
VERTEX
  8
Layer1
 10
550.65
 20
423.077
  0
VERTEX
  8
Layer1
 10
550.662
 20
423.094
  0
VERTEX
  8
Layer1
 10
550.674
 20
423.112
  0
VERTEX
  8
Layer1
 10
550.684
 20
423.131
  0
VERTEX
  8
Layer1
 10
550.694
 20
423.15
  0
VERTEX
  8
Layer1
 10
550.703
 20
423.169
  0
VERTEX
  8
Layer1
 10
550.711
 20
423.189
  0
VERTEX
  8
Layer1
 10
550.719
 20
423.209
  0
VERTEX
  8
Layer1
 10
550.725
 20
423.23
  0
VERTEX
  8
Layer1
 10
550.73
 20
423.25
  0
VERTEX
  8
Layer1
 10
550.735
 20
423.271
  0
VERTEX
  8
Layer1
 10
550.738
 20
423.293
  0
VERTEX
  8
Layer1
 10
550.741
 20
423.314
  0
VERTEX
  8
Layer1
 10
550.742
 20
423.335
  0
VERTEX
  8
Layer1
 10
550.743
 20
423.357
  0
VERTEX
  8
Layer1
 10
550.742
 20
423.378
  0
VERTEX
  8
Layer1
 10
550.741
 20
423.399
  0
VERTEX
  8
Layer1
 10
550.739
 20
423.421
  0
VERTEX
  8
Layer1
 10
550.736
 20
423.442
  0
VERTEX
  8
Layer1
 10
550.731
 20
423.463
  0
VERTEX
  8
Layer1
 10
550.726
 20
423.483
  0
VERTEX
  8
Layer1
 10
550.72
 20
423.504
  0
SEQEND
  0
LINE
  8
Layer1
  6
CONTINUOUS
 62
7
 10
548.857
 20
423.239
 11
548.857
 21
421.337
  0
LINE
  8
Layer1
  6
CONTINUOUS
 62
7
 10
542.712
 20
423.283
 11
542.712
 21
421.337
  0
LINE
  8
Layer1
  6
CONTINUOUS
 62
7
 10
541.565
 20
421.337
 11
540.841
 21
420.612
  0
LINE
  8
Layer1
  6
CONTINUOUS
 62
7
 10
550.014
 20
421.337
 11
550.738
 21
420.612
  0
CIRCLE
  8
Layer1
  6
CONTINUOUS
 62
7
 10
866.478
 20
547.455
 40
7
  0
CIRCLE
  8
Layer1
  6
CONTINUOUS
 62
7
 10
866.478
 20
547.455
 40
4.5
  0
LINE
  8
Layer1
  6
CENTER1
 62
7
 10
866.478
 20
558.295
 11
866.478
 21
530.067
  0
LINE
  8
Layer1
  6
CENTER1
 62
7
 10
853.96
 20
547.455
 11
880.691
 21
547.455
  0
CIRCLE
  8
Layer1
  6
CONTINUOUS
 62
7
 10
866.478
 20
697.455
 40
7
  0
CIRCLE
  8
Layer1
  6
CONTINUOUS
 62
7
 10
866.478
 20
697.455
 40
4.5
  0
LINE
  8
Layer1
  6
CENTER1
 62
7
 10
866.478
 20
688.876
 11
866.478
 21
706.24
  0
LINE
  8
Layer1
  6
CONTINUOUS
 62
7
 10
937.932
 20
557.455
 11
937.932
 21
537.455
  0
LINE
  8
Layer1
  6
CONTINUOUS
 62
7
 10
893.977
 20
687.455
 11
893.977
 21
557.455
  0
LINE
  8
Layer1
  6
CENTER1
 62
7
 10
919.904
 20
564.955
 11
938.334
 21
564.955
  0
CIRCLE
  8
Layer1
  6
CONTINUOUS
 62
7
 10
928.977
 20
679.955
 40
4.5
  0
CIRCLE
  8
Layer1
  6
CONTINUOUS
 62
7
 10
928.977
 20
564.955
 40
4.5
  0
CIRCLE
  8
Layer1
  6
CONTINUOUS
 62
7
 10
903.977
 20
564.955
 40
4.5
  0
CIRCLE
  8
Layer1
  6
CONTINUOUS
 62
7
 10
903.977
 20
679.955
 40
4.5
  0
CIRCLE
  8
Layer1
  6
DASHED1
 62
7
 10
928.977
 20
679.955
 40
7
  0
CIRCLE
  8
Layer1
  6
DASHED1
 62
7
 10
928.977
 20
564.955
 40
7
  0
CIRCLE
  8
Layer1
  6
DASHED1
 62
7
 10
903.977
 20
564.955
 40
7
  0
CIRCLE
  8
Layer1
  6
DASHED1
 62
7
 10
903.977
 20
679.955
 40
7
  0
LINE
  8
Layer1
  6
CENTER1
 62
7
 10
928.977
 20
575.395
 11
928.977
 21
553.516
  0
LINE
  8
Layer1
  6
CENTER1
 62
7
 10
928.977
 20
691.276
 11
928.977
 21
670.505
  0
LINE
  8
Layer1
  6
CENTER1
 62
7
 10
894.797
 20
679.955
 11
913.358
 21
679.955
  0
LINE
  8
Layer1
  6
CENTER1
 62
7
 10
903.977
 20
572.646
 11
903.977
 21
553.26
  0
LINE
  8
Layer1
  6
CENTER1
 62
7
 10
903.977
 20
689.031
 11
903.977
 21
667.152
  0
LINE
  8
Layer1
  6
CENTER1
 62
7
 10
895.559
 20
564.955
 11
914.176
 21
564.955
  0
LINE
  8
Layer1
  6
CONTINUOUS
 62
7
 10
891.978
 20
687.455
 11
891.978
 21
557.455
  0
POLYLINE
  8
Layer1
  6
CONTINUOUS
 62
7
 66
1
 10
0
 20
0
 30
0
  0
VERTEX
  8
Layer1
 10
857.851
 20
630.984
  0
VERTEX
  8
Layer1
 10
857.836
 20
631.036
  0
VERTEX
  8
Layer1
 10
857.816
 20
631.098
  0
VERTEX
  8
Layer1
 10
857.794
 20
631.16
  0
VERTEX
  8
Layer1
 10
857.77
 20
631.221
  0
VERTEX
  8
Layer1
 10
857.744
 20
631.281
  0
VERTEX
  8
Layer1
 10
857.716
 20
631.34
  0
VERTEX
  8
Layer1
 10
857.686
 20
631.398
  0
VERTEX
  8
Layer1
 10
857.654
 20
631.455
  0
VERTEX
  8
Layer1
 10
857.62
 20
631.512
  0
VERTEX
  8
Layer1
 10
857.585
 20
631.567
  0
VERTEX
  8
Layer1
 10
857.568
 20
631.591
  0
SEQEND
  0
LINE
  8
Layer1
  6
DASHED1
 62
7
 10
827.922
 20
630.455
 11
827.922
 21
614.455
  0
LINE
  8
Layer1
  6
DASHED1
 62
7
 10
855.627
 20
612.455
 11
829.943
 21
612.455
  0
LINE
  8
Layer1
  6
DASHED1
 62
7
 10
855.425
 20
632.455
 11
829.922
 21
632.455
  0
LINE
  8
Layer1
  6
DASHED1
 62
7
 10
857.922
 20
630.243
 11
857.922
 21
614.536
  0
POLYLINE
  8
Layer1
  6
CONTINUOUS
 62
7
 66
1
 10
0
 20
0
 30
0
  0
VERTEX
  8
Layer1
 10
856.638
 20
612.588
  0
VERTEX
  8
Layer1
 10
856.687
 20
612.608
  0
VERTEX
  8
Layer1
 10
856.747
 20
612.634
  0
VERTEX
  8
Layer1
 10
856.807
 20
612.662
  0
VERTEX
  8
Layer1
 10
856.865
 20
612.692
  0
VERTEX
  8
Layer1
 10
856.922
 20
612.723
  0
VERTEX
  8
Layer1
 10
856.978
 20
612.757
  0
VERTEX
  8
Layer1
 10
857.033
 20
612.792
  0
VERTEX
  8
Layer1
 10
857.087
 20
612.83
  0
VERTEX
  8
Layer1
 10
857.14
 20
612.869
  0
VERTEX
  8
Layer1
 10
857.191
 20
612.909
  0
VERTEX
  8
Layer1
 10
857.241
 20
612.952
  0
VERTEX
  8
Layer1
 10
857.289
 20
612.996
  0
VERTEX
  8
Layer1
 10
857.336
 20
613.041
  0
VERTEX
  8
Layer1
 10
857.382
 20
613.088
  0
VERTEX
  8
Layer1
 10
857.426
 20
613.137
  0
VERTEX
  8
Layer1
 10
857.468
 20
613.187
  0
VERTEX
  8
Layer1
 10
857.509
 20
613.238
  0
VERTEX
  8
Layer1
 10
857.548
 20
613.29
  0
VERTEX
  8
Layer1
 10
857.585
 20
613.344
  0
VERTEX
  8
Layer1
 10
857.62
 20
613.399
  0
VERTEX
  8
Layer1
 10
857.654
 20
613.455
  0
VERTEX
  8
Layer1
 10
857.686
 20
613.513
  0
VERTEX
  8
Layer1
 10
857.716
 20
613.571
  0
VERTEX
  8
Layer1
 10
857.726
 20
613.592
  0
SEQEND
  0
LINE
  8
Layer1
  6
CONTINUOUS
 62
7
 10
827.922
 20
614.455
 11
827.923
 21
614.401
  0
POLYLINE
  8
Layer1
  6
CONTINUOUS
 62
7
 66
1
 10
0
 20
0
 30
0
  0
VERTEX
  8
Layer1
 10
829.922
 20
632.455
  0
VERTEX
  8
Layer1
 10
829.857
 20
632.454
  0
VERTEX
  8
Layer1
 10
829.808
 20
632.452
  0
SEQEND
  0
LINE
  8
Layer1
  6
CONTINUOUS
 62
7
 10
829.922
 20
632.455
 11
831.022
 21
632.455
  0
LINE
  8
Layer1
  6
CONTINUOUS
 62
7
 10
829.943
 20
612.455
 11
831.022
 21
612.455
  0
LINE
  8
Layer1
  6
CONTINUOUS
 62
7
 10
827.922
 20
614.455
 11
827.922
 21
615.412
  0
LINE
  8
Layer1
  6
CONTINUOUS
 62
7
 10
857.922
 20
615.682
 11
857.922
 21
614.536
  0
POLYLINE
  8
Layer1
  6
CONTINUOUS
 62
7
 66
1
 10
0
 20
0
 30
0
  0
VERTEX
  8
Layer1
 10
856.706
 20
632.295
  0
VERTEX
  8
Layer1
 10
856.687
 20
632.303
  0
VERTEX
  8
Layer1
 10
856.626
 20
632.327
  0
VERTEX
  8
Layer1
 10
856.565
 20
632.349
  0
VERTEX
  8
Layer1
 10
856.503
 20
632.369
  0
VERTEX
  8
Layer1
 10
856.44
 20
632.387
  0
VERTEX
  8
Layer1
 10
856.376
 20
632.403
  0
VERTEX
  8
Layer1
 10
856.312
 20
632.417
  0
VERTEX
  8
Layer1
 10
856.248
 20
632.429
  0
VERTEX
  8
Layer1
 10
856.183
 20
632.438
  0
VERTEX
  8
Layer1
 10
856.118
 20
632.446
  0
VERTEX
  8
Layer1
 10
856.053
 20
632.451
  0
VERTEX
  8
Layer1
 10
856.032
 20
632.452
  0
SEQEND
  0
POLYLINE
  8
Layer1
  6
CONTINUOUS
 62
7
 66
1
 10
0
 20
0
 30
0
  0
VERTEX
  8
Layer1
 10
829.067
 20
632.263
  0
VERTEX
  8
Layer1
 10
829.037
 20
632.249
  0
VERTEX
  8
Layer1
 10
828.979
 20
632.219
  0
VERTEX
  8
Layer1
 10
828.922
 20
632.187
  0
VERTEX
  8
Layer1
 10
828.866
 20
632.154
  0
VERTEX
  8
Layer1
 10
828.811
 20
632.118
  0
VERTEX
  8
Layer1
 10
828.757
 20
632.081
  0
VERTEX
  8
Layer1
 10
828.704
 20
632.042
  0
VERTEX
  8
Layer1
 10
828.653
 20
632.001
  0
VERTEX
  8
Layer1
 10
828.603
 20
631.959
  0
VERTEX
  8
Layer1
 10
828.555
 20
631.915
  0
VERTEX
  8
Layer1
 10
828.508
 20
631.87
  0
VERTEX
  8
Layer1
 10
828.462
 20
631.823
  0
VERTEX
  8
Layer1
 10
828.418
 20
631.774
  0
VERTEX
  8
Layer1
 10
828.376
 20
631.724
  0
VERTEX
  8
Layer1
 10
828.335
 20
631.673
  0
VERTEX
  8
Layer1
 10
828.296
 20
631.62
  0
VERTEX
  8
Layer1
 10
828.259
 20
631.567
  0
VERTEX
  8
Layer1
 10
828.224
 20
631.512
  0
VERTEX
  8
Layer1
 10
828.19
 20
631.455
  0
VERTEX
  8
Layer1
 10
828.158
 20
631.398
  0
VERTEX
  8
Layer1
 10
828.153
 20
631.389
  0
SEQEND
  0
POLYLINE
  8
Layer1
  6
CONTINUOUS
 62
7
 66
1
 10
0
 20
0
 30
0
  0
VERTEX
  8
Layer1
 10
827.926
 20
630.58
  0
VERTEX
  8
Layer1
 10
827.923
 20
630.521
  0
VERTEX
  8
Layer1
 10
827.922
 20
630.455
  0
SEQEND
  0
POLYLINE
  8
Layer1
  6
CONTINUOUS
 62
7
 66
1
 10
0
 20
0
 30
0
  0
VERTEX
  8
Layer1
 10
828.087
 20
613.659
  0
VERTEX
  8
Layer1
 10
828.1
 20
613.63
  0
VERTEX
  8
Layer1
 10
828.128
 20
613.571
  0
VERTEX
  8
Layer1
 10
828.158
 20
613.513
  0
VERTEX
  8
Layer1
 10
828.19
 20
613.455
  0
VERTEX
  8
Layer1
 10
828.224
 20
613.399
  0
VERTEX
  8
Layer1
 10
828.259
 20
613.344
  0
VERTEX
  8
Layer1
 10
828.296
 20
613.29
  0
VERTEX
  8
Layer1
 10
828.335
 20
613.238
  0
VERTEX
  8
Layer1
 10
828.376
 20
613.187
  0
VERTEX
  8
Layer1
 10
828.418
 20
613.137
  0
VERTEX
  8
Layer1
 10
828.462
 20
613.088
  0
VERTEX
  8
Layer1
 10
828.508
 20
613.041
  0
VERTEX
  8
Layer1
 10
828.555
 20
612.996
  0
VERTEX
  8
Layer1
 10
828.603
 20
612.952
  0
VERTEX
  8
Layer1
 10
828.653
 20
612.909
  0
VERTEX
  8
Layer1
 10
828.704
 20
612.869
  0
VERTEX
  8
Layer1
 10
828.757
 20
612.83
  0
VERTEX
  8
Layer1
 10
828.811
 20
612.792
  0
VERTEX
  8
Layer1
 10
828.866
 20
612.757
  0
VERTEX
  8
Layer1
 10
828.922
 20
612.723
  0
VERTEX
  8
Layer1
 10
828.979
 20
612.692
  0
VERTEX
  8
Layer1
 10
829.037
 20
612.662
  0
VERTEX
  8
Layer1
 10
829.097
 20
612.634
  0
VERTEX
  8
Layer1
 10
829.157
 20
612.608
  0
VERTEX
  8
Layer1
 10
829.202
 20
612.59
  0
SEQEND
  0
LINE
  8
Layer1
  6
CENTER1
 62
7
 10
880.978
 20
671.957
 11
880.978
 21
690.551
  0
LINE
  8
Layer1
  6
CENTER1
 62
7
 10
796.724
 20
679.955
 11
813.125
 21
679.955
  0
LINE
  8
Layer1
  6
CENTER1
 62
7
 10
872.847
 20
679.955
 11
889.002
 21
679.955
  0
LINE
  8
Layer1
  6
CENTER1
 62
7
 10
842.978
 20
672.27
 11
842.978
 21
690.865
  0
LINE
  8
Layer1
  6
CENTER1
 62
7
 10
804.978
 20
670.996
 11
804.978
 21
689.59
  0
CIRCLE
  8
Layer1
  6
CONTINUOUS
 62
7
 10
804.978
 20
679.955
 40
6.5
  0
POLYLINE
  8
Layer1
  6
CONTINUOUS
 62
7
 66
1
 10
0
 20
0
 30
0
 70
1
  0
VERTEX
  8
Layer1
 10
804.978
 20
683.385
  0
VERTEX
  8
Layer1
 10
802.007
 20
681.67
  0
VERTEX
  8
Layer1
 10
802.007
 20
678.24
  0
VERTEX
  8
Layer1
 10
804.978
 20
676.525
  0
VERTEX
  8
Layer1
 10
807.948
 20
678.24
  0
VERTEX
  8
Layer1
 10
807.948
 20
681.67
  0
SEQEND
  0
CIRCLE
  8
Layer1
  6
CONTINUOUS
 62
7
 10
804.978
 20
679.955
 40
3.43
  0
CIRCLE
  8
Layer1
  6
CONTINUOUS
 62
7
 10
880.978
 20
679.955
 40
6.5
  0
POLYLINE
  8
Layer1
  6
CONTINUOUS
 62
7
 66
1
 10
0
 20
0
 30
0
 70
1
  0
VERTEX
  8
Layer1
 10
880.978
 20
683.385
  0
VERTEX
  8
Layer1
 10
878.007
 20
681.67
  0
VERTEX
  8
Layer1
 10
878.007
 20
678.24
  0
VERTEX
  8
Layer1
 10
880.978
 20
676.525
  0
VERTEX
  8
Layer1
 10
883.948
 20
678.24
  0
VERTEX
  8
Layer1
 10
883.948
 20
681.67
  0
SEQEND
  0
CIRCLE
  8
Layer1
  6
CONTINUOUS
 62
7
 10
880.978
 20
679.955
 40
3.43
  0
LINE
  8
Layer1
  6
CENTER1
 62
7
 10
834.27
 20
679.955
 11
851.58
 21
679.955
  0
CIRCLE
  8
Layer1
  6
CONTINUOUS
 62
7
 10
842.978
 20
679.955
 40
6.5
  0
POLYLINE
  8
Layer1
  6
CONTINUOUS
 62
7
 66
1
 10
0
 20
0
 30
0
 70
1
  0
VERTEX
  8
Layer1
 10
842.978
 20
683.385
  0
VERTEX
  8
Layer1
 10
840.007
 20
681.67
  0
VERTEX
  8
Layer1
 10
840.007
 20
678.24
  0
VERTEX
  8
Layer1
 10
842.978
 20
676.525
  0
VERTEX
  8
Layer1
 10
845.948
 20
678.24
  0
VERTEX
  8
Layer1
 10
845.948
 20
681.67
  0
SEQEND
  0
CIRCLE
  8
Layer1
  6
CONTINUOUS
 62
7
 10
842.978
 20
679.955
 40
3.43
  0
LINE
  8
Layer1
  6
CENTER1
 62
7
 10
796.724
 20
564.955
 11
813.125
 21
564.955
  0
LINE
  8
Layer1
  6
CENTER1
 62
7
 10
872.847
 20
564.955
 11
889.002
 21
564.955
  0
CIRCLE
  8
Layer1
  6
CONTINUOUS
 62
7
 10
804.925
 20
564.955
 40
6.5
  0
POLYLINE
  8
Layer1
  6
CONTINUOUS
 62
7
 66
1
 10
0
 20
0
 30
0
 70
1
  0
VERTEX
  8
Layer1
 10
804.925
 20
568.385
  0
VERTEX
  8
Layer1
 10
801.954
 20
566.67
  0
VERTEX
  8
Layer1
 10
801.954
 20
563.24
  0
VERTEX
  8
Layer1
 10
804.925
 20
561.525
  0
VERTEX
  8
Layer1
 10
807.895
 20
563.24
  0
VERTEX
  8
Layer1
 10
807.895
 20
566.67
  0
SEQEND
  0
CIRCLE
  8
Layer1
  6
CONTINUOUS
 62
7
 10
804.925
 20
564.955
 40
3.43
  0
CIRCLE
  8
Layer1
  6
CONTINUOUS
 62
7
 10
880.925
 20
564.955
 40
6.5
  0
POLYLINE
  8
Layer1
  6
CONTINUOUS
 62
7
 66
1
 10
0
 20
0
 30
0
 70
1
  0
VERTEX
  8
Layer1
 10
880.925
 20
568.385
  0
VERTEX
  8
Layer1
 10
877.954
 20
566.67
  0
VERTEX
  8
Layer1
 10
877.954
 20
563.24
  0
VERTEX
  8
Layer1
 10
880.925
 20
561.525
  0
VERTEX
  8
Layer1
 10
883.895
 20
563.24
  0
VERTEX
  8
Layer1
 10
883.895
 20
566.67
  0
SEQEND
  0
CIRCLE
  8
Layer1
  6
CONTINUOUS
 62
7
 10
880.925
 20
564.955
 40
3.43
  0
LINE
  8
Layer1
  6
CENTER1
 62
7
 10
834.951
 20
564.955
 11
852.261
 21
564.955
  0
CIRCLE
  8
Layer1
  6
CONTINUOUS
 62
7
 10
842.925
 20
564.955
 40
6.5
  0
POLYLINE
  8
Layer1
  6
CONTINUOUS
 62
7
 66
1
 10
0
 20
0
 30
0
 70
1
  0
VERTEX
  8
Layer1
 10
842.925
 20
568.385
  0
VERTEX
  8
Layer1
 10
839.954
 20
566.67
  0
VERTEX
  8
Layer1
 10
839.954
 20
563.24
  0
VERTEX
  8
Layer1
 10
842.925
 20
561.525
  0
VERTEX
  8
Layer1
 10
845.895
 20
563.24
  0
VERTEX
  8
Layer1
 10
845.895
 20
566.67
  0
SEQEND
  0
CIRCLE
  8
Layer1
  6
CONTINUOUS
 62
7
 10
842.925
 20
564.955
 40
3.43
  0
LINE
  8
Layer1
  6
CENTER1
 62
7
 10
804.978
 20
556.648
 11
804.978
 21
573.262
  0
LINE
  8
Layer1
  6
CENTER1
 62
7
 10
842.978
 20
555.989
 11
842.978
 21
572.921
  0
LINE
  8
Layer1
  6
CENTER1
 62
7
 10
880.978
 20
556.339
 11
880.978
 21
572.864
  0
LINE
  8
Layer1
  6
CENTER1
 62
7
 10
919.268
 20
679.955
 11
937.408
 21
679.955
  0
LINE
  8
Layer1
  6
CENTER1
 62
7
 10
763.783
 20
664.955
 11
813.019
 21
664.955
  0
LINE
  8
Layer1
  6
CENTER1
 62
7
 10
936.413
 20
680.455
 11
962.89
 21
680.455
  0
LINE
  8
Layer1
  6
CENTER1
 62
7
 10
934.179
 20
564.455
 11
963.015
 21
564.455
  0
POLYLINE
  8
Layer1
  6
CONTINUOUS
 62
7
 66
1
 10
0
 20
0
 30
0
 70
1
  0
VERTEX
  8
Layer1
 10
588.289
 20
399.087
  0
VERTEX
  8
Layer1
 10
585.813
 20
397.657
  0
VERTEX
  8
Layer1
 10
585.813
 20
394.797
  0
VERTEX
  8
Layer1
 10
588.289
 20
393.367
  0
VERTEX
  8
Layer1
 10
590.766
 20
394.797
  0
VERTEX
  8
Layer1
 10
590.766
 20
397.657
  0
SEQEND
  0
CIRCLE
  8
Layer1
  6
CONTINUOUS
 62
7
 10
588.289
 20
396.227
 40
2.86
  0
POLYLINE
  8
Layer1
  6
CONTINUOUS
 62
7
 66
1
 10
0
 20
0
 30
0
 70
1
  0
VERTEX
  8
Layer1
 10
503.289
 20
399.087
  0
VERTEX
  8
Layer1
 10
500.813
 20
397.657
  0
VERTEX
  8
Layer1
 10
500.813
 20
394.797
  0
VERTEX
  8
Layer1
 10
503.289
 20
393.367
  0
VERTEX
  8
Layer1
 10
505.766
 20
394.797
  0
VERTEX
  8
Layer1
 10
505.766
 20
397.657
  0
SEQEND
  0
CIRCLE
  8
Layer1
  6
CONTINUOUS
 62
7
 10
503.289
 20
396.227
 40
2.86
  0
CIRCLE
  8
Layer1
  6
CONTINUOUS
 62
7
 10
503.289
 20
361.227
 40
4
  0
POLYLINE
  8
Layer1
  6
CONTINUOUS
 62
7
 66
1
 10
0
 20
0
 30
0
 70
1
  0
VERTEX
  8
Layer1
 10
503.289
 20
364.087
  0
VERTEX
  8
Layer1
 10
500.813
 20
362.657
  0
VERTEX
  8
Layer1
 10
500.813
 20
359.797
  0
VERTEX
  8
Layer1
 10
503.289
 20
358.367
  0
VERTEX
  8
Layer1
 10
505.766
 20
359.797
  0
VERTEX
  8
Layer1
 10
505.766
 20
362.657
  0
SEQEND
  0
CIRCLE
  8
Layer1
  6
CONTINUOUS
 62
7
 10
503.289
 20
361.227
 40
2.86
  0
POLYLINE
  8
Layer1
  6
CONTINUOUS
 62
7
 66
1
 10
0
 20
0
 30
0
 70
1
  0
VERTEX
  8
Layer1
 10
588.289
 20
364.087
  0
VERTEX
  8
Layer1
 10
585.813
 20
362.657
  0
VERTEX
  8
Layer1
 10
585.813
 20
359.797
  0
VERTEX
  8
Layer1
 10
588.289
 20
358.367
  0
VERTEX
  8
Layer1
 10
590.766
 20
359.797
  0
VERTEX
  8
Layer1
 10
590.766
 20
362.657
  0
SEQEND
  0
CIRCLE
  8
Layer1
  6
CONTINUOUS
 62
7
 10
588.289
 20
361.227
 40
2.86
  0
LINE
  8
Layer1
  6
CONTINUOUS
 62
7
 10
629.789
 20
333.727
 11
461.789
 21
333.727
  0
LINE
  8
Layer1
  6
CONTINUOUS
 62
7
 10
479.789
 20
402.727
 11
479.789
 21
356.727
  0
LINE
  8
Layer1
  6
CONTINUOUS
 62
7
 10
611.789
 20
402.527
 11
611.789
 21
356.727
  0
LINE
  8
Layer1
  6
CONTINUOUS
 62
7
 10
556.789
 20
333.727
 11
565.157
 21
333.727
  0
LINE
  8
Layer1
  6
CONTINUOUS
 62
7
 10
534.789
 20
333.727
 11
526.933
 21
333.727
  0
LINE
  8
Layer1
  6
CONTINUOUS
 62
7
 10
554.663
 20
333.727
 11
572.266
 21
333.727
  0
CIRCLE
  8
Layer1
  6
CONTINUOUS
 62
7
 10
503.289
 20
396.227
 40
4
  0
LINE
  8
Layer1
  6
CONTINUOUS
 62
7
 10
597.039
 20
463.727
 11
609.539
 21
463.727
  0
LINE
  8
Layer1
  6
CONTINUOUS
 62
7
 10
630.789
 20
350.727
 11
630.789
 21
334.727
  0
LINE
  8
Layer1
  6
CONTINUOUS
 62
7
 10
460.789
 20
334.727
 11
460.789
 21
350.727
  0
LINE
  8
Layer1
  6
CONTINUOUS
 62
7
 10
461.789
 20
351.727
 11
474.789
 21
351.727
  0
LINE
  8
Layer1
  6
CENTER1
 62
7
 10
470.789
 20
356.406
 11
470.789
 21
330.51
  0
LINE
  8
Layer1
  6
CENTER1
 62
7
 10
620.789
 20
355.869
 11
620.789
 21
329.034
  0
LINE
  8
Layer1
  6
CONTINUOUS
 62
7
 10
495.789
 20
354.727
 11
495.789
 21
402.727
  0
LINE
  8
Layer1
  6
CONTINUOUS
 62
7
 10
595.789
 20
354.727
 11
595.789
 21
402.727
  0
LINE
  8
Layer1
  6
CONTINUOUS
 62
7
 10
629.789
 20
351.727
 11
616.789
 21
351.727
  0
LINE
  8
Layer1
  6
CENTER1
 62
7
 10
503.289
 20
408.029
 11
503.289
 21
389.781
  0
LINE
  8
Layer1
  6
CENTER1
 62
7
 10
588.289
 20
407.492
 11
588.289
 21
387.634
  0
LINE
  8
Layer1
  6
CENTER1
 62
7
 10
493.962
 20
396.227
 11
510.751
 21
396.227
  0
LINE
  8
Layer1
  6
CENTER1
 62
7
 10
493.425
 20
361.227
 11
512.37
 21
361.227
  0
LINE
  8
Layer1
  6
CONTINUOUS
 62
7
 10
494.789
 20
403.727
 11
480.789
 21
403.727
  0
LINE
  8
Layer1
  6
CONTINUOUS
 62
7
 10
494.789
 20
403.727
 11
495.789
 21
402.727
  0
LINE
  8
Layer1
  6
CONTINUOUS
 62
7
 10
595.789
 20
402.527
 11
596.789
 21
403.527
  0
LINE
  8
Layer1
  6
CONTINUOUS
 62
7
 10
594.789
 20
403.727
 11
595.789
 21
402.727
  0
LINE
  8
Layer1
  6
CONTINUOUS
 62
7
 10
495.789
 20
402.727
 11
496.789
 21
403.727
  0
LINE
  8
Layer1
  6
DASHED1
 62
7
 10
593.789
 20
390.727
 11
593.789
 21
418.727
  0
LINE
  8
Layer1
  6
DASHED1
 62
7
 10
497.789
 20
390.727
 11
497.789
 21
418.727
  0
LINE
  8
Layer1
  6
CONTINUOUS
 62
7
 10
479.789
 20
464.727
 11
479.789
 21
477.727
  0
LINE
  8
Layer1
  6
CONTINUOUS
 62
7
 10
611.789
 20
464.727
 11
611.789
 21
477.727
  0
LINE
  8
Layer1
  6
CONTINUOUS
 62
7
 10
610.789
 20
478.727
 11
480.789
 21
478.727
  0
LINE
  8
Layer1
  6
CONTINUOUS
 62
7
 10
480.789
 20
463.727
 11
495.789
 21
463.727
  0
LINE
  8
Layer1
  6
CONTINUOUS
 62
7
 10
610.789
 20
463.727
 11
595.789
 21
463.727
  0
LINE
  8
Layer1
  6
CONTINUOUS
 62
7
 10
461.789
 20
351.727
 11
460.789
 21
350.727
  0
LINE
  8
Layer1
  6
CONTINUOUS
 62
7
 10
460.789
 20
334.727
 11
461.789
 21
333.727
  0
LINE
  8
Layer1
  6
CONTINUOUS
 62
7
 10
629.789
 20
333.727
 11
630.789
 21
334.727
  0
LINE
  8
Layer1
  6
CONTINUOUS
 62
7
 10
630.789
 20
350.727
 11
629.789
 21
351.727
  0
LINE
  8
Layer1
  6
CENTER1
 62
7
 10
503.289
 20
368.313
 11
503.289
 21
348.992
  0
LINE
  8
Layer1
  6
CENTER1
 62
7
 10
588.289
 20
368.85
 11
588.289
 21
349.529
  0
LINE
  8
Layer1
  6
CENTER1
 62
7
 10
582.141
 20
396.227
 11
595.789
 21
396.227
  0
LINE
  8
Layer1
  6
DASHED1
 62
7
 10
499.789
 20
388.727
 11
591.789
 21
388.727
  0
LINE
  8
Layer1
  6
CENTER1
 62
7
 10
581.859
 20
361.227
 11
595.789
 21
361.227
  0
LINE
  8
Layer1
  6
CENTER1
 62
7
 10
488.289
 20
483.594
 11
488.289
 21
454.085
  0
LINE
  8
Layer1
  6
CENTER1
 62
7
 10
603.289
 20
483.594
 11
603.289
 21
455.159
  0
LINE
  8
Layer1
  6
CONTINUOUS
 62
7
 10
480.789
 20
478.727
 11
479.789
 21
477.727
  0
LINE
  8
Layer1
  6
CONTINUOUS
 62
7
 10
610.789
 20
478.727
 11
611.789
 21
477.727
  0
LINE
  8
Layer1
  6
CONTINUOUS
 62
7
 10
611.789
 20
464.727
 11
610.789
 21
463.727
  0
LINE
  8
Layer1
  6
CONTINUOUS
 62
7
 10
479.789
 20
464.727
 11
480.789
 21
463.727
  0
ARC
  8
Layer1
  6
CONTINUOUS
 62
7
 10
495.789
 20
461.727
 40
2
 50
0
 51
90
  0
ARC
  8
Layer1
  6
CONTINUOUS
 62
7
 10
595.789
 20
461.727
 40
2
 50
90
 51
180
  0
LINE
  8
Layer1
  6
CONTINUOUS
 62
7
 10
593.789
 20
418.727
 11
593.789
 21
461.727
  0
LINE
  8
Layer1
  6
CONTINUOUS
 62
7
 10
497.789
 20
418.727
 11
497.789
 21
461.727
  0
LINE
  8
Layer1
  6
CENTER1
 62
7
 10
603.289
 20
422.378
 11
603.289
 21
394.222
  0
LINE
  8
Layer1
  6
CENTER1
 62
7
 10
488.289
 20
421.024
 11
488.289
 21
399.353
  0
ARC
  8
Layer1
  6
CONTINUOUS
 62
7
 10
474.789
 20
356.727
 40
5
 50
270
 51
2.03555e-013
  0
ARC
  8
Layer1
  6
CONTINUOUS
 62
7
 10
616.789
 20
356.727
 40
5
 50
180
 51
270
  0
LINE
  8
Layer1
  6
CONTINUOUS
 62
7
 10
594.789
 20
353.727
 11
496.789
 21
353.727
  0
LINE
  8
Layer1
  6
CONTINUOUS
 62
7
 10
611.789
 20
417.727
 11
611.789
 21
404.727
  0
LINE
  8
Layer1
  6
CONTINUOUS
 62
7
 10
479.789
 20
417.727
 11
479.789
 21
404.727
  0
LINE
  8
Layer1
  6
CONTINUOUS
 62
7
 10
495.789
 20
354.727
 11
496.789
 21
353.727
  0
LINE
  8
Layer1
  6
CONTINUOUS
 62
7
 10
594.789
 20
353.727
 11
595.789
 21
354.727
  0
LINE
  8
Layer1
  6
CONTINUOUS
 62
7
 10
479.789
 20
404.727
 11
480.789
 21
403.727
  0
LINE
  8
Layer1
  6
CONTINUOUS
 62
7
 10
480.789
 20
403.727
 11
479.789
 21
402.727
  0
LINE
  8
Layer1
  6
CONTINUOUS
 62
7
 10
611.789
 20
404.727
 11
610.789
 21
403.727
  0
LINE
  8
Layer1
  6
CONTINUOUS
 62
7
 10
610.589
 20
403.727
 11
611.789
 21
402.527
  0
LINE
  8
Layer1
  6
CONTINUOUS
 62
7
 10
610.589
 20
403.727
 11
494.789
 21
403.727
  0
LINE
  8
Layer1
  6
DASHED1
 62
7
 10
497.789
 20
390.727
 11
499.789
 21
388.727
  0
LINE
  8
Layer1
  6
DASHED1
 62
7
 10
591.789
 20
388.727
 11
593.789
 21
390.727
  0
LINE
  8
Layer1
  6
CONTINUOUS
 62
7
 10
794.978
 20
707.455
 11
937.977
 21
707.455
  0
LINE
  8
Layer1
  6
CONTINUOUS
 62
7
 10
794.978
 20
688.455
 11
890.978
 21
688.455
  0
LINE
  8
Layer1
  6
DASHED1
 62
7
 10
794.925
 20
672.455
 11
892.107
 21
672.455
  0
LINE
  8
Layer1
  6
CONTINUOUS
 62
7
 10
794.978
 20
556.455
 11
890.978
 21
556.455
  0
LINE
  8
Layer1
  6
CONTINUOUS
 62
7
 10
794.978
 20
537.455
 11
938.977
 21
537.455
  0
LINE
  8
Layer1
  6
CONTINUOUS
 62
7
 10
938.977
 20
687.455
 11
938.977
 21
706.455
  0
LINE
  8
Layer1
  6
CONTINUOUS
 62
7
 10
937.927
 20
706.455
 11
936.927
 21
707.455
  0
LINE
  8
Layer1
  6
DASHED1
 62
7
 10
794.925
 20
572.455
 11
892.107
 21
572.455
  0
LINE
  8
Layer1
  6
CONTINUOUS
 62
7
 10
793.978
 20
706.455
 11
794.978
 21
707.455
  0
LINE
  8
Layer1
  6
CONTINUOUS
 62
7
 10
891.978
 20
557.455
 11
890.978
 21
556.455
  0
LINE
  8
Layer1
  6
CONTINUOUS
 62
7
 10
891.978
 20
687.455
 11
890.978
 21
688.455
  0
LINE
  8
Layer1
  6
CONTINUOUS
 62
7
 10
937.977
 20
556.455
 11
938.977
 21
557.455
  0
LINE
  8
Layer1
  6
CONTINUOUS
 62
7
 10
938.977
 20
687.455
 11
937.977
 21
688.455
  0
LINE
  8
Layer1
  6
CONTINUOUS
 62
7
 10
893.977
 20
557.455
 11
894.977
 21
556.455
  0
LINE
  8
Layer1
  6
CONTINUOUS
 62
7
 10
894.977
 20
688.455
 11
937.977
 21
688.455
  0
LINE
  8
Layer1
  6
CONTINUOUS
 62
7
 10
894.977
 20
688.455
 11
893.977
 21
687.455
  0
LINE
  8
Layer1
  6
CONTINUOUS
 62
7
 10
894.977
 20
556.455
 11
937.977
 21
556.455
  0
LINE
  8
Layer1
  6
CENTER1
 62
7
 10
789.337
 20
697.455
 11
819.365
 21
697.455
  0
LINE
  8
Layer1
  6
CENTER1
 62
7
 10
856.599
 20
697.455
 11
877.018
 21
697.455
  0
LINE
  8
Layer1
  6
CENTER1
 62
7
 10
918.456
 20
697.455
 11
936.472
 21
697.455
  0
LINE
  8
Layer1
  6
CONTINUOUS
 62
7
 10
953.977
 20
557.455
 11
953.977
 21
687.455
  0
LINE
  8
Layer1
  6
CONTINUOUS
 62
7
 10
938.977
 20
687.455
 11
938.977
 21
557.455
  0
LINE
  8
Layer1
  6
CENTER1
 62
7
 10
759.09
 20
579.955
 11
812.154
 21
579.955
  0
LINE
  8
Layer1
  6
CONTINUOUS
 62
7
 10
939.977
 20
688.455
 11
952.977
 21
688.455
  0
LINE
  8
Layer1
  6
CONTINUOUS
 62
7
 10
939.977
 20
556.455
 11
952.977
 21
556.455
  0
LINE
  8
Layer1
  6
CONTINUOUS
 62
7
 10
952.977
 20
688.455
 11
953.977
 21
687.455
  0
LINE
  8
Layer1
  6
CONTINUOUS
 62
7
 10
952.977
 20
556.455
 11
953.977
 21
557.455
  0
LINE
  8
Layer1
  6
CONTINUOUS
 62
7
 10
938.977
 20
557.455
 11
939.977
 21
556.455
  0
LINE
  8
Layer1
  6
CONTINUOUS
 62
7
 10
938.977
 20
687.455
 11
939.977
 21
688.455
  0
LINE
  8
Layer1
  6
CONTINUOUS
 62
7
 10
593.789
 20
428.249
 11
497.788
 21
428.249
  0
LINE
  8
Layer1
  6
CENTER1
 62
7
 10
561.789
 20
359.827
 11
561.789
 21
335.227
  0
LINE
  8
Layer1
  6
CENTER1
 62
7
 10
529.789
 20
361.103
 11
529.789
 21
329.688
  0
CIRCLE
  8
Layer1
  6
CONTINUOUS
 62
7
 10
529.789
 20
344.227
 40
5
  0
CIRCLE
  8
Layer1
  6
CONTINUOUS
 62
7
 10
529.789
 20
344.227
 40
4
  0
CIRCLE
  8
Layer1
  6
CONTINUOUS
 62
7
 10
561.789
 20
344.227
 40
5
  0
CIRCLE
  8
Layer1
  6
CONTINUOUS
 62
7
 10
561.789
 20
344.227
 40
4
  0
LINE
  8
Layer1
  6
CENTER1
 62
7
 10
572.266
 20
344.227
 11
516.727
 21
344.227
  0
TEXT
  8
Layer1
 62
7
 10
624.798
 20
378.627
 72
1
 11
624.798
 21
378.627
 40
6
 41
1
 50
90
  1
 35 
  0
LINE
  8
Layer1
  6
CONTINUOUS
 62
7
 10
595.789
 20
396.127
 11
626.798
 21
396.127
  0
LINE
  8
Layer1
  6
CONTINUOUS
 62
7
 10
595.789
 20
361.127
 11
626.798
 21
361.127
  0
POLYLINE
  8
Layer1
  6
CONTINUOUS
 62
7
 66
1
 10
0
 20
0
 30
0
  0
VERTEX
  8
Layer1
 10
624.798
 20
396.127
  0
VERTEX
  8
Layer1
 10
624.798
 20
361.127
  0
SEQEND
  0
POLYLINE
  8
Layer1
  6
CONTINUOUS
 62
7
 66
1
 10
0
 20
0
 30
0
 70
1
  0
VERTEX
  8
Layer1
 10
623.763
 20
392.263
  0
VERTEX
  8
Layer1
 10
624.798
 20
396.127
  0
VERTEX
  8
Layer1
 10
625.833
 20
392.263
  0
SEQEND
  0
POLYLINE
  8
Layer1
  6
CONTINUOUS
 62
7
 66
1
 10
0
 20
0
 30
0
 70
1
  0
VERTEX
  8
Layer1
 10
625.833
 20
364.991
  0
VERTEX
  8
Layer1
 10
624.798
 20
361.127
  0
VERTEX
  8
Layer1
 10
623.763
 20
364.991
  0
SEQEND
  0
TEXT
  8
Layer1
 62
7
 10
637.484
 20
378.727
 72
1
 11
637.484
 21
378.727
 40
6
 41
1
 50
90
  1
 50 
  0
LINE
  8
Layer1
  6
CONTINUOUS
 62
7
 10
593.789
 20
403.727
 11
639.484
 21
403.727
  0
LINE
  8
Layer1
  6
CONTINUOUS
 62
7
 10
594.789
 20
353.727
 11
639.484
 21
353.727
  0
POLYLINE
  8
Layer1
  6
CONTINUOUS
 62
7
 66
1
 10
0
 20
0
 30
0
  0
VERTEX
  8
Layer1
 10
637.484
 20
403.727
  0
VERTEX
  8
Layer1
 10
637.484
 20
353.727
  0
SEQEND
  0
POLYLINE
  8
Layer1
  6
CONTINUOUS
 62
7
 66
1
 10
0
 20
0
 30
0
 70
1
  0
VERTEX
  8
Layer1
 10
636.449
 20
399.863
  0
VERTEX
  8
Layer1
 10
637.484
 20
403.727
  0
VERTEX
  8
Layer1
 10
638.52
 20
399.863
  0
SEQEND
  0
POLYLINE
  8
Layer1
  6
CONTINUOUS
 62
7
 66
1
 10
0
 20
0
 30
0
 70
1
  0
VERTEX
  8
Layer1
 10
638.52
 20
357.591
  0
VERTEX
  8
Layer1
 10
637.484
 20
353.727
  0
VERTEX
  8
Layer1
 10
636.449
 20
357.591
  0
SEQEND
  0
TEXT
  8
Layer1
 62
7
 10
651.506
 20
356.227
 72
1
 11
651.506
 21
356.227
 40
6
 41
1
 50
90
  1
 45 
  0
LINE
  8
Layer1
  6
CONTINUOUS
 62
7
 10
598.85
 20
378.727
 11
653.506
 21
378.727
  0
LINE
  8
Layer1
  6
CONTINUOUS
 62
7
 10
626.801
 20
333.727
 11
653.506
 21
333.727
  0
POLYLINE
  8
Layer1
  6
CONTINUOUS
 62
7
 66
1
 10
0
 20
0
 30
0
  0
VERTEX
  8
Layer1
 10
651.506
 20
378.727
  0
VERTEX
  8
Layer1
 10
651.506
 20
333.727
  0
SEQEND
  0
POLYLINE
  8
Layer1
  6
CONTINUOUS
 62
7
 66
1
 10
0
 20
0
 30
0
 70
1
  0
VERTEX
  8
Layer1
 10
650.47
 20
374.863
  0
VERTEX
  8
Layer1
 10
651.506
 20
378.727
  0
VERTEX
  8
Layer1
 10
652.541
 20
374.863
  0
SEQEND
  0
POLYLINE
  8
Layer1
  6
CONTINUOUS
 62
7
 66
1
 10
0
 20
0
 30
0
 70
1
  0
VERTEX
  8
Layer1
 10
652.541
 20
337.591
  0
VERTEX
  8
Layer1
 10
651.506
 20
333.727
  0
VERTEX
  8
Layer1
 10
650.47
 20
337.591
  0
SEQEND
  0
TEXT
  8
Layer1
 62
7
 10
665.527
 20
376.227
 72
1
 11
665.527
 21
376.227
 40
6
 41
1
 50
90
  1
85
  0
LINE
  8
Layer1
  6
CONTINUOUS
 62
7
 10
610.789
 20
418.727
 11
667.527
 21
418.727
  0
LINE
  8
Layer1
  6
CONTINUOUS
 62
7
 10
629.789
 20
333.727
 11
667.527
 21
333.727
  0
POLYLINE
  8
Layer1
  6
CONTINUOUS
 62
7
 66
1
 10
0
 20
0
 30
0
  0
VERTEX
  8
Layer1
 10
665.527
 20
418.727
  0
VERTEX
  8
Layer1
 10
665.527
 20
333.727
  0
SEQEND
  0
POLYLINE
  8
Layer1
  6
CONTINUOUS
 62
7
 66
1
 10
0
 20
0
 30
0
 70
1
  0
VERTEX
  8
Layer1
 10
664.492
 20
414.863
  0
VERTEX
  8
Layer1
 10
665.527
 20
418.727
  0
VERTEX
  8
Layer1
 10
666.563
 20
414.863
  0
SEQEND
  0
POLYLINE
  8
Layer1
  6
CONTINUOUS
 62
7
 66
1
 10
0
 20
0
 30
0
 70
1
  0
VERTEX
  8
Layer1
 10
666.563
 20
337.591
  0
VERTEX
  8
Layer1
 10
665.527
 20
333.727
  0
VERTEX
  8
Layer1
 10
664.492
 20
337.591
  0
SEQEND
  0
TEXT
  8
Layer1
 62
7
 10
545.789
 20
321.76
 72
1
 11
545.789
 21
321.76
 40
6
 41
1
  1
 85 
  0
LINE
  8
Layer1
  6
CONTINUOUS
 62
7
 10
503.289
 20
348.892
 11
503.289
 21
319.759
  0
LINE
  8
Layer1
  6
CONTINUOUS
 62
7
 10
588.289
 20
349.429
 11
588.289
 21
319.759
  0
POLYLINE
  8
Layer1
  6
CONTINUOUS
 62
7
 66
1
 10
0
 20
0
 30
0
  0
VERTEX
  8
Layer1
 10
503.289
 20
321.76
  0
VERTEX
  8
Layer1
 10
588.289
 20
321.76
  0
SEQEND
  0
POLYLINE
  8
Layer1
  6
CONTINUOUS
 62
7
 66
1
 10
0
 20
0
 30
0
 70
1
  0
VERTEX
  8
Layer1
 10
507.153
 20
320.724
  0
VERTEX
  8
Layer1
 10
503.289
 20
321.76
  0
VERTEX
  8
Layer1
 10
507.153
 20
322.795
  0
SEQEND
  0
POLYLINE
  8
Layer1
  6
CONTINUOUS
 62
7
 66
1
 10
0
 20
0
 30
0
 70
1
  0
VERTEX
  8
Layer1
 10
584.426
 20
322.795
  0
VERTEX
  8
Layer1
 10
588.289
 20
321.76
  0
VERTEX
  8
Layer1
 10
584.426
 20
320.724
  0
SEQEND
  0
TEXT
  8
Layer1
 62
7
 10
545.789
 20
310.409
 72
1
 11
545.789
 21
310.409
 40
6
 41
1
  1
 100 
  0
LINE
  8
Layer1
  6
CONTINUOUS
 62
7
 10
495.789
 20
354.727
 11
495.789
 21
308.409
  0
LINE
  8
Layer1
  6
CONTINUOUS
 62
7
 10
595.789
 20
354.727
 11
595.789
 21
308.409
  0
POLYLINE
  8
Layer1
  6
CONTINUOUS
 62
7
 66
1
 10
0
 20
0
 30
0
  0
VERTEX
  8
Layer1
 10
495.789
 20
310.409
  0
VERTEX
  8
Layer1
 10
595.789
 20
310.409
  0
SEQEND
  0
POLYLINE
  8
Layer1
  6
CONTINUOUS
 62
7
 66
1
 10
0
 20
0
 30
0
 70
1
  0
VERTEX
  8
Layer1
 10
499.653
 20
309.373
  0
VERTEX
  8
Layer1
 10
495.789
 20
310.409
  0
VERTEX
  8
Layer1
 10
499.653
 20
311.444
  0
SEQEND
  0
POLYLINE
  8
Layer1
  6
CONTINUOUS
 62
7
 66
1
 10
0
 20
0
 30
0
 70
1
  0
VERTEX
  8
Layer1
 10
591.926
 20
311.444
  0
VERTEX
  8
Layer1
 10
595.789
 20
310.409
  0
VERTEX
  8
Layer1
 10
591.926
 20
309.373
  0
SEQEND
  0
LINE
  8
Layer1
  6
CONTINUOUS
 62
7
 10
633.796
 20
333.727
 11
643.49
 21
333.727
  0
TEXT
  8
Layer1
 62
7
 10
979.284
 20
622.455
 72
1
 11
979.284
 21
622.455
 40
6
 41
1
 50
90
  1
 115 
  0
LINE
  8
Layer1
  6
CONTINUOUS
 62
7
 10
958.411
 20
679.955
 11
981.284
 21
679.955
  0
LINE
  8
Layer1
  6
CONTINUOUS
 62
7
 10
956.576
 20
564.955
 11
981.284
 21
564.955
  0
POLYLINE
  8
Layer1
  6
CONTINUOUS
 62
7
 66
1
 10
0
 20
0
 30
0
  0
VERTEX
  8
Layer1
 10
979.284
 20
679.955
  0
VERTEX
  8
Layer1
 10
979.284
 20
564.955
  0
SEQEND
  0
POLYLINE
  8
Layer1
  6
CONTINUOUS
 62
7
 66
1
 10
0
 20
0
 30
0
 70
1
  0
VERTEX
  8
Layer1
 10
978.249
 20
676.092
  0
VERTEX
  8
Layer1
 10
979.284
 20
679.955
  0
VERTEX
  8
Layer1
 10
980.319
 20
676.092
  0
SEQEND
  0
POLYLINE
  8
Layer1
  6
CONTINUOUS
 62
7
 66
1
 10
0
 20
0
 30
0
 70
1
  0
VERTEX
  8
Layer1
 10
980.319
 20
568.819
  0
VERTEX
  8
Layer1
 10
979.284
 20
564.955
  0
VERTEX
  8
Layer1
 10
978.249
 20
568.819
  0
SEQEND
  0
TEXT
  8
Layer1
 62
7
 10
1003.39
 20
622.455
 72
1
 11
1003.39
 21
622.455
 40
6
 41
1
 50
90
  1
150
  0
LINE
  8
Layer1
  6
CONTINUOUS
 62
7
 10
937.523
 20
697.455
 11
1005.39
 21
697.455
  0
LINE
  8
Layer1
  6
CONTINUOUS
 62
7
 10
934.528
 20
547.455
 11
1005.39
 21
547.455
  0
POLYLINE
  8
Layer1
  6
CONTINUOUS
 62
7
 66
1
 10
0
 20
0
 30
0
  0
VERTEX
  8
Layer1
 10
1003.39
 20
697.455
  0
VERTEX
  8
Layer1
 10
1003.39
 20
547.455
  0
SEQEND
  0
POLYLINE
  8
Layer1
  6
CONTINUOUS
 62
7
 66
1
 10
0
 20
0
 30
0
 70
1
  0
VERTEX
  8
Layer1
 10
1002.35
 20
693.592
  0
VERTEX
  8
Layer1
 10
1003.39
 20
697.455
  0
VERTEX
  8
Layer1
 10
1004.42
 20
693.592
  0
SEQEND
  0
POLYLINE
  8
Layer1
  6
CONTINUOUS
 62
7
 66
1
 10
0
 20
0
 30
0
 70
1
  0
VERTEX
  8
Layer1
 10
1004.42
 20
551.319
  0
VERTEX
  8
Layer1
 10
1003.39
 20
547.455
  0
VERTEX
  8
Layer1
 10
1002.35
 20
551.319
  0
SEQEND
  0
TEXT
  8
Layer1
 62
7
 10
1017.39
 20
622.455
 72
1
 11
1017.39
 21
622.455
 40
6
 41
1
 50
90
  1
 170 
  0
LINE
  8
Layer1
  6
CONTINUOUS
 62
7
 10
937.983
 20
707.455
 11
1019.39
 21
707.455
  0
LINE
  8
Layer1
  6
CONTINUOUS
 62
7
 10
938.983
 20
537.455
 11
1019.39
 21
537.455
  0
POLYLINE
  8
Layer1
  6
CONTINUOUS
 62
7
 66
1
 10
0
 20
0
 30
0
  0
VERTEX
  8
Layer1
 10
1017.39
 20
707.455
  0
VERTEX
  8
Layer1
 10
1017.39
 20
537.455
  0
SEQEND
  0
POLYLINE
  8
Layer1
  6
CONTINUOUS
 62
7
 66
1
 10
0
 20
0
 30
0
 70
1
  0
VERTEX
  8
Layer1
 10
1016.35
 20
703.592
  0
VERTEX
  8
Layer1
 10
1017.39
 20
707.455
  0
VERTEX
  8
Layer1
 10
1018.42
 20
703.592
  0
SEQEND
  0
POLYLINE
  8
Layer1
  6
CONTINUOUS
 62
7
 66
1
 10
0
 20
0
 30
0
 70
1
  0
VERTEX
  8
Layer1
 10
1018.42
 20
541.319
  0
VERTEX
  8
Layer1
 10
1017.39
 20
537.455
  0
VERTEX
  8
Layer1
 10
1016.35
 20
541.319
  0
SEQEND
  0
TEXT
  8
Layer1
 62
7
 10
866.477
 20
735.591
 72
1
 11
866.477
 21
735.591
 40
6
 41
1
  1
145
  0
LINE
  8
Layer1
  6
CONTINUOUS
 62
7
 10
938.977
 20
706.455
 11
938.977
 21
737.591
  0
LINE
  8
Layer1
  6
CONTINUOUS
 62
7
 10
793.978
 20
706.455
 11
793.978
 21
737.591
  0
POLYLINE
  8
Layer1
  6
CONTINUOUS
 62
7
 66
1
 10
0
 20
0
 30
0
  0
VERTEX
  8
Layer1
 10
938.977
 20
735.591
  0
VERTEX
  8
Layer1
 10
793.978
 20
735.591
  0
SEQEND
  0
POLYLINE
  8
Layer1
  6
CONTINUOUS
 62
7
 66
1
 10
0
 20
0
 30
0
 70
1
  0
VERTEX
  8
Layer1
 10
935.114
 20
736.626
  0
VERTEX
  8
Layer1
 10
938.977
 20
735.591
  0
VERTEX
  8
Layer1
 10
935.114
 20
734.556
  0
SEQEND
  0
POLYLINE
  8
Layer1
  6
CONTINUOUS
 62
7
 66
1
 10
0
 20
0
 30
0
 70
1
  0
VERTEX
  8
Layer1
 10
797.841
 20
734.556
  0
VERTEX
  8
Layer1
 10
793.978
 20
735.591
  0
VERTEX
  8
Layer1
 10
797.841
 20
736.626
  0
SEQEND
  0
TEXT
  8
Layer1
 62
7
 10
800.228
 20
716.56
 72
1
 11
800.228
 21
716.56
 40
6
 41
1
  1
12.5
  0
LINE
  8
Layer1
  6
CONTINUOUS
 62
7
 10
806.478
 20
699.588
 11
806.478
 21
718.56
  0
LINE
  8
Layer1
  6
CONTINUOUS
 62
7
 10
793.978
 20
704.291
 11
793.978
 21
718.56
  0
POLYLINE
  8
Layer1
  6
CONTINUOUS
 62
7
 66
1
 10
0
 20
0
 30
0
  0
VERTEX
  8
Layer1
 10
816.478
 20
716.56
  0
VERTEX
  8
Layer1
 10
806.478
 20
716.56
  0
SEQEND
  0
POLYLINE
  8
Layer1
  6
CONTINUOUS
 62
7
 66
1
 10
0
 20
0
 30
0
 70
1
  0
VERTEX
  8
Layer1
 10
810.341
 20
715.525
  0
VERTEX
  8
Layer1
 10
806.478
 20
716.56
  0
VERTEX
  8
Layer1
 10
810.341
 20
717.595
  0
SEQEND
  0
POLYLINE
  8
Layer1
  6
CONTINUOUS
 62
7
 66
1
 10
0
 20
0
 30
0
  0
VERTEX
  8
Layer1
 10
783.978
 20
716.56
  0
VERTEX
  8
Layer1
 10
793.978
 20
716.56
  0
SEQEND
  0
POLYLINE
  8
Layer1
  6
CONTINUOUS
 62
7
 66
1
 10
0
 20
0
 30
0
 70
1
  0
VERTEX
  8
Layer1
 10
790.114
 20
717.595
  0
VERTEX
  8
Layer1
 10
793.978
 20
716.56
  0
VERTEX
  8
Layer1
 10
790.114
 20
715.525
  0
SEQEND
  0
LINE
  8
Layer1
  6
CONTINUOUS
 62
7
 10
806.478
 20
716.56
 11
793.978
 21
716.56
  0
TEXT
  8
Layer1
 62
7
 10
836.478
 20
716.56
 72
1
 11
836.478
 21
716.56
 40
6
 41
1
  1
 60 
  0
LINE
  8
Layer1
  6
CONTINUOUS
 62
7
 10
866.478
 20
703.281
 11
866.478
 21
718.56
  0
POLYLINE
  8
Layer1
  6
CONTINUOUS
 62
7
 66
1
 10
0
 20
0
 30
0
  0
VERTEX
  8
Layer1
 10
806.478
 20
716.56
  0
VERTEX
  8
Layer1
 10
866.478
 20
716.56
  0
SEQEND
  0
POLYLINE
  8
Layer1
  6
CONTINUOUS
 62
7
 66
1
 10
0
 20
0
 30
0
 70
1
  0
VERTEX
  8
Layer1
 10
810.341
 20
715.525
  0
VERTEX
  8
Layer1
 10
806.478
 20
716.56
  0
VERTEX
  8
Layer1
 10
810.341
 20
717.595
  0
SEQEND
  0
POLYLINE
  8
Layer1
  6
CONTINUOUS
 62
7
 66
1
 10
0
 20
0
 30
0
 70
1
  0
VERTEX
  8
Layer1
 10
862.614
 20
717.595
  0
VERTEX
  8
Layer1
 10
866.478
 20
716.56
  0
VERTEX
  8
Layer1
 10
862.614
 20
715.525
  0
SEQEND
  0
TEXT
  8
Layer1
 62
7
 10
896.478
 20
716.56
 72
1
 11
896.478
 21
716.56
 40
6
 41
1
  1
 60 
  0
LINE
  8
Layer1
  6
CONTINUOUS
 62
7
 10
926.478
 20
704.991
 11
926.478
 21
718.56
  0
POLYLINE
  8
Layer1
  6
CONTINUOUS
 62
7
 66
1
 10
0
 20
0
 30
0
  0
VERTEX
  8
Layer1
 10
866.478
 20
716.56
  0
VERTEX
  8
Layer1
 10
926.478
 20
716.56
  0
SEQEND
  0
POLYLINE
  8
Layer1
  6
CONTINUOUS
 62
7
 66
1
 10
0
 20
0
 30
0
 70
1
  0
VERTEX
  8
Layer1
 10
870.341
 20
715.525
  0
VERTEX
  8
Layer1
 10
866.478
 20
716.56
  0
VERTEX
  8
Layer1
 10
870.341
 20
717.595
  0
SEQEND
  0
POLYLINE
  8
Layer1
  6
CONTINUOUS
 62
7
 66
1
 10
0
 20
0
 30
0
 70
1
  0
VERTEX
  8
Layer1
 10
922.614
 20
717.595
  0
VERTEX
  8
Layer1
 10
926.478
 20
716.56
  0
VERTEX
  8
Layer1
 10
922.614
 20
715.525
  0
SEQEND
  0
TEXT
  8
Layer1
 62
7
 10
916.477
 20
499.21
 72
1
 11
916.477
 21
499.21
 40
6
 41
1
  1
 45 
  0
LINE
  8
Layer1
  6
CONTINUOUS
 62
7
 10
893.977
 20
557.455
 11
893.977
 21
497.21
  0
LINE
  8
Layer1
  6
CONTINUOUS
 62
7
 10
938.977
 20
564.955
 11
938.977
 21
497.21
  0
POLYLINE
  8
Layer1
  6
CONTINUOUS
 62
7
 66
1
 10
0
 20
0
 30
0
  0
VERTEX
  8
Layer1
 10
893.977
 20
499.21
  0
VERTEX
  8
Layer1
 10
938.977
 20
499.21
  0
SEQEND
  0
POLYLINE
  8
Layer1
  6
CONTINUOUS
 62
7
 66
1
 10
0
 20
0
 30
0
 70
1
  0
VERTEX
  8
Layer1
 10
897.841
 20
498.175
  0
VERTEX
  8
Layer1
 10
893.977
 20
499.21
  0
VERTEX
  8
Layer1
 10
897.841
 20
500.245
  0
SEQEND
  0
POLYLINE
  8
Layer1
  6
CONTINUOUS
 62
7
 66
1
 10
0
 20
0
 30
0
 70
1
  0
VERTEX
  8
Layer1
 10
935.114
 20
500.245
  0
VERTEX
  8
Layer1
 10
938.977
 20
499.21
  0
VERTEX
  8
Layer1
 10
935.114
 20
498.175
  0
SEQEND
  0
TEXT
  8
Layer1
 62
7
 10
898.977
 20
513.206
 72
1
 11
898.977
 21
513.206
 40
6
 41
1
  1
 10 
  0
LINE
  8
Layer1
  6
CONTINUOUS
 62
7
 10
903.977
 20
553.26
 11
903.977
 21
511.206
  0
POLYLINE
  8
Layer1
  6
CONTINUOUS
 62
7
 66
1
 10
0
 20
0
 30
0
  0
VERTEX
  8
Layer1
 10
913.977
 20
513.206
  0
VERTEX
  8
Layer1
 10
903.977
 20
513.206
  0
SEQEND
  0
POLYLINE
  8
Layer1
  6
CONTINUOUS
 62
7
 66
1
 10
0
 20
0
 30
0
 70
1
  0
VERTEX
  8
Layer1
 10
907.841
 20
512.171
  0
VERTEX
  8
Layer1
 10
903.977
 20
513.206
  0
VERTEX
  8
Layer1
 10
907.841
 20
514.242
  0
SEQEND
  0
POLYLINE
  8
Layer1
  6
CONTINUOUS
 62
7
 66
1
 10
0
 20
0
 30
0
  0
VERTEX
  8
Layer1
 10
883.977
 20
513.206
  0
VERTEX
  8
Layer1
 10
893.977
 20
513.206
  0
SEQEND
  0
POLYLINE
  8
Layer1
  6
CONTINUOUS
 62
7
 66
1
 10
0
 20
0
 30
0
 70
1
  0
VERTEX
  8
Layer1
 10
890.114
 20
514.242
  0
VERTEX
  8
Layer1
 10
893.977
 20
513.206
  0
VERTEX
  8
Layer1
 10
890.114
 20
512.171
  0
SEQEND
  0
LINE
  8
Layer1
  6
CONTINUOUS
 62
7
 10
903.977
 20
513.206
 11
893.977
 21
513.206
  0
TEXT
  8
Layer1
 62
7
 10
916.477
 20
513.206
 72
1
 11
916.477
 21
513.206
 40
6
 41
1
  1
 25 
  0
LINE
  8
Layer1
  6
CONTINUOUS
 62
7
 10
928.977
 20
554.422
 11
928.977
 21
511.206
  0
POLYLINE
  8
Layer1
  6
CONTINUOUS
 62
7
 66
1
 10
0
 20
0
 30
0
  0
VERTEX
  8
Layer1
 10
903.977
 20
513.206
  0
VERTEX
  8
Layer1
 10
928.977
 20
513.206
  0
SEQEND
  0
POLYLINE
  8
Layer1
  6
CONTINUOUS
 62
7
 66
1
 10
0
 20
0
 30
0
 70
1
  0
VERTEX
  8
Layer1
 10
907.841
 20
512.171
  0
VERTEX
  8
Layer1
 10
903.977
 20
513.206
  0
VERTEX
  8
Layer1
 10
907.841
 20
514.242
  0
SEQEND
  0
POLYLINE
  8
Layer1
  6
CONTINUOUS
 62
7
 66
1
 10
0
 20
0
 30
0
 70
1
  0
VERTEX
  8
Layer1
 10
925.114
 20
514.242
  0
VERTEX
  8
Layer1
 10
928.977
 20
513.206
  0
VERTEX
  8
Layer1
 10
925.114
 20
512.171
  0
SEQEND
  0
LINE
  8
Layer1
  6
CONTINUOUS
 62
7
 10
510.751
 20
396.227
 11
518.148
 21
396.227
  0
LINE
  8
Layer1
  6
CENTER1
 62
7
 10
515.789
 20
399.144
 11
515.789
 21
393.392
  0
LINE
  8
Layer1
  6
CENTER1
 62
7
 10
513.518
 20
396.227
 11
518.709
 21
396.227
  0
CIRCLE
  8
Layer1
  6
CONTINUOUS
 62
7
 10
515.789
 20
396.227
 40
1.25
  0
LINE
  8
Layer1
  6
CENTER1
 62
7
 10
575.789
 20
364.144
 11
575.789
 21
358.392
  0
LINE
  8
Layer1
  6
CENTER1
 62
7
 10
573.518
 20
361.227
 11
578.709
 21
361.227
  0
CIRCLE
  8
Layer1
  6
CONTINUOUS
 62
7
 10
575.789
 20
361.227
 40
1.25
  0
TEXT
  8
Layer1
 62
7
 10
509.539
 20
380.894
 72
1
 11
509.539
 21
380.894
 40
6
 41
1
  1
12.5
  0
LINE
  8
Layer1
  6
CONTINUOUS
 62
7
 10
503.289
 20
389.781
 11
503.289
 21
378.894
  0
LINE
  8
Layer1
  6
CONTINUOUS
 62
7
 10
515.789
 20
393.392
 11
515.789
 21
378.894
  0
POLYLINE
  8
Layer1
  6
CONTINUOUS
 62
7
 66
1
 10
0
 20
0
 30
0
  0
VERTEX
  8
Layer1
 10
493.289
 20
380.894
  0
VERTEX
  8
Layer1
 10
503.289
 20
380.894
  0
SEQEND
  0
POLYLINE
  8
Layer1
  6
CONTINUOUS
 62
7
 66
1
 10
0
 20
0
 30
0
 70
1
  0
VERTEX
  8
Layer1
 10
499.426
 20
381.929
  0
VERTEX
  8
Layer1
 10
503.289
 20
380.894
  0
VERTEX
  8
Layer1
 10
499.426
 20
379.858
  0
SEQEND
  0
POLYLINE
  8
Layer1
  6
CONTINUOUS
 62
7
 66
1
 10
0
 20
0
 30
0
  0
VERTEX
  8
Layer1
 10
525.789
 20
380.894
  0
VERTEX
  8
Layer1
 10
515.789
 20
380.894
  0
SEQEND
  0
POLYLINE
  8
Layer1
  6
CONTINUOUS
 62
7
 66
1
 10
0
 20
0
 30
0
 70
1
  0
VERTEX
  8
Layer1
 10
519.653
 20
379.858
  0
VERTEX
  8
Layer1
 10
515.789
 20
380.894
  0
VERTEX
  8
Layer1
 10
519.653
 20
381.929
  0
SEQEND
  0
LINE
  8
Layer1
  6
CONTINUOUS
 62
7
 10
503.289
 20
380.894
 11
515.789
 21
380.894
  0
TEXT
  8
Layer1
 62
7
 10
653.956
 20
359.366
 72
1
 11
653.956
 21
359.366
 40
6
 41
1
 50
90
  1
中心間距離
  0
TEXT
  8
Layer1
 62
7
 10
470.494
 20
436.12
 40
6
 41
1
  1
2-φ2.5
  0
LINE
  8
Layer1
  6
CONTINUOUS
 62
7
 10
489.262
 20
434.77
 11
467.686
 21
434.77
  0
POLYLINE
  8
Layer1
  6
CONTINUOUS
 62
7
 66
1
 10
0
 20
0
 30
0
  0
VERTEX
  8
Layer1
 10
515.465
 20
396.168
  0
VERTEX
  8
Layer1
 10
489.262
 20
434.77
  0
VERTEX
  8
Layer1
 10
489.262
 20
434.77
  0
SEQEND
  0
POLYLINE
  8
Layer1
  6
CONTINUOUS
 62
7
 66
1
 10
0
 20
0
 30
0
 70
1
  0
VERTEX
  8
Layer1
 10
514.152
 20
399.946
  0
VERTEX
  8
Layer1
 10
515.465
 20
396.168
  0
VERTEX
  8
Layer1
 10
512.438
 20
398.783
  0
SEQEND
  0
TEXT
  8
Layer1
 62
7
 10
746.62
 20
691.25
 40
6
 41
1
  1
ベース取付穴
  0
POLYLINE
  8
Layer1
  6
CONTINUOUS
 62
7
 66
1
 10
0
 20
0
 30
0
  0
VERTEX
  8
Layer1
 10
802.925
 20
697.455
  0
VERTEX
  8
Layer1
 10
785.049
 20
681.484
  0
VERTEX
  8
Layer1
 10
785.049
 20
681.484
  0
SEQEND
  0
POLYLINE
  8
Layer1
  6
CONTINUOUS
 62
7
 66
1
 10
0
 20
0
 30
0
 70
1
  0
VERTEX
  8
Layer1
 10
799.354
 20
695.653
  0
VERTEX
  8
Layer1
 10
802.925
 20
697.455
  0
VERTEX
  8
Layer1
 10
800.733
 20
694.109
  0
SEQEND
  0
LINE
  8
Layer1
  6
CONTINUOUS
 62
7
 10
785.049
 20
681.484
 11
770.049
 21
681.484
  0
TEXT
  8
Layer1
 62
7
 10
770.049
 20
683.484
 40
6
 41
1
  1
6-φ9
  0
POLYLINE
  8
Layer1
  6
CONTINUOUS
 62
7
 66
1
 10
0
 20
0
 30
0
  0
VERTEX
  8
Layer1
 10
932.087
 20
683.524
  0
VERTEX
  8
Layer1
 10
955.59
 20
725.644
  0
VERTEX
  8
Layer1
 10
955.59
 20
725.644
  0
SEQEND
  0
POLYLINE
  8
Layer1
  6
CONTINUOUS
 62
7
 66
1
 10
0
 20
0
 30
0
 70
1
  0
VERTEX
  8
Layer1
 10
934.874
 20
686.394
  0
VERTEX
  8
Layer1
 10
932.087
 20
683.524
  0
VERTEX
  8
Layer1
 10
933.066
 20
687.403
  0
SEQEND
  0
LINE
  8
Layer1
  6
CONTINUOUS
 62
7
 10
955.59
 20
725.644
 11
970.59
 21
725.644
  0
TEXT
  8
Layer1
 62
7
 10
970.59
 20
727.644
 72
2
 11
970.59
 21
727.644
 40
6
 41
1
  1
4-φ9
  0
TEXT
  8
Layer1
 62
7
 10
953.066
 20
715.743
 40
6
 41
1
  1
アッパー取付穴
  0
LINE
  8
Layer1
  6
CONTINUOUS
 62
7
 10
794.978
 20
688.455
 11
793.978
 21
687.455
  0
LINE
  8
Layer1
  6
CONTINUOUS
 62
7
 10
793.978
 20
706.455
 11
793.978
 21
538.455
  0
LINE
  8
Layer1
  6
CONTINUOUS
 62
7
 10
790.478
 20
672.455
 11
793.978
 21
672.455
  0
LINE
  8
Layer1
  6
CONTINUOUS
 62
7
 10
789.478
 20
573.455
 11
789.478
 21
671.455
  0
LINE
  8
Layer1
  6
CONTINUOUS
 62
7
 10
767.478
 20
672.455
 11
788.478
 21
672.455
  0
LINE
  8
Layer1
  6
CONTINUOUS
 62
7
 10
766.478
 20
573.455
 11
766.478
 21
671.455
  0
LINE
  8
Layer1
  6
CONTINUOUS
 62
7
 10
767.478
 20
572.455
 11
788.478
 21
572.455
  0
LINE
  8
Layer1
  6
CONTINUOUS
 62
7
 10
766.478
 20
573.455
 11
767.478
 21
572.455
  0
LINE
  8
Layer1
  6
CONTINUOUS
 62
7
 10
789.478
 20
573.455
 11
788.478
 21
572.455
  0
LINE
  8
Layer1
  6
CONTINUOUS
 62
7
 10
789.478
 20
573.455
 11
790.478
 21
572.455
  0
LINE
  8
Layer1
  6
CONTINUOUS
 62
7
 10
790.478
 20
572.455
 11
793.978
 21
572.455
  0
LINE
  8
Layer1
  6
CONTINUOUS
 62
7
 10
789.478
 20
671.455
 11
790.478
 21
672.455
  0
LINE
  8
Layer1
  6
CONTINUOUS
 62
7
 10
789.478
 20
671.455
 11
788.478
 21
672.455
  0
LINE
  8
Layer1
  6
CONTINUOUS
 62
7
 10
766.478
 20
671.455
 11
767.478
 21
672.455
  0
LINE
  8
Layer1
  6
CONTINUOUS
 62
7
 10
793.978
 20
557.455
 11
794.978
 21
556.455
  0
LINE
  8
Layer1
  6
CONTINUOUS
 62
7
 10
793.978
 20
538.455
 11
794.978
 21
537.455
  0
LINE
  8
Layer1
  6
CONTINUOUS
 62
7
 10
793.927
 20
333.921
 11
936.924
 21
333.921
  0
LINE
  8
Layer1
  6
DASHED1
 62
7
 10
792.924
 20
346.921
 11
837.952
 21
346.921
  0
LINE
  8
Layer1
  6
DASHED1
 62
7
 10
792.747
 20
338.921
 11
837.952
 21
338.921
  0
LINE
  8
Layer1
  6
CONTINUOUS
 62
7
 10
789.427
 20
403.921
 11
913.385
 21
403.921
  0
LINE
  8
Layer1
  6
CONTINUOUS
 62
7
 10
845.478
 20
419.084
 11
845.478
 21
409.884
  0
LINE
  8
Layer1
  6
CONTINUOUS
 62
7
 10
840.478
 20
418.921
 11
840.478
 21
409.884
  0
LINE
  8
Layer1
  6
CONTINUOUS
 62
7
 10
839.936
 20
415.49
 11
839.936
 21
409.884
  0
LINE
  8
Layer1
  6
CONTINUOUS
 62
7
 10
845.978
 20
416.084
 11
845.978
 21
409.884
  0
LINE
  8
Layer1
  6
PHANTOM1
 62
7
 10
753.055
 20
378.921
 11
940.501
 21
378.921
  0
LINE
  8
Layer1
  6
DASHED1
 62
7
 10
808.92
 20
399.421
 11
808.92
 21
393.421
  0
POLYLINE
  8
Layer1
  6
CONTINUOUS
 62
7
 66
1
 10
0
 20
0
 30
0
  0
VERTEX
  8
Layer1
 10
834.74
 20
403.595
  0
VERTEX
  8
Layer1
 10
834.992
 20
402.761
  0
VERTEX
  8
Layer1
 10
835.247
 20
401.93
  0
VERTEX
  8
Layer1
 10
835.509
 20
401.105
  0
VERTEX
  8
Layer1
 10
835.782
 20
400.288
  0
VERTEX
  8
Layer1
 10
836.068
 20
399.484
  0
VERTEX
  8
Layer1
 10
836.372
 20
398.694
  0
VERTEX
  8
Layer1
 10
836.697
 20
397.921
  0
VERTEX
  8
Layer1
 10
837.046
 20
397.169
  0
VERTEX
  8
Layer1
 10
837.423
 20
396.441
  0
VERTEX
  8
Layer1
 10
837.831
 20
395.739
  0
VERTEX
  8
Layer1
 10
838.273
 20
395.066
  0
VERTEX
  8
Layer1
 10
838.754
 20
394.425
  0
VERTEX
  8
Layer1
 10
839.277
 20
393.82
  0
VERTEX
  8
Layer1
 10
839.845
 20
393.252
  0
VERTEX
  8
Layer1
 10
840.462
 20
392.726
  0
VERTEX
  8
Layer1
 10
841.129
 20
392.242
  0
VERTEX
  8
Layer1
 10
841.84
 20
391.796
  0
VERTEX
  8
Layer1
 10
842.575
 20
391.373
  0
VERTEX
  8
Layer1
 10
843.32
 20
390.96
  0
VERTEX
  8
Layer1
 10
844.055
 20
390.545
  0
VERTEX
  8
Layer1
 10
844.764
 20
390.114
  0
VERTEX
  8
Layer1
 10
845.429
 20
389.655
  0
VERTEX
  8
Layer1
 10
846.035
 20
389.153
  0
VERTEX
  8
Layer1
 10
846.562
 20
388.597
  0
VERTEX
  8
Layer1
 10
846.998
 20
387.975
  0
VERTEX
  8
Layer1
 10
847.35
 20
387.291
  0
VERTEX
  8
Layer1
 10
847.63
 20
386.555
  0
VERTEX
  8
Layer1
 10
847.854
 20
385.777
  0
VERTEX
  8
Layer1
 10
848.035
 20
384.966
  0
VERTEX
  8
Layer1
 10
848.188
 20
384.132
  0
VERTEX
  8
Layer1
 10
848.327
 20
383.285
  0
VERTEX
  8
Layer1
 10
848.465
 20
382.434
  0
VERTEX
  8
Layer1
 10
848.618
 20
381.588
  0
VERTEX
  8
Layer1
 10
848.798
 20
380.758
  0
VERTEX
  8
Layer1
 10
849.02
 20
379.953
  0
VERTEX
  8
Layer1
 10
849.283
 20
379.172
  0
VERTEX
  8
Layer1
 10
849.588
 20
378.416
  0
VERTEX
  8
Layer1
 10
849.931
 20
377.683
  0
VERTEX
  8
Layer1
 10
850.31
 20
376.972
  0
VERTEX
  8
Layer1
 10
850.723
 20
376.281
  0
VERTEX
  8
Layer1
 10
851.169
 20
375.61
  0
VERTEX
  8
Layer1
 10
851.644
 20
374.956
  0
VERTEX
  8
Layer1
 10
852.148
 20
374.32
  0
VERTEX
  8
Layer1
 10
852.677
 20
373.699
  0
VERTEX
  8
Layer1
 10
853.23
 20
373.092
  0
VERTEX
  8
Layer1
 10
853.805
 20
372.498
  0
VERTEX
  8
Layer1
 10
854.399
 20
371.916
  0
VERTEX
  8
Layer1
 10
855.011
 20
371.345
  0
VERTEX
  8
Layer1
 10
855.638
 20
370.783
  0
VERTEX
  8
Layer1
 10
856.278
 20
370.229
  0
VERTEX
  8
Layer1
 10
856.93
 20
369.682
  0
VERTEX
  8
Layer1
 10
857.591
 20
369.141
  0
VERTEX
  8
Layer1
 10
858.258
 20
368.603
  0
VERTEX
  8
Layer1
 10
858.931
 20
368.069
  0
VERTEX
  8
Layer1
 10
859.606
 20
367.537
  0
VERTEX
  8
Layer1
 10
860.282
 20
367.006
  0
VERTEX
  8
Layer1
 10
860.956
 20
366.473
  0
VERTEX
  8
Layer1
 10
861.627
 20
365.939
  0
VERTEX
  8
Layer1
 10
862.292
 20
365.402
  0
VERTEX
  8
Layer1
 10
862.947
 20
364.858
  0
VERTEX
  8
Layer1
 10
863.588
 20
364.307
  0
VERTEX
  8
Layer1
 10
864.211
 20
363.745
  0
VERTEX
  8
Layer1
 10
864.811
 20
363.17
  0
VERTEX
  8
Layer1
 10
865.384
 20
362.579
  0
VERTEX
  8
Layer1
 10
865.926
 20
361.97
  0
VERTEX
  8
Layer1
 10
866.432
 20
361.34
  0
VERTEX
  8
Layer1
 10
866.899
 20
360.687
  0
VERTEX
  8
Layer1
 10
867.322
 20
360.008
  0
VERTEX
  8
Layer1
 10
867.698
 20
359.301
  0
VERTEX
  8
Layer1
 10
868.022
 20
358.564
  0
VERTEX
  8
Layer1
 10
868.296
 20
357.798
  0
VERTEX
  8
Layer1
 10
868.526
 20
357.007
  0
VERTEX
  8
Layer1
 10
868.716
 20
356.194
  0
VERTEX
  8
Layer1
 10
868.87
 20
355.36
  0
VERTEX
  8
Layer1
 10
868.994
 20
354.511
  0
VERTEX
  8
Layer1
 10
869.091
 20
353.649
  0
VERTEX
  8
Layer1
 10
869.166
 20
352.776
  0
VERTEX
  8
Layer1
 10
869.225
 20
351.896
  0
VERTEX
  8
Layer1
 10
869.27
 20
351.013
  0
VERTEX
  8
Layer1
 10
869.308
 20
350.128
  0
VERTEX
  8
Layer1
 10
869.342
 20
349.245
  0
VERTEX
  8
Layer1
 10
869.377
 20
348.368
  0
VERTEX
  8
Layer1
 10
869.418
 20
347.499
  0
VERTEX
  8
Layer1
 10
869.469
 20
346.642
  0
VERTEX
  8
Layer1
 10
869.535
 20
345.799
  0
VERTEX
  8
Layer1
 10
869.621
 20
344.974
  0
VERTEX
  8
Layer1
 10
869.731
 20
344.169
  0
VERTEX
  8
Layer1
 10
869.869
 20
343.388
  0
VERTEX
  8
Layer1
 10
870.04
 20
342.634
  0
VERTEX
  8
Layer1
 10
870.249
 20
341.909
  0
VERTEX
  8
Layer1
 10
870.501
 20
341.218
  0
VERTEX
  8
Layer1
 10
870.799
 20
340.562
  0
VERTEX
  8
Layer1
 10
871.149
 20
339.946
  0
VERTEX
  8
Layer1
 10
871.554
 20
339.372
  0
VERTEX
  8
Layer1
 10
872.016
 20
338.839
  0
VERTEX
  8
Layer1
 10
872.529
 20
338.346
  0
VERTEX
  8
Layer1
 10
873.092
 20
337.89
  0
VERTEX
  8
Layer1
 10
873.702
 20
337.468
  0
VERTEX
  8
Layer1
 10
874.354
 20
337.079
  0
VERTEX
  8
Layer1
 10
875.047
 20
336.721
  0
VERTEX
  8
Layer1
 10
875.777
 20
336.39
  0
VERTEX
  8
Layer1
 10
876.541
 20
336.084
  0
VERTEX
  8
Layer1
 10
877.336
 20
335.802
  0
VERTEX
  8
Layer1
 10
878.158
 20
335.54
  0
VERTEX
  8
Layer1
 10
879.006
 20
335.297
  0
VERTEX
  8
Layer1
 10
879.875
 20
335.071
  0
VERTEX
  8
Layer1
 10
880.762
 20
334.858
  0
VERTEX
  8
Layer1
 10
881.665
 20
334.657
  0
VERTEX
  8
Layer1
 10
882.58
 20
334.465
  0
VERTEX
  8
Layer1
 10
883.505
 20
334.28
  0
VERTEX
  8
Layer1
 10
884.436
 20
334.099
  0
VERTEX
  8
Layer1
 10
885.37
 20
333.921
  0
SEQEND
  0
LINE
  8
Layer1
  6
CONTINUOUS
 62
7
 10
936.927
 20
478.921
 11
893.927
 21
478.921
  0
LINE
  8
Layer1
  6
CONTINUOUS
 62
7
 10
936.927
 20
462.921
 11
893.927
 21
462.921
  0
LINE
  8
Layer1
  6
CENTER1
 62
7
 10
927.927
 20
480.633
 11
927.927
 21
458.042
  0
LINE
  8
Layer1
  6
CENTER1
 62
7
 10
902.927
 20
480.633
 11
902.927
 21
457.782
  0
LINE
  8
Layer1
  6
CENTER1
 62
7
 10
907.927
 20
331.107
 11
907.927
 21
376.531
  0
LINE
  8
Layer1
  6
CONTINUOUS
 62
7
 10
913.927
 20
335.098
 11
913.927
 21
357.098
  0
LINE
  8
Layer1
  6
CONTINUOUS
 62
7
 10
901.927
 20
335.098
 11
901.927
 21
357.098
  0
LINE
  8
Layer1
  6
CONTINUOUS
 62
7
 10
901.927
 20
357.098
 11
913.927
 21
357.098
  0
LINE
  8
Layer1
  6
CONTINUOUS
 62
7
 10
937.925
 20
353.921
 11
913.919
 21
353.921
  0
LINE
  8
Layer1
  6
DASHED1
 62
7
 10
904.927
 20
347.708
 11
904.927
 21
369.098
  0
LINE
  8
Layer1
  6
DASHED1
 62
7
 10
910.927
 20
358.098
 11
910.927
 21
369.098
  0
LINE
  8
Layer1
  6
DASHED1
 62
7
 10
904.927
 20
369.098
 11
910.927
 21
369.098
  0
LINE
  8
Layer1
  6
DASHED1
 62
7
 10
905.427
 20
347.724
 11
905.427
 21
372.654
  0
LINE
  8
Layer1
  6
DASHED1
 62
7
 10
910.427
 20
348.085
 11
910.427
 21
372.654
  0
LINE
  8
Layer1
  6
CONTINUOUS
 62
7
 10
907.927
 20
374.098
 11
910.427
 21
372.654
  0
LINE
  8
Layer1
  6
CONTINUOUS
 62
7
 10
907.927
 20
374.098
 11
905.427
 21
372.654
  0
LINE
  8
Layer1
  6
DASHED1
 62
7
 10
905.427
 20
372.654
 11
910.427
 21
372.654
  0
LINE
  8
Layer1
  6
CONTINUOUS
 62
7
 10
910.427
 20
372.654
 11
910.106
 21
372.654
  0
LINE
  8
Layer1
  6
CONTINUOUS
 62
7
 10
910.927
 20
369.098
 11
909.802
 21
369.098
  0
LINE
  8
Layer1
  6
CONTINUOUS
 62
7
 10
904.927
 20
369.098
 11
904.927
 21
368.198
  0
LINE
  8
Layer1
  6
DASHED1
 62
7
 10
910.927
 20
369.098
 11
910.927
 21
348.479
  0
LINE
  8
Layer1
  6
CONTINUOUS
 62
7
 10
903.927
 20
357.098
 11
911.927
 21
357.098
  0
LINE
  8
Layer1
  6
CONTINUOUS
 62
7
 10
913.927
 20
335.098
 11
901.927
 21
335.098
  0
LINE
  8
Layer1
  6
CENTER1
 62
7
 10
835.469
 20
361.421
 11
779.491
 21
361.421
  0
LINE
  8
Layer1
  6
CENTER1
 62
7
 10
827.494
 20
336.192
 11
872.169
 21
336.192
  0
LINE
  8
Layer1
  6
PHANTOM1
 62
7
 10
901.927
 20
333.921
 11
901.927
 21
338.421
  0
LINE
  8
Layer1
  6
CENTER1
 62
7
 10
869.102
 20
349.686
 11
826.322
 21
349.686
  0
LINE
  8
Layer1
  6
DASHED1
 62
7
 10
837.952
 20
338.921
 11
837.952
 21
346.921
  0
LINE
  8
Layer1
  6
CENTER1
 62
7
 10
834.374
 20
342.921
 11
805.044
 21
342.921
  0
LINE
  8
Layer1
  6
DASHED1
 62
7
 10
830.077
 20
333.933
 11
832.378
 21
333.933
  0
LINE
  8
Layer1
  6
DASHED1
 62
7
 10
830.844
 20
351.933
 11
828.542
 21
351.933
  0
LINE
  8
Layer1
  6
DASHED1
 62
7
 10
828.542
 20
347.439
 11
830.844
 21
347.439
  0
LINE
  8
Layer1
  6
DASHED1
 62
7
 10
830.077
 20
338.451
 11
832.378
 21
338.451
  0
LINE
  8
Layer1
  6
DASHED1
 62
7
 10
830.844
 20
351.933
 11
830.844
 21
347.439
  0
LINE
  8
Layer1
  6
DASHED1
 62
7
 10
828.542
 20
351.933
 11
828.542
 21
347.439
  0
LINE
  8
Layer1
  6
DASHED1
 62
7
 10
830.077
 20
338.451
 11
830.077
 21
333.933
  0
LINE
  8
Layer1
  6
DASHED1
 62
7
 10
832.378
 20
338.451
 11
832.378
 21
333.933
  0
LINE
  8
Layer1
  6
DASHED1
 62
7
 10
828.542
 20
347.439
 11
830.077
 21
338.451
  0
LINE
  8
Layer1
  6
DASHED1
 62
7
 10
830.844
 20
347.439
 11
832.378
 21
338.451
  0
LINE
  8
Layer1
  6
DASHED1
 62
7
 10
829.309
 20
342.945
 11
830.077
 21
333.933
  0
LINE
  8
Layer1
  6
DASHED1
 62
7
 10
831.036
 20
351.933
 11
831.611
 21
342.945
  0
LINE
  8
Layer1
  6
DASHED1
 62
7
 10
828.35
 20
333.933
 11
829.501
 21
333.933
  0
LINE
  8
Layer1
  6
DASHED1
 62
7
 10
829.501
 20
338.427
 11
828.35
 21
338.427
  0
LINE
  8
Layer1
  6
DASHED1
 62
7
 10
829.501
 20
333.933
 11
829.501
 21
338.427
  0
LINE
  8
Layer1
  6
DASHED1
 62
7
 10
829.501
 20
338.427
 11
828.734
 21
342.921
  0
LINE
  8
Layer1
  6
DASHED1
 62
7
 10
828.35
 20
333.933
 11
828.35
 21
342.921
  0
LINE
  8
Layer1
  6
DASHED1
 62
7
 10
828.734
 20
342.921
 11
828.35
 21
342.921
  0
LINE
  8
Layer1
  6
CONTINUOUS
 62
7
 10
917.927
 20
333.921
 11
917.927
 21
353.921
  0
LINE
  8
Layer1
  6
CENTER1
 62
7
 10
956.97
 20
363.921
 11
936.5
 21
363.921
  0
LINE
  8
Layer1
  6
CONTINUOUS
 62
7
 10
911.927
 20
336.098
 11
903.927
 21
336.098
  0
LINE
  8
Layer1
  6
CONTINUOUS
 62
7
 10
902.927
 20
337.098
 11
902.927
 21
342.098
  0
LINE
  8
Layer1
  6
CONTINUOUS
 62
7
 10
912.927
 20
337.098
 11
912.927
 21
342.098
  0
LINE
  8
Layer1
  6
CONTINUOUS
 62
7
 10
902.427
 20
342.098
 11
913.427
 21
342.098
  0
LINE
  8
Layer1
  6
CONTINUOUS
 62
7
 10
903.927
 20
336.098
 11
902.927
 21
337.098
  0
LINE
  8
Layer1
  6
CONTINUOUS
 62
7
 10
911.927
 20
336.098
 11
912.927
 21
337.098
  0
LINE
  8
Layer1
  6
CONTINUOUS
 62
7
 10
902.927
 20
337.098
 11
912.927
 21
337.098
  0
LINE
  8
Layer1
  6
CONTINUOUS
 62
7
 10
910.927
 20
369.098
 11
910.427
 21
369.964
  0
LINE
  8
Layer1
  6
CONTINUOUS
 62
7
 10
904.927
 20
369.098
 11
905.427
 21
369.964
  0
LINE
  8
Layer1
  6
DASHED1
 62
7
 10
905.427
 20
369.964
 11
910.427
 21
369.964
  0
POLYLINE
  8
Layer1
  6
CONTINUOUS
 62
7
 66
1
 10
0
 20
0
 30
0
  0
VERTEX
  8
Layer1
 10
901.927
 20
346.098
  0
VERTEX
  8
Layer1
 10
902.113
 20
346.239
  0
VERTEX
  8
Layer1
 10
902.3
 20
346.378
  0
VERTEX
  8
Layer1
 10
902.487
 20
346.516
  0
VERTEX
  8
Layer1
 10
902.674
 20
346.651
  0
VERTEX
  8
Layer1
 10
902.862
 20
346.783
  0
VERTEX
  8
Layer1
 10
903.05
 20
346.91
  0
VERTEX
  8
Layer1
 10
903.238
 20
347.031
  0
VERTEX
  8
Layer1
 10
903.428
 20
347.145
  0
VERTEX
  8
Layer1
 10
903.618
 20
347.253
  0
VERTEX
  8
Layer1
 10
903.809
 20
347.351
  0
VERTEX
  8
Layer1
 10
904.001
 20
347.441
  0
VERTEX
  8
Layer1
 10
904.194
 20
347.52
  0
VERTEX
  8
Layer1
 10
904.388
 20
347.588
  0
VERTEX
  8
Layer1
 10
904.584
 20
347.644
  0
VERTEX
  8
Layer1
 10
904.781
 20
347.687
  0
VERTEX
  8
Layer1
 10
904.979
 20
347.716
  0
VERTEX
  8
Layer1
 10
905.179
 20
347.73
  0
VERTEX
  8
Layer1
 10
905.381
 20
347.728
  0
VERTEX
  8
Layer1
 10
905.584
 20
347.709
  0
VERTEX
  8
Layer1
 10
905.789
 20
347.676
  0
VERTEX
  8
Layer1
 10
905.995
 20
347.631
  0
VERTEX
  8
Layer1
 10
906.202
 20
347.577
  0
VERTEX
  8
Layer1
 10
906.41
 20
347.516
  0
VERTEX
  8
Layer1
 10
906.618
 20
347.451
  0
VERTEX
  8
Layer1
 10
906.826
 20
347.386
  0
VERTEX
  8
Layer1
 10
907.034
 20
347.322
  0
VERTEX
  8
Layer1
 10
907.241
 20
347.263
  0
VERTEX
  8
Layer1
 10
907.447
 20
347.212
  0
VERTEX
  8
Layer1
 10
907.652
 20
347.171
  0
VERTEX
  8
Layer1
 10
907.855
 20
347.143
  0
VERTEX
  8
Layer1
 10
908.057
 20
347.131
  0
VERTEX
  8
Layer1
 10
908.256
 20
347.136
  0
VERTEX
  8
Layer1
 10
908.454
 20
347.155
  0
VERTEX
  8
Layer1
 10
908.649
 20
347.19
  0
VERTEX
  8
Layer1
 10
908.843
 20
347.238
  0
VERTEX
  8
Layer1
 10
909.036
 20
347.299
  0
VERTEX
  8
Layer1
 10
909.226
 20
347.372
  0
VERTEX
  8
Layer1
 10
909.415
 20
347.457
  0
VERTEX
  8
Layer1
 10
909.602
 20
347.552
  0
VERTEX
  8
Layer1
 10
909.788
 20
347.656
  0
VERTEX
  8
Layer1
 10
909.972
 20
347.769
  0
VERTEX
  8
Layer1
 10
910.155
 20
347.89
  0
VERTEX
  8
Layer1
 10
910.336
 20
348.017
  0
VERTEX
  8
Layer1
 10
910.516
 20
348.151
  0
VERTEX
  8
Layer1
 10
910.695
 20
348.291
  0
VERTEX
  8
Layer1
 10
910.873
 20
348.434
  0
VERTEX
  8
Layer1
 10
911.049
 20
348.581
  0
VERTEX
  8
Layer1
 10
911.225
 20
348.731
  0
VERTEX
  8
Layer1
 10
911.399
 20
348.883
  0
VERTEX
  8
Layer1
 10
911.572
 20
349.035
  0
VERTEX
  8
Layer1
 10
911.745
 20
349.188
  0
VERTEX
  8
Layer1
 10
911.916
 20
349.34
  0
VERTEX
  8
Layer1
 10
912.087
 20
349.491
  0
VERTEX
  8
Layer1
 10
912.257
 20
349.639
  0
VERTEX
  8
Layer1
 10
912.426
 20
349.784
  0
VERTEX
  8
Layer1
 10
912.594
 20
349.925
  0
VERTEX
  8
Layer1
 10
912.762
 20
350.062
  0
VERTEX
  8
Layer1
 10
912.929
 20
350.196
  0
VERTEX
  8
Layer1
 10
913.096
 20
350.327
  0
VERTEX
  8
Layer1
 10
913.263
 20
350.456
  0
VERTEX
  8
Layer1
 10
913.429
 20
350.583
  0
VERTEX
  8
Layer1
 10
913.595
 20
350.709
  0
VERTEX
  8
Layer1
 10
913.761
 20
350.834
  0
VERTEX
  8
Layer1
 10
913.927
 20
350.959
  0
SEQEND
  0
LINE
  8
Layer1
  6
CONTINUOUS
 62
7
 10
910.927
 20
348.479
 11
910.927
 21
342.098
  0
LINE
  8
Layer1
  6
CONTINUOUS
 62
7
 10
910.427
 20
348.085
 11
910.427
 21
342.098
  0
LINE
  8
Layer1
  6
CONTINUOUS
 62
7
 10
905.427
 20
347.725
 11
905.427
 21
342.098
  0
LINE
  8
Layer1
  6
CONTINUOUS
 62
7
 10
904.927
 20
347.708
 11
904.927
 21
342.098
  0
LINE
  8
Layer1
  6
CONTINUOUS
 62
7
 10
902.927
 20
342.098
 11
902.927
 21
337.098
  0
LINE
  8
Layer1
  6
CONTINUOUS
 62
7
 10
912.927
 20
342.098
 11
912.927
 21
337.098
  0
LINE
  8
Layer1
  6
CONTINUOUS
 62
7
 10
902.427
 20
335.098
 11
902.427
 21
342.098
  0
LINE
  8
Layer1
  6
CONTINUOUS
 62
7
 10
913.427
 20
335.098
 11
913.427
 21
342.098
  0
LINE
  8
Layer1
  6
CONTINUOUS
 62
7
 10
903.427
 20
341.848
 11
903.427
 21
337.348
  0
LINE
  8
Layer1
  6
CONTINUOUS
 62
7
 10
904.427
 20
341.348
 11
904.427
 21
337.848
  0
LINE
  8
Layer1
  6
CONTINUOUS
 62
7
 10
905.427
 20
340.848
 11
905.427
 21
338.348
  0
LINE
  8
Layer1
  6
CONTINUOUS
 62
7
 10
907.927
 20
342.098
 11
907.927
 21
337.098
  0
LINE
  8
Layer1
  6
CENTER1
 62
7
 10
925.533
 20
395.921
 11
964.434
 21
395.921
  0
LINE
  8
Layer1
  6
CENTER1
 62
7
 10
916.564
 20
376.921
 11
964.412
 21
376.921
  0
LINE
  8
Layer1
  6
CENTER1
 62
7
 10
931.092
 20
357.921
 11
965.328
 21
357.921
  0
LINE
  8
Layer1
  6
CONTINUOUS
 62
7
 10
838.615
 20
428.254
 11
847.518
 21
428.254
  0
LINE
  8
Layer1
  6
CONTINUOUS
 62
7
 10
838.615
 20
425.939
 11
846.45
 21
425.939
  0
LINE
  8
Layer1
  6
CONTINUOUS
 62
7
 10
847.518
 20
428.254
 11
848.942
 21
426.592
  0
LINE
  8
Layer1
  6
CONTINUOUS
 62
7
 10
848.942
 20
425.939
 11
848.942
 21
426.592
  0
POLYLINE
  8
Layer1
  6
CONTINUOUS
 62
7
 66
1
 10
0
 20
0
 30
0
  0
VERTEX
  8
Layer1
 10
846.45
 20
425.939
  0
VERTEX
  8
Layer1
 10
846.452
 20
425.857
  0
VERTEX
  8
Layer1
 10
846.459
 20
425.775
  0
VERTEX
  8
Layer1
 10
846.471
 20
425.694
  0
VERTEX
  8
Layer1
 10
846.489
 20
425.614
  0
VERTEX
  8
Layer1
 10
846.513
 20
425.535
  0
VERTEX
  8
Layer1
 10
846.541
 20
425.458
  0
VERTEX
  8
Layer1
 10
846.574
 20
425.383
  0
VERTEX
  8
Layer1
 10
846.612
 20
425.311
  0
VERTEX
  8
Layer1
 10
846.655
 20
425.241
  0
VERTEX
  8
Layer1
 10
846.703
 20
425.174
  0
VERTEX
  8
Layer1
 10
846.754
 20
425.11
  0
VERTEX
  8
Layer1
 10
846.81
 20
425.05
  0
VERTEX
  8
Layer1
 10
846.87
 20
424.993
  0
VERTEX
  8
Layer1
 10
846.933
 20
424.941
  0
VERTEX
  8
Layer1
 10
847
 20
424.893
  0
VERTEX
  8
Layer1
 10
847.069
 20
424.849
  0
VERTEX
  8
Layer1
 10
847.141
 20
424.81
  0
VERTEX
  8
Layer1
 10
847.216
 20
424.776
  0
VERTEX
  8
Layer1
 10
847.293
 20
424.747
  0
VERTEX
  8
Layer1
 10
847.371
 20
424.723
  0
VERTEX
  8
Layer1
 10
847.451
 20
424.704
  0
VERTEX
  8
Layer1
 10
847.532
 20
424.691
  0
VERTEX
  8
Layer1
 10
847.614
 20
424.683
  0
VERTEX
  8
Layer1
 10
847.696
 20
424.68
  0
VERTEX
  8
Layer1
 10
847.778
 20
424.683
  0
VERTEX
  8
Layer1
 10
847.86
 20
424.691
  0
VERTEX
  8
Layer1
 10
847.941
 20
424.704
  0
VERTEX
  8
Layer1
 10
848.021
 20
424.723
  0
VERTEX
  8
Layer1
 10
848.099
 20
424.747
  0
VERTEX
  8
Layer1
 10
848.176
 20
424.776
  0
VERTEX
  8
Layer1
 10
848.251
 20
424.81
  0
VERTEX
  8
Layer1
 10
848.323
 20
424.849
  0
VERTEX
  8
Layer1
 10
848.393
 20
424.893
  0
VERTEX
  8
Layer1
 10
848.459
 20
424.941
  0
VERTEX
  8
Layer1
 10
848.522
 20
424.993
  0
VERTEX
  8
Layer1
 10
848.582
 20
425.05
  0
VERTEX
  8
Layer1
 10
848.638
 20
425.11
  0
VERTEX
  8
Layer1
 10
848.689
 20
425.174
  0
VERTEX
  8
Layer1
 10
848.737
 20
425.241
  0
VERTEX
  8
Layer1
 10
848.78
 20
425.311
  0
VERTEX
  8
Layer1
 10
848.818
 20
425.383
  0
VERTEX
  8
Layer1
 10
848.851
 20
425.458
  0
VERTEX
  8
Layer1
 10
848.88
 20
425.535
  0
VERTEX
  8
Layer1
 10
848.903
 20
425.614
  0
VERTEX
  8
Layer1
 10
848.921
 20
425.694
  0
VERTEX
  8
Layer1
 10
848.933
 20
425.775
  0
VERTEX
  8
Layer1
 10
848.941
 20
425.857
  0
VERTEX
  8
Layer1
 10
848.942
 20
425.939
  0
SEQEND
  0
LINE
  8
Layer1
  6
CONTINUOUS
 62
7
 10
838.615
 20
428.254
 11
836.202
 21
425.726
  0
LINE
  8
Layer1
  6
CONTINUOUS
 62
7
 10
838.615
 20
425.939
 11
837.191
 21
424.693
  0
POLYLINE
  8
Layer1
  6
CONTINUOUS
 62
7
 66
1
 10
0
 20
0
 30
0
  0
VERTEX
  8
Layer1
 10
836.202
 20
425.726
  0
VERTEX
  8
Layer1
 10
836.171
 20
425.692
  0
VERTEX
  8
Layer1
 10
836.143
 20
425.656
  0
VERTEX
  8
Layer1
 10
836.118
 20
425.618
  0
VERTEX
  8
Layer1
 10
836.094
 20
425.579
  0
VERTEX
  8
Layer1
 10
836.073
 20
425.539
  0
VERTEX
  8
Layer1
 10
836.055
 20
425.497
  0
VERTEX
  8
Layer1
 10
836.04
 20
425.455
  0
VERTEX
  8
Layer1
 10
836.027
 20
425.411
  0
VERTEX
  8
Layer1
 10
836.017
 20
425.366
  0
VERTEX
  8
Layer1
 10
836.01
 20
425.322
  0
VERTEX
  8
Layer1
 10
836.005
 20
425.276
  0
VERTEX
  8
Layer1
 10
836.004
 20
425.231
  0
VERTEX
  8
Layer1
 10
836.005
 20
425.185
  0
VERTEX
  8
Layer1
 10
836.01
 20
425.14
  0
VERTEX
  8
Layer1
 10
836.017
 20
425.095
  0
VERTEX
  8
Layer1
 10
836.027
 20
425.051
  0
VERTEX
  8
Layer1
 10
836.04
 20
425.007
  0
VERTEX
  8
Layer1
 10
836.055
 20
424.964
  0
VERTEX
  8
Layer1
 10
836.074
 20
424.923
  0
VERTEX
  8
Layer1
 10
836.095
 20
424.882
  0
VERTEX
  8
Layer1
 10
836.118
 20
424.843
  0
VERTEX
  8
Layer1
 10
836.144
 20
424.806
  0
VERTEX
  8
Layer1
 10
836.172
 20
424.77
  0
VERTEX
  8
Layer1
 10
836.203
 20
424.736
  0
VERTEX
  8
Layer1
 10
836.235
 20
424.705
  0
VERTEX
  8
Layer1
 10
836.27
 20
424.675
  0
VERTEX
  8
Layer1
 10
836.306
 20
424.647
  0
VERTEX
  8
Layer1
 10
836.344
 20
424.622
  0
VERTEX
  8
Layer1
 10
836.383
 20
424.6
  0
VERTEX
  8
Layer1
 10
836.424
 20
424.58
  0
VERTEX
  8
Layer1
 10
836.466
 20
424.562
  0
VERTEX
  8
Layer1
 10
836.509
 20
424.547
  0
VERTEX
  8
Layer1
 10
836.553
 20
424.535
  0
VERTEX
  8
Layer1
 10
836.598
 20
424.526
  0
VERTEX
  8
Layer1
 10
836.643
 20
424.52
  0
VERTEX
  8
Layer1
 10
836.688
 20
424.516
  0
VERTEX
  8
Layer1
 10
836.733
 20
424.516
  0
VERTEX
  8
Layer1
 10
836.779
 20
424.518
  0
VERTEX
  8
Layer1
 10
836.824
 20
424.523
  0
VERTEX
  8
Layer1
 10
836.869
 20
424.531
  0
VERTEX
  8
Layer1
 10
836.913
 20
424.542
  0
VERTEX
  8
Layer1
 10
836.956
 20
424.556
  0
VERTEX
  8
Layer1
 10
836.999
 20
424.572
  0
VERTEX
  8
Layer1
 10
837.04
 20
424.592
  0
VERTEX
  8
Layer1
 10
837.08
 20
424.613
  0
VERTEX
  8
Layer1
 10
837.119
 20
424.637
  0
VERTEX
  8
Layer1
 10
837.156
 20
424.664
  0
VERTEX
  8
Layer1
 10
837.191
 20
424.693
  0
SEQEND
  0
LINE
  8
Layer1
  6
CONTINUOUS
 62
7
 10
839.936
 20
425.939
 11
839.936
 21
422.816
  0
LINE
  8
Layer1
  6
CONTINUOUS
 62
7
 10
845.846
 20
425.939
 11
845.846
 21
422.816
  0
LINE
  8
Layer1
  6
CONTINUOUS
 62
7
 10
840.742
 20
410.664
 11
845.13
 21
410.664
  0
LINE
  8
Layer1
  6
CONTINUOUS
 62
7
 10
839.936
 20
411.212
 11
845.936
 21
411.212
  0
LINE
  8
Layer1
  6
CONTINUOUS
 62
7
 10
840.742
 20
410.664
 11
839.936
 21
411.212
  0
LINE
  8
Layer1
  6
CONTINUOUS
 62
7
 10
845.13
 20
410.664
 11
845.936
 21
411.212
  0
LINE
  8
Layer1
  6
CONTINUOUS
 62
7
 10
848.047
 20
419.084
 11
848.047
 21
422.171
  0
LINE
  8
Layer1
  6
CONTINUOUS
 62
7
 10
848.047
 20
422.171
 11
846.929
 21
422.816
  0
LINE
  8
Layer1
  6
CONTINUOUS
 62
7
 10
846.929
 20
422.816
 11
839.026
 21
422.816
  0
LINE
  8
Layer1
  6
CONTINUOUS
 62
7
 10
839.026
 20
422.816
 11
837.908
 21
422.171
  0
LINE
  8
Layer1
  6
CONTINUOUS
 62
7
 10
837.908
 20
422.171
 11
837.908
 21
419.084
  0
LINE
  8
Layer1
  6
CONTINUOUS
 62
7
 10
845.512
 20
419.084
 11
845.512
 21
422.171
  0
LINE
  8
Layer1
  6
CONTINUOUS
 62
7
 10
840.443
 20
419.084
 11
840.443
 21
422.171
  0
POLYLINE
  8
Layer1
  6
CONTINUOUS
 62
7
 66
1
 10
0
 20
0
 30
0
  0
VERTEX
  8
Layer1
 10
845.512
 20
422.171
  0
VERTEX
  8
Layer1
 10
845.41
 20
422.202
  0
VERTEX
  8
Layer1
 10
845.307
 20
422.233
  0
VERTEX
  8
Layer1
 10
845.204
 20
422.262
  0
VERTEX
  8
Layer1
 10
845.1
 20
422.29
  0
VERTEX
  8
Layer1
 10
844.996
 20
422.316
  0
VERTEX
  8
Layer1
 10
844.892
 20
422.341
  0
VERTEX
  8
Layer1
 10
844.787
 20
422.365
  0
VERTEX
  8
Layer1
 10
844.682
 20
422.388
  0
VERTEX
  8
Layer1
 10
844.577
 20
422.409
  0
VERTEX
  8
Layer1
 10
844.472
 20
422.429
  0
VERTEX
  8
Layer1
 10
844.366
 20
422.447
  0
VERTEX
  8
Layer1
 10
844.26
 20
422.464
  0
VERTEX
  8
Layer1
 10
844.154
 20
422.48
  0
VERTEX
  8
Layer1
 10
844.048
 20
422.494
  0
VERTEX
  8
Layer1
 10
843.941
 20
422.507
  0
VERTEX
  8
Layer1
 10
843.834
 20
422.519
  0
VERTEX
  8
Layer1
 10
843.728
 20
422.529
  0
VERTEX
  8
Layer1
 10
843.621
 20
422.538
  0
VERTEX
  8
Layer1
 10
843.514
 20
422.546
  0
VERTEX
  8
Layer1
 10
843.407
 20
422.552
  0
VERTEX
  8
Layer1
 10
843.299
 20
422.556
  0
VERTEX
  8
Layer1
 10
843.192
 20
422.56
  0
VERTEX
  8
Layer1
 10
843.085
 20
422.562
  0
VERTEX
  8
Layer1
 10
842.978
 20
422.563
  0
VERTEX
  8
Layer1
 10
842.87
 20
422.562
  0
VERTEX
  8
Layer1
 10
842.763
 20
422.56
  0
VERTEX
  8
Layer1
 10
842.656
 20
422.556
  0
VERTEX
  8
Layer1
 10
842.549
 20
422.552
  0
VERTEX
  8
Layer1
 10
842.441
 20
422.546
  0
VERTEX
  8
Layer1
 10
842.334
 20
422.538
  0
VERTEX
  8
Layer1
 10
842.228
 20
422.529
  0
VERTEX
  8
Layer1
 10
842.121
 20
422.519
  0
VERTEX
  8
Layer1
 10
842.014
 20
422.507
  0
VERTEX
  8
Layer1
 10
841.908
 20
422.494
  0
VERTEX
  8
Layer1
 10
841.801
 20
422.48
  0
VERTEX
  8
Layer1
 10
841.695
 20
422.464
  0
VERTEX
  8
Layer1
 10
841.589
 20
422.447
  0
VERTEX
  8
Layer1
 10
841.484
 20
422.429
  0
VERTEX
  8
Layer1
 10
841.378
 20
422.409
  0
VERTEX
  8
Layer1
 10
841.273
 20
422.388
  0
VERTEX
  8
Layer1
 10
841.168
 20
422.365
  0
VERTEX
  8
Layer1
 10
841.063
 20
422.341
  0
VERTEX
  8
Layer1
 10
840.959
 20
422.316
  0
VERTEX
  8
Layer1
 10
840.855
 20
422.29
  0
VERTEX
  8
Layer1
 10
840.751
 20
422.262
  0
VERTEX
  8
Layer1
 10
840.648
 20
422.233
  0
VERTEX
  8
Layer1
 10
840.545
 20
422.202
  0
VERTEX
  8
Layer1
 10
840.443
 20
422.171
  0
SEQEND
  0
POLYLINE
  8
Layer1
  6
CONTINUOUS
 62
7
 66
1
 10
0
 20
0
 30
0
  0
VERTEX
  8
Layer1
 10
848.047
 20
422.17
  0
VERTEX
  8
Layer1
 10
848
 20
422.202
  0
VERTEX
  8
Layer1
 10
847.953
 20
422.232
  0
VERTEX
  8
Layer1
 10
847.905
 20
422.26
  0
VERTEX
  8
Layer1
 10
847.856
 20
422.288
  0
VERTEX
  8
Layer1
 10
847.806
 20
422.314
  0
VERTEX
  8
Layer1
 10
847.756
 20
422.339
  0
VERTEX
  8
Layer1
 10
847.705
 20
422.363
  0
VERTEX
  8
Layer1
 10
847.654
 20
422.385
  0
VERTEX
  8
Layer1
 10
847.602
 20
422.407
  0
VERTEX
  8
Layer1
 10
847.549
 20
422.427
  0
VERTEX
  8
Layer1
 10
847.496
 20
422.445
  0
VERTEX
  8
Layer1
 10
847.443
 20
422.462
  0
VERTEX
  8
Layer1
 10
847.389
 20
422.478
  0
VERTEX
  8
Layer1
 10
847.335
 20
422.493
  0
VERTEX
  8
Layer1
 10
847.28
 20
422.506
  0
VERTEX
  8
Layer1
 10
847.226
 20
422.518
  0
VERTEX
  8
Layer1
 10
847.17
 20
422.528
  0
VERTEX
  8
Layer1
 10
847.115
 20
422.537
  0
VERTEX
  8
Layer1
 10
847.059
 20
422.545
  0
VERTEX
  8
Layer1
 10
847.004
 20
422.551
  0
VERTEX
  8
Layer1
 10
846.948
 20
422.556
  0
VERTEX
  8
Layer1
 10
846.892
 20
422.56
  0
VERTEX
  8
Layer1
 10
846.836
 20
422.562
  0
VERTEX
  8
Layer1
 10
846.78
 20
422.563
  0
VERTEX
  8
Layer1
 10
846.723
 20
422.562
  0
VERTEX
  8
Layer1
 10
846.667
 20
422.56
  0
VERTEX
  8
Layer1
 10
846.611
 20
422.556
  0
VERTEX
  8
Layer1
 10
846.555
 20
422.551
  0
VERTEX
  8
Layer1
 10
846.5
 20
422.545
  0
VERTEX
  8
Layer1
 10
846.444
 20
422.537
  0
VERTEX
  8
Layer1
 10
846.389
 20
422.528
  0
VERTEX
  8
Layer1
 10
846.334
 20
422.518
  0
VERTEX
  8
Layer1
 10
846.279
 20
422.506
  0
VERTEX
  8
Layer1
 10
846.224
 20
422.493
  0
VERTEX
  8
Layer1
 10
846.17
 20
422.478
  0
VERTEX
  8
Layer1
 10
846.116
 20
422.462
  0
VERTEX
  8
Layer1
 10
846.063
 20
422.445
  0
VERTEX
  8
Layer1
 10
846.01
 20
422.427
  0
VERTEX
  8
Layer1
 10
845.957
 20
422.407
  0
VERTEX
  8
Layer1
 10
845.905
 20
422.385
  0
VERTEX
  8
Layer1
 10
845.854
 20
422.363
  0
VERTEX
  8
Layer1
 10
845.803
 20
422.339
  0
VERTEX
  8
Layer1
 10
845.753
 20
422.314
  0
VERTEX
  8
Layer1
 10
845.703
 20
422.288
  0
VERTEX
  8
Layer1
 10
845.654
 20
422.26
  0
VERTEX
  8
Layer1
 10
845.606
 20
422.232
  0
VERTEX
  8
Layer1
 10
845.559
 20
422.202
  0
VERTEX
  8
Layer1
 10
845.512
 20
422.17
  0
SEQEND
  0
POLYLINE
  8
Layer1
  6
CONTINUOUS
 62
7
 66
1
 10
0
 20
0
 30
0
  0
VERTEX
  8
Layer1
 10
840.443
 20
422.17
  0
VERTEX
  8
Layer1
 10
840.397
 20
422.202
  0
VERTEX
  8
Layer1
 10
840.349
 20
422.232
  0
VERTEX
  8
Layer1
 10
840.301
 20
422.26
  0
VERTEX
  8
Layer1
 10
840.252
 20
422.288
  0
VERTEX
  8
Layer1
 10
840.202
 20
422.314
  0
VERTEX
  8
Layer1
 10
840.152
 20
422.339
  0
VERTEX
  8
Layer1
 10
840.101
 20
422.363
  0
VERTEX
  8
Layer1
 10
840.05
 20
422.385
  0
VERTEX
  8
Layer1
 10
839.998
 20
422.407
  0
VERTEX
  8
Layer1
 10
839.945
 20
422.427
  0
VERTEX
  8
Layer1
 10
839.892
 20
422.445
  0
VERTEX
  8
Layer1
 10
839.839
 20
422.462
  0
VERTEX
  8
Layer1
 10
839.785
 20
422.478
  0
VERTEX
  8
Layer1
 10
839.731
 20
422.493
  0
VERTEX
  8
Layer1
 10
839.677
 20
422.506
  0
VERTEX
  8
Layer1
 10
839.622
 20
422.518
  0
VERTEX
  8
Layer1
 10
839.567
 20
422.528
  0
VERTEX
  8
Layer1
 10
839.511
 20
422.537
  0
VERTEX
  8
Layer1
 10
839.456
 20
422.545
  0
VERTEX
  8
Layer1
 10
839.4
 20
422.551
  0
VERTEX
  8
Layer1
 10
839.344
 20
422.556
  0
VERTEX
  8
Layer1
 10
839.288
 20
422.56
  0
VERTEX
  8
Layer1
 10
839.232
 20
422.562
  0
VERTEX
  8
Layer1
 10
839.176
 20
422.563
  0
VERTEX
  8
Layer1
 10
839.12
 20
422.562
  0
VERTEX
  8
Layer1
 10
839.063
 20
422.56
  0
VERTEX
  8
Layer1
 10
839.007
 20
422.556
  0
VERTEX
  8
Layer1
 10
838.952
 20
422.551
  0
VERTEX
  8
Layer1
 10
838.896
 20
422.545
  0
VERTEX
  8
Layer1
 10
838.84
 20
422.537
  0
VERTEX
  8
Layer1
 10
838.785
 20
422.528
  0
VERTEX
  8
Layer1
 10
838.73
 20
422.518
  0
VERTEX
  8
Layer1
 10
838.675
 20
422.506
  0
VERTEX
  8
Layer1
 10
838.62
 20
422.493
  0
VERTEX
  8
Layer1
 10
838.566
 20
422.478
  0
VERTEX
  8
Layer1
 10
838.512
 20
422.462
  0
VERTEX
  8
Layer1
 10
838.459
 20
422.445
  0
VERTEX
  8
Layer1
 10
838.406
 20
422.427
  0
VERTEX
  8
Layer1
 10
838.353
 20
422.407
  0
VERTEX
  8
Layer1
 10
838.301
 20
422.385
  0
VERTEX
  8
Layer1
 10
838.25
 20
422.363
  0
VERTEX
  8
Layer1
 10
838.199
 20
422.339
  0
VERTEX
  8
Layer1
 10
838.149
 20
422.314
  0
VERTEX
  8
Layer1
 10
838.099
 20
422.288
  0
VERTEX
  8
Layer1
 10
838.051
 20
422.26
  0
VERTEX
  8
Layer1
 10
838.002
 20
422.232
  0
VERTEX
  8
Layer1
 10
837.955
 20
422.202
  0
VERTEX
  8
Layer1
 10
837.908
 20
422.17
  0
SEQEND
  0
POLYLINE
  8
Layer1
  6
CONTINUOUS
 62
7
 66
1
 10
0
 20
0
 30
0
 70
1
  0
VERTEX
  8
Layer1
 10
848.242
 20
425.926
  0
VERTEX
  8
Layer1
 10
848.237
 20
425.998
  0
VERTEX
  8
Layer1
 10
848.223
 20
426.068
  0
VERTEX
  8
Layer1
 10
848.201
 20
426.135
  0
VERTEX
  8
Layer1
 10
848.169
 20
426.199
  0
VERTEX
  8
Layer1
 10
848.129
 20
426.259
  0
VERTEX
  8
Layer1
 10
848.082
 20
426.313
  0
VERTEX
  8
Layer1
 10
848.028
 20
426.36
  0
VERTEX
  8
Layer1
 10
847.969
 20
426.399
  0
VERTEX
  8
Layer1
 10
847.905
 20
426.431
  0
VERTEX
  8
Layer1
 10
847.837
 20
426.454
  0
VERTEX
  8
Layer1
 10
847.767
 20
426.468
  0
VERTEX
  8
Layer1
 10
847.696
 20
426.472
  0
VERTEX
  8
Layer1
 10
847.625
 20
426.468
  0
VERTEX
  8
Layer1
 10
847.555
 20
426.454
  0
VERTEX
  8
Layer1
 10
847.487
 20
426.431
  0
VERTEX
  8
Layer1
 10
847.423
 20
426.399
  0
VERTEX
  8
Layer1
 10
847.364
 20
426.36
  0
VERTEX
  8
Layer1
 10
847.31
 20
426.313
  0
VERTEX
  8
Layer1
 10
847.263
 20
426.259
  0
VERTEX
  8
Layer1
 10
847.223
 20
426.199
  0
VERTEX
  8
Layer1
 10
847.192
 20
426.135
  0
VERTEX
  8
Layer1
 10
847.169
 20
426.068
  0
VERTEX
  8
Layer1
 10
847.155
 20
425.998
  0
VERTEX
  8
Layer1
 10
847.15
 20
425.926
  0
VERTEX
  8
Layer1
 10
847.155
 20
425.855
  0
VERTEX
  8
Layer1
 10
847.169
 20
425.785
  0
VERTEX
  8
Layer1
 10
847.192
 20
425.717
  0
VERTEX
  8
Layer1
 10
847.223
 20
425.653
  0
VERTEX
  8
Layer1
 10
847.263
 20
425.594
  0
VERTEX
  8
Layer1
 10
847.31
 20
425.54
  0
VERTEX
  8
Layer1
 10
847.364
 20
425.493
  0
VERTEX
  8
Layer1
 10
847.423
 20
425.454
  0
VERTEX
  8
Layer1
 10
847.487
 20
425.422
  0
VERTEX
  8
Layer1
 10
847.555
 20
425.399
  0
VERTEX
  8
Layer1
 10
847.625
 20
425.385
  0
VERTEX
  8
Layer1
 10
847.696
 20
425.38
  0
VERTEX
  8
Layer1
 10
847.767
 20
425.385
  0
VERTEX
  8
Layer1
 10
847.837
 20
425.399
  0
VERTEX
  8
Layer1
 10
847.905
 20
425.422
  0
VERTEX
  8
Layer1
 10
847.969
 20
425.454
  0
VERTEX
  8
Layer1
 10
848.028
 20
425.493
  0
VERTEX
  8
Layer1
 10
848.082
 20
425.54
  0
VERTEX
  8
Layer1
 10
848.129
 20
425.594
  0
VERTEX
  8
Layer1
 10
848.169
 20
425.653
  0
VERTEX
  8
Layer1
 10
848.201
 20
425.717
  0
VERTEX
  8
Layer1
 10
848.223
 20
425.785
  0
VERTEX
  8
Layer1
 10
848.237
 20
425.855
  0
SEQEND
  0
LINE
  8
Layer1
  6
CONTINUOUS
 62
7
 10
839.936
 20
411.212
 11
839.936
 21
418.084
  0
LINE
  8
Layer1
  6
CONTINUOUS
 62
7
 10
845.936
 20
411.212
 11
845.936
 21
418.084
  0
LINE
  8
Layer1
  6
CONTINUOUS
 62
7
 10
792.925
 20
351.921
 11
869.4
 21
351.921
  0
LINE
  8
Layer1
  6
CONTINUOUS
 62
7
 10
828.35
 20
351.921
 11
828.35
 21
333.921
  0
LINE
  8
Layer1
  6
CONTINUOUS
 62
7
 10
901.927
 20
351.921
 11
901.927
 21
333.921
  0
LINE
  8
Layer1
  6
DASHED1
 62
7
 10
880.648
 20
333.921
 11
882.966
 21
333.921
  0
LINE
  8
Layer1
  6
CONTINUOUS
 62
7
 10
901.927
 20
351.921
 11
899.995
 21
351.921
  0
LINE
  8
Layer1
  6
CONTINUOUS
 62
7
 10
892.074
 20
333.921
 11
894.392
 21
333.921
  0
LINE
  8
Layer1
  6
CONTINUOUS
 62
7
 10
892.847
 20
351.921
 11
890.529
 21
351.921
  0
LINE
  8
Layer1
  6
CONTINUOUS
 62
7
 10
890.529
 20
347.427
 11
892.847
 21
347.427
  0
LINE
  8
Layer1
  6
CONTINUOUS
 62
7
 10
892.074
 20
338.439
 11
894.392
 21
338.439
  0
LINE
  8
Layer1
  6
CONTINUOUS
 62
7
 10
892.847
 20
351.921
 11
892.847
 21
347.427
  0
LINE
  8
Layer1
  6
CONTINUOUS
 62
7
 10
890.529
 20
351.921
 11
890.529
 21
347.427
  0
LINE
  8
Layer1
  6
CONTINUOUS
 62
7
 10
892.074
 20
338.439
 11
892.074
 21
333.921
  0
LINE
  8
Layer1
  6
CONTINUOUS
 62
7
 10
894.392
 20
338.439
 11
894.392
 21
333.921
  0
LINE
  8
Layer1
  6
CONTINUOUS
 62
7
 10
890.529
 20
347.427
 11
892.074
 21
338.439
  0
LINE
  8
Layer1
  6
CONTINUOUS
 62
7
 10
892.847
 20
347.427
 11
894.392
 21
338.439
  0
LINE
  8
Layer1
  6
CONTINUOUS
 62
7
 10
891.302
 20
342.933
 11
892.074
 21
333.921
  0
LINE
  8
Layer1
  6
CONTINUOUS
 62
7
 10
893.04
 20
351.921
 11
893.62
 21
342.933
  0
LINE
  8
Layer1
  6
CONTINUOUS
 62
7
 10
901.54
 20
333.921
 11
901.927
 21
333.921
  0
LINE
  8
Layer1
  6
CONTINUOUS
 62
7
 10
899.995
 20
347.427
 11
901.927
 21
347.421
  0
LINE
  8
Layer1
  6
CONTINUOUS
 62
7
 10
901.54
 20
338.439
 11
901.927
 21
338.421
  0
LINE
  8
Layer1
  6
CONTINUOUS
 62
7
 10
899.995
 20
351.921
 11
899.995
 21
347.427
  0
LINE
  8
Layer1
  6
CONTINUOUS
 62
7
 10
901.54
 20
338.439
 11
901.54
 21
333.921
  0
LINE
  8
Layer1
  6
CONTINUOUS
 62
7
 10
899.995
 20
347.427
 11
901.54
 21
338.439
  0
LINE
  8
Layer1
  6
CONTINUOUS
 62
7
 10
900.767
 20
342.933
 11
901.54
 21
333.921
  0
LINE
  8
Layer1
  6
CONTINUOUS
 62
7
 10
869.389
 20
353.921
 11
901.933
 21
353.921
  0
LINE
  8
Layer1
  6
DASHED1
 62
7
 10
876.011
 20
333.921
 11
878.33
 21
333.921
  0
LINE
  8
Layer1
  6
CONTINUOUS
 62
7
 10
937.901
 20
374.65
 11
892.927
 21
428.249
  0
LINE
  8
Layer1
  6
CONTINUOUS
 62
7
 10
925.927
 20
388.921
 11
934.927
 21
388.921
  0
LINE
  8
Layer1
  6
CONTINUOUS
 62
7
 10
892.927
 20
477.921
 11
892.927
 21
428.249
  0
ARC
  8
Layer1
  6
CONTINUOUS
 62
7
 10
934.927
 20
391.921
 40
3
 50
270
 51
2.03555e-013
  0
LINE
  8
Layer1
  6
CONTINUOUS
 62
7
 10
937.969
 20
354.921
 11
936.969
 21
353.921
  0
LINE
  8
Layer1
  6
CONTINUOUS
 62
7
 10
938.927
 20
348.921
 11
951.927
 21
348.921
  0
LINE
  8
Layer1
  6
CONTINUOUS
 62
7
 10
952.927
 20
349.921
 11
952.927
 21
410.921
  0
LINE
  8
Layer1
  6
CONTINUOUS
 62
7
 10
938.927
 20
411.921
 11
951.927
 21
411.921
  0
LINE
  8
Layer1
  6
CONTINUOUS
 62
7
 10
952.927
 20
349.921
 11
951.927
 21
348.921
  0
LINE
  8
Layer1
  6
CONTINUOUS
 62
7
 10
938.927
 20
348.921
 11
937.927
 21
349.921
  0
LINE
  8
Layer1
  6
CONTINUOUS
 62
7
 10
937.927
 20
410.921
 11
938.927
 21
411.921
  0
LINE
  8
Layer1
  6
CONTINUOUS
 62
7
 10
892.927
 20
463.921
 11
893.927
 21
462.921
  0
LINE
  8
Layer1
  6
CONTINUOUS
 62
7
 10
892.927
 20
477.921
 11
893.927
 21
478.921
  0
LINE
  8
Layer1
  6
CONTINUOUS
 62
7
 10
897.427
 20
478.921
 11
908.427
 21
478.921
  0
LINE
  8
Layer1
  6
CONTINUOUS
 62
7
 10
890.876
 20
417.621
 11
890.876
 21
404.921
  0
LINE
  8
Layer1
  6
CONTINUOUS
 62
7
 10
859.278
 20
418.921
 11
850.241
 21
409.884
  0
LINE
  8
Layer1
  6
DASHED1
 62
7
 10
888.968
 20
417.121
 11
888.952
 21
417.105
  0
LINE
  8
Layer1
  6
CONTINUOUS
 62
7
 10
863.278
 20
418.921
 11
854.241
 21
409.884
  0
LINE
  8
Layer1
  6
CONTINUOUS
 62
7
 10
855.278
 20
418.921
 11
846.241
 21
409.884
  0
LINE
  8
Layer1
  6
CONTINUOUS
 62
7
 10
855.425
 20
409.884
 11
828.425
 21
409.884
  0
LINE
  8
Layer1
  6
CONTINUOUS
 62
7
 10
837.441
 20
417.084
 11
830.241
 21
409.884
  0
LINE
  8
Layer1
  6
CONTINUOUS
 62
7
 10
826.925
 20
406.568
 11
824.241
 21
403.884
  0
LINE
  8
Layer1
  6
CONTINUOUS
 62
7
 10
889.626
 20
418.921
 11
793.927
 21
418.921
  0
LINE
  8
Layer1
  6
CONTINUOUS
 62
7
 10
833.441
 20
417.084
 11
831.675
 21
415.318
  0
LINE
  8
Layer1
  6
CONTINUOUS
 62
7
 10
831.278
 20
418.921
 11
823.179
 21
410.822
  0
LINE
  8
Layer1
  6
CONTINUOUS
 62
7
 10
827.394
 20
419.037
 11
822.147
 21
413.79
  0
LINE
  8
Layer1
  6
CONTINUOUS
 62
7
 10
856.925
 20
404.884
 11
856.925
 21
408.384
  0
LINE
  8
Layer1
  6
CONTINUOUS
 62
7
 10
826.925
 20
404.884
 11
826.925
 21
408.384
  0
LINE
  8
Layer1
  6
CENTER2
 62
7
 10
842.978
 20
421.242
 11
842.978
 21
398.823
  0
LINE
  8
Layer1
  6
CONTINUOUS
 62
7
 10
851.278
 20
418.921
 11
845.978
 21
413.621
  0
ARC
  8
Layer1
  6
CONTINUOUS
 62
7
 10
855.425
 20
408.384
 40
1.5
 50
2.03555e-013
 51
90
  0
ARC
  8
Layer1
  6
CONTINUOUS
 62
7
 10
828.425
 20
408.384
 40
1.5
 50
90
 51
180
  0
LINE
  8
Layer1
  6
CONTINUOUS
 62
7
 10
825.925
 20
403.884
 11
824.241
 21
403.884
  0
ARC
  8
Layer1
  6
CONTINUOUS
 62
7
 10
857.925
 20
404.884
 40
1
 50
180
 51
270
  0
ARC
  8
Layer1
  6
CONTINUOUS
 62
7
 10
825.925
 20
404.884
 40
1
 50
270
 51
2.03555e-013
  0
LINE
  8
Layer1
  6
CONTINUOUS
 62
7
 10
835.278
 20
418.921
 11
823.015
 21
406.658
  0
LINE
  8
Layer1
  6
CONTINUOUS
 62
7
 10
839.978
 20
416.084
 11
839.978
 21
409.884
  0
LINE
  8
Layer1
  6
CONTINUOUS
 62
7
 10
839.764
 20
411.407
 11
838.241
 21
409.884
  0
LINE
  8
Layer1
  6
CONTINUOUS
 62
7
 10
845.978
 20
416.084
 11
839.978
 21
416.084
  0
LINE
  8
Layer1
  6
CONTINUOUS
 62
7
 10
839.978
 20
418.084
 11
838.978
 21
419.084
  0
LINE
  8
Layer1
  6
CONTINUOUS
 62
7
 10
845.978
 20
418.084
 11
846.978
 21
419.084
  0
LINE
  8
Layer1
  6
CONTINUOUS
 62
7
 10
875.278
 20
418.921
 11
860.241
 21
403.884
  0
LINE
  8
Layer1
  6
CONTINUOUS
 62
7
 10
871.278
 20
418.921
 11
856.925
 21
404.568
  0
LINE
  8
Layer1
  6
CONTINUOUS
 62
7
 10
867.278
 20
418.921
 11
856.925
 21
408.568
  0
POLYLINE
  8
Layer1
  6
CONTINUOUS
 62
7
 66
1
 10
0
 20
0
 30
0
  0
VERTEX
  8
Layer1
 10
821.154
 20
418.921
  0
VERTEX
  8
Layer1
 10
821.183
 20
418.732
  0
VERTEX
  8
Layer1
 10
821.213
 20
418.542
  0
VERTEX
  8
Layer1
 10
821.243
 20
418.352
  0
VERTEX
  8
Layer1
 10
821.273
 20
418.163
  0
VERTEX
  8
Layer1
 10
821.304
 20
417.973
  0
VERTEX
  8
Layer1
 10
821.336
 20
417.784
  0
VERTEX
  8
Layer1
 10
821.369
 20
417.595
  0
VERTEX
  8
Layer1
 10
821.404
 20
417.406
  0
VERTEX
  8
Layer1
 10
821.44
 20
417.218
  0
VERTEX
  8
Layer1
 10
821.478
 20
417.03
  0
VERTEX
  8
Layer1
 10
821.518
 20
416.842
  0
VERTEX
  8
Layer1
 10
821.56
 20
416.655
  0
VERTEX
  8
Layer1
 10
821.604
 20
416.468
  0
VERTEX
  8
Layer1
 10
821.651
 20
416.282
  0
VERTEX
  8
Layer1
 10
821.701
 20
416.096
  0
VERTEX
  8
Layer1
 10
821.753
 20
415.91
  0
VERTEX
  8
Layer1
 10
821.809
 20
415.726
  0
VERTEX
  8
Layer1
 10
821.868
 20
415.541
  0
VERTEX
  8
Layer1
 10
821.931
 20
415.358
  0
VERTEX
  8
Layer1
 10
821.997
 20
415.175
  0
VERTEX
  8
Layer1
 10
822.067
 20
414.993
  0
VERTEX
  8
Layer1
 10
822.14
 20
414.812
  0
VERTEX
  8
Layer1
 10
822.216
 20
414.631
  0
VERTEX
  8
Layer1
 10
822.293
 20
414.45
  0
VERTEX
  8
Layer1
 10
822.372
 20
414.27
  0
VERTEX
  8
Layer1
 10
822.451
 20
414.09
  0
VERTEX
  8
Layer1
 10
822.53
 20
413.91
  0
VERTEX
  8
Layer1
 10
822.607
 20
413.73
  0
VERTEX
  8
Layer1
 10
822.682
 20
413.551
  0
VERTEX
  8
Layer1
 10
822.756
 20
413.371
  0
VERTEX
  8
Layer1
 10
822.825
 20
413.191
  0
VERTEX
  8
Layer1
 10
822.891
 20
413.01
  0
VERTEX
  8
Layer1
 10
822.952
 20
412.829
  0
VERTEX
  8
Layer1
 10
823.008
 20
412.647
  0
VERTEX
  8
Layer1
 10
823.057
 20
412.465
  0
VERTEX
  8
Layer1
 10
823.099
 20
412.282
  0
VERTEX
  8
Layer1
 10
823.134
 20
412.098
  0
VERTEX
  8
Layer1
 10
823.161
 20
411.914
  0
VERTEX
  8
Layer1
 10
823.178
 20
411.728
  0
VERTEX
  8
Layer1
 10
823.187
 20
411.541
  0
VERTEX
  8
Layer1
 10
823.187
 20
411.353
  0
VERTEX
  8
Layer1
 10
823.18
 20
411.164
  0
VERTEX
  8
Layer1
 10
823.166
 20
410.975
  0
VERTEX
  8
Layer1
 10
823.148
 20
410.784
  0
VERTEX
  8
Layer1
 10
823.125
 20
410.593
  0
VERTEX
  8
Layer1
 10
823.099
 20
410.402
  0
VERTEX
  8
Layer1
 10
823.071
 20
410.21
  0
VERTEX
  8
Layer1
 10
823.041
 20
410.018
  0
VERTEX
  8
Layer1
 10
823.011
 20
409.825
  0
VERTEX
  8
Layer1
 10
822.982
 20
409.632
  0
VERTEX
  8
Layer1
 10
822.954
 20
409.439
  0
VERTEX
  8
Layer1
 10
822.929
 20
409.246
  0
VERTEX
  8
Layer1
 10
822.908
 20
409.053
  0
VERTEX
  8
Layer1
 10
822.892
 20
408.86
  0
VERTEX
  8
Layer1
 10
822.881
 20
408.668
  0
VERTEX
  8
Layer1
 10
822.877
 20
408.476
  0
VERTEX
  8
Layer1
 10
822.878
 20
408.284
  0
VERTEX
  8
Layer1
 10
822.885
 20
408.092
  0
VERTEX
  8
Layer1
 10
822.897
 20
407.901
  0
VERTEX
  8
Layer1
 10
822.913
 20
407.709
  0
VERTEX
  8
Layer1
 10
822.933
 20
407.518
  0
VERTEX
  8
Layer1
 10
822.955
 20
407.327
  0
VERTEX
  8
Layer1
 10
822.98
 20
407.137
  0
VERTEX
  8
Layer1
 10
823.006
 20
406.946
  0
VERTEX
  8
Layer1
 10
823.033
 20
406.755
  0
VERTEX
  8
Layer1
 10
823.061
 20
406.565
  0
VERTEX
  8
Layer1
 10
823.088
 20
406.374
  0
VERTEX
  8
Layer1
 10
823.115
 20
406.183
  0
VERTEX
  8
Layer1
 10
823.14
 20
405.992
  0
VERTEX
  8
Layer1
 10
823.163
 20
405.802
  0
VERTEX
  8
Layer1
 10
823.183
 20
405.611
  0
VERTEX
  8
Layer1
 10
823.2
 20
405.419
  0
VERTEX
  8
Layer1
 10
823.212
 20
405.228
  0
VERTEX
  8
Layer1
 10
823.22
 20
405.036
  0
VERTEX
  8
Layer1
 10
823.225
 20
404.845
  0
VERTEX
  8
Layer1
 10
823.226
 20
404.653
  0
VERTEX
  8
Layer1
 10
823.224
 20
404.461
  0
VERTEX
  8
Layer1
 10
823.221
 20
404.268
  0
VERTEX
  8
Layer1
 10
823.216
 20
404.076
  0
VERTEX
  8
Layer1
 10
823.211
 20
403.884
  0
SEQEND
  0
LINE
  8
Layer1
  6
CENTER1
 62
7
 10
803.927
 20
402.538
 11
803.927
 21
422.005
  0
LINE
  8
Layer1
  6
CONTINUOUS
 62
7
 10
792.927
 20
334.921
 11
792.927
 21
402.921
  0
LINE
  8
Layer1
  6
CONTINUOUS
 62
7
 10
793.927
 20
403.921
 11
792.927
 21
402.921
  0
LINE
  8
Layer1
  6
CONTINUOUS
 62
7
 10
937.927
 20
334.924
 11
936.924
 21
333.921
  0
LINE
  8
Layer1
  6
CONTINUOUS
 62
7
 10
788.427
 20
402.921
 11
789.427
 21
403.921
  0
LINE
  8
Layer1
  6
CONTINUOUS
 62
7
 10
793.927
 20
418.921
 11
792.927
 21
417.921
  0
LINE
  8
Layer1
  6
CONTINUOUS
 62
7
 10
792.927
 20
404.921
 11
793.927
 21
403.921
  0
LINE
  8
Layer1
  6
DASHED1
 62
7
 10
874.425
 20
417.121
 11
874.425
 21
410.621
  0
LINE
  8
Layer1
  6
CONTINUOUS
 62
7
 10
876.978
 20
410.945
 11
876.978
 21
403.921
  0
LINE
  8
Layer1
  6
CONTINUOUS
 62
7
 10
884.978
 20
410.934
 11
884.978
 21
403.921
  0
LINE
  8
Layer1
  6
CENTER1
 62
7
 10
880.978
 20
420.699
 11
880.978
 21
402.696
  0
LINE
  8
Layer1
  6
CONTINUOUS
 62
7
 10
789.427
 20
353.921
 11
792.927
 21
353.921
  0
LINE
  8
Layer1
  6
CONTINUOUS
 62
7
 10
792.927
 20
334.921
 11
793.927
 21
333.921
  0
LINE
  8
Layer1
  6
DASHED1
 62
7
 10
937.901
 20
374.65
 11
892.927
 21
428.249
  0
LINE
  8
Layer1
  6
CONTINUOUS
 62
7
 10
937.927
 20
334.924
 11
937.927
 21
477.921
  0
LINE
  8
Layer1
  6
CONTINUOUS
 62
7
 10
937.927
 20
477.921
 11
936.927
 21
478.921
  0
LINE
  8
Layer1
  6
CONTINUOUS
 62
7
 10
936.927
 20
462.921
 11
937.927
 21
463.921
  0
LINE
  8
Layer1
  6
CONTINUOUS
 62
7
 10
887.478
 20
410.921
 11
887.478
 21
418.421
  0
LINE
  8
Layer1
  6
CONTINUOUS
 62
7
 10
874.478
 20
410.921
 11
874.478
 21
418.421
  0
LINE
  8
Layer1
  6
CONTINUOUS
 62
7
 10
887.478
 20
418.421
 11
874.478
 21
418.421
  0
LINE
  8
Layer1
  6
CONTINUOUS
 62
7
 10
886.978
 20
418.921
 11
874.978
 21
418.921
  0
LINE
  8
Layer1
  6
CONTINUOUS
 62
7
 10
887.478
 20
418.421
 11
886.978
 21
418.921
  0
LINE
  8
Layer1
  6
CONTINUOUS
 62
7
 10
874.478
 20
418.421
 11
874.978
 21
418.921
  0
LINE
  8
Layer1
  6
CONTINUOUS
 62
7
 10
874.478
 20
410.921
 11
887.478
 21
410.921
  0
LINE
  8
Layer1
  6
CONTINUOUS
 62
7
 10
875.478
 20
411.498
 11
875.478
 21
417.844
  0
LINE
  8
Layer1
  6
CONTINUOUS
 62
7
 10
876.478
 20
412.075
 11
876.478
 21
417.267
  0
LINE
  8
Layer1
  6
CONTINUOUS
 62
7
 10
877.478
 20
412.652
 11
877.478
 21
416.69
  0
LINE
  8
Layer1
  6
CONTINUOUS
 62
7
 10
878.478
 20
413.229
 11
878.478
 21
416.114
  0
LINE
  8
Layer1
  6
CONTINUOUS
 62
7
 10
874.89
 20
410.533
 11
868.324
 21
403.967
  0
LINE
  8
Layer1
  6
CONTINUOUS
 62
7
 10
874.327
 20
413.97
 11
864.278
 21
403.921
  0
LINE
  8
Layer1
  6
CONTINUOUS
 62
7
 10
876.81
 20
408.453
 11
872.278
 21
403.921
  0
LINE
  8
Layer1
  6
CONTINUOUS
 62
7
 10
890.464
 20
418.107
 11
887.76
 21
415.403
  0
LINE
  8
Layer1
  6
CONTINUOUS
 62
7
 10
890.876
 20
410.519
 11
884.978
 21
404.621
  0
LINE
  8
Layer1
  6
CONTINUOUS
 62
7
 10
890.876
 20
414.519
 11
887.504
 21
411.147
  0
LINE
  8
Layer1
  6
CONTINUOUS
 62
7
 10
890.876
 20
406.519
 11
888.199
 21
403.842
  0
LINE
  8
Layer1
  6
PHANTOM1
 62
7
 10
912.949
 20
374.593
 11
888.363
 21
403.894
  0
LINE
  8
Layer1
  6
PHANTOM1
 62
7
 10
912.949
 20
374.593
 11
912.949
 21
353.894
  0
LINE
  8
Layer1
  6
PHANTOM1
 62
7
 10
936.927
 20
449.121
 11
893.927
 21
449.121
  0
LINE
  8
Layer1
  6
PHANTOM1
 62
7
 10
936.927
 20
433.121
 11
893.927
 21
433.121
  0
LINE
  8
Layer1
  6
CENTER1
 62
7
 10
806.425
 20
352.46
 11
806.425
 21
327.013
  0
LINE
  8
Layer1
  6
CENTER1
 62
7
 10
926.425
 20
358.1
 11
926.425
 21
323.817
  0
TEXT
  8
Layer1
 62
7
 10
914.893
 20
437.955
 72
1
 11
914.893
 21
437.955
 40
6
 41
1
 50
20
  1
 40°
  0
ARC
  8
Layer1
  6
CONTINUOUS
 62
7
 10
937.927
 20
374.671
 40
67.3446
 50
90
 51
130
  0
LINE
  8
Layer1
  6
CONTINUOUS
 62
7
 10
937.927
 20
386.17
 11
937.927
 21
422.688
  0
LINE
  8
Layer1
  6
CONTINUOUS
 62
7
 10
952.927
 20
389.421
 11
960.427
 21
389.421
  0
LINE
  8
Layer1
  6
CONTINUOUS
 62
7
 10
952.927
 20
402.421
 11
960.427
 21
402.421
  0
LINE
  8
Layer1
  6
CONTINUOUS
 62
7
 10
960.427
 20
389.421
 11
960.427
 21
402.421
  0
LINE
  8
Layer1
  6
CONTINUOUS
 62
7
 10
960.927
 20
389.921
 11
960.927
 21
401.921
  0
LINE
  8
Layer1
  6
CONTINUOUS
 62
7
 10
960.427
 20
389.421
 11
960.927
 21
389.921
  0
LINE
  8
Layer1
  6
CONTINUOUS
 62
7
 10
960.427
 20
402.421
 11
960.927
 21
401.921
  0
LINE
  8
Layer1
  6
CONTINUOUS
 62
7
 10
952.927
 20
402.421
 11
952.927
 21
389.421
  0
LINE
  8
Layer1
  6
CONTINUOUS
 62
7
 10
953.503
 20
401.421
 11
959.85
 21
401.421
  0
LINE
  8
Layer1
  6
CONTINUOUS
 62
7
 10
954.08
 20
400.421
 11
959.273
 21
400.421
  0
LINE
  8
Layer1
  6
CONTINUOUS
 62
7
 10
954.657
 20
399.421
 11
958.696
 21
399.421
  0
LINE
  8
Layer1
  6
CONTINUOUS
 62
7
 10
955.234
 20
398.421
 11
958.119
 21
398.421
  0
LINE
  8
Layer1
  6
CONTINUOUS
 62
7
 10
952.927
 20
370.421
 11
960.427
 21
370.421
  0
LINE
  8
Layer1
  6
CONTINUOUS
 62
7
 10
952.927
 20
383.421
 11
960.427
 21
383.421
  0
LINE
  8
Layer1
  6
CONTINUOUS
 62
7
 10
960.427
 20
370.421
 11
960.427
 21
383.421
  0
LINE
  8
Layer1
  6
CONTINUOUS
 62
7
 10
960.927
 20
370.921
 11
960.927
 21
382.921
  0
LINE
  8
Layer1
  6
CONTINUOUS
 62
7
 10
960.427
 20
370.421
 11
960.927
 21
370.921
  0
LINE
  8
Layer1
  6
CONTINUOUS
 62
7
 10
960.427
 20
383.421
 11
960.927
 21
382.921
  0
LINE
  8
Layer1
  6
CONTINUOUS
 62
7
 10
952.927
 20
383.421
 11
952.927
 21
370.421
  0
LINE
  8
Layer1
  6
CONTINUOUS
 62
7
 10
953.503
 20
382.421
 11
959.85
 21
382.421
  0
LINE
  8
Layer1
  6
CONTINUOUS
 62
7
 10
954.08
 20
381.421
 11
959.273
 21
381.421
  0
LINE
  8
Layer1
  6
CONTINUOUS
 62
7
 10
954.657
 20
380.421
 11
958.696
 21
380.421
  0
LINE
  8
Layer1
  6
CONTINUOUS
 62
7
 10
955.234
 20
379.421
 11
958.119
 21
379.421
  0
LINE
  8
Layer1
  6
CONTINUOUS
 62
7
 10
952.927
 20
351.031
 11
960.427
 21
351.031
  0
LINE
  8
Layer1
  6
CONTINUOUS
 62
7
 10
952.927
 20
364.031
 11
960.427
 21
364.031
  0
LINE
  8
Layer1
  6
CONTINUOUS
 62
7
 10
960.427
 20
351.031
 11
960.427
 21
364.031
  0
LINE
  8
Layer1
  6
CONTINUOUS
 62
7
 10
960.927
 20
351.531
 11
960.927
 21
363.531
  0
LINE
  8
Layer1
  6
CONTINUOUS
 62
7
 10
960.427
 20
351.031
 11
960.927
 21
351.531
  0
LINE
  8
Layer1
  6
CONTINUOUS
 62
7
 10
960.427
 20
364.031
 11
960.927
 21
363.531
  0
LINE
  8
Layer1
  6
CONTINUOUS
 62
7
 10
952.927
 20
364.031
 11
952.927
 21
351.031
  0
LINE
  8
Layer1
  6
CONTINUOUS
 62
7
 10
953.503
 20
363.031
 11
959.85
 21
363.031
  0
LINE
  8
Layer1
  6
CONTINUOUS
 62
7
 10
954.08
 20
362.031
 11
959.273
 21
362.031
  0
LINE
  8
Layer1
  6
CONTINUOUS
 62
7
 10
954.657
 20
361.031
 11
958.696
 21
361.031
  0
LINE
  8
Layer1
  6
CONTINUOUS
 62
7
 10
955.234
 20
360.031
 11
958.119
 21
360.031
  0
LINE
  8
Layer1
  6
DASHED1
 62
7
 10
940.969
 20
359.921
 11
953.222
 21
359.921
  0
LINE
  8
Layer1
  6
DASHED1
 62
7
 10
940.969
 20
367.921
 11
952.927
 21
367.921
  0
LINE
  8
Layer1
  6
DASHED1
 62
7
 10
940.969
 20
368.921
 11
952.927
 21
368.921
  0
LINE
  8
Layer1
  6
DASHED1
 62
7
 10
940.969
 20
358.921
 11
952.879
 21
358.921
  0
TEXT
  8
Layer1
 62
7
 10
803.64
 20
425.111
 72
1
 11
803.64
 21
425.111
 40
6
 41
1
  1
 4.5 
  0
LINE
  8
Layer1
  6
CONTINUOUS
 62
7
 10
788.427
 20
402.921
 11
788.427
 21
427.111
  0
LINE
  8
Layer1
  6
CONTINUOUS
 62
7
 10
792.927
 20
410.521
 11
792.927
 21
427.111
  0
POLYLINE
  8
Layer1
  6
CONTINUOUS
 62
7
 66
1
 10
0
 20
0
 30
0
  0
VERTEX
  8
Layer1
 10
778.427
 20
425.111
  0
VERTEX
  8
Layer1
 10
788.427
 20
425.111
  0
SEQEND
  0
POLYLINE
  8
Layer1
  6
CONTINUOUS
 62
7
 66
1
 10
0
 20
0
 30
0
 70
1
  0
VERTEX
  8
Layer1
 10
784.563
 20
426.146
  0
VERTEX
  8
Layer1
 10
788.427
 20
425.111
  0
VERTEX
  8
Layer1
 10
784.563
 20
424.076
  0
SEQEND
  0
POLYLINE
  8
Layer1
  6
CONTINUOUS
 62
7
 66
1
 10
0
 20
0
 30
0
  0
VERTEX
  8
Layer1
 10
802.927
 20
425.111
  0
VERTEX
  8
Layer1
 10
792.927
 20
425.111
  0
SEQEND
  0
POLYLINE
  8
Layer1
  6
CONTINUOUS
 62
7
 66
1
 10
0
 20
0
 30
0
 70
1
  0
VERTEX
  8
Layer1
 10
796.79
 20
424.076
  0
VERTEX
  8
Layer1
 10
792.927
 20
425.111
  0
VERTEX
  8
Layer1
 10
796.79
 20
426.146
  0
SEQEND
  0
LINE
  8
Layer1
  6
CONTINUOUS
 62
7
 10
788.427
 20
425.111
 11
792.927
 21
425.111
  0
TEXT
  8
Layer1
 62
7
 10
776.927
 20
425.111
 72
1
 11
776.927
 21
425.111
 40
6
 41
1
  1
 23 
  0
LINE
  8
Layer1
  6
CONTINUOUS
 62
7
 10
788.427
 20
401.171
 11
788.427
 21
427.111
  0
LINE
  8
Layer1
  6
CONTINUOUS
 62
7
 10
765.427
 20
402.921
 11
765.427
 21
427.111
  0
POLYLINE
  8
Layer1
  6
CONTINUOUS
 62
7
 66
1
 10
0
 20
0
 30
0
  0
VERTEX
  8
Layer1
 10
788.427
 20
425.111
  0
VERTEX
  8
Layer1
 10
765.427
 20
425.111
  0
SEQEND
  0
POLYLINE
  8
Layer1
  6
CONTINUOUS
 62
7
 66
1
 10
0
 20
0
 30
0
 70
1
  0
VERTEX
  8
Layer1
 10
784.563
 20
426.146
  0
VERTEX
  8
Layer1
 10
788.427
 20
425.111
  0
VERTEX
  8
Layer1
 10
784.563
 20
424.076
  0
SEQEND
  0
POLYLINE
  8
Layer1
  6
CONTINUOUS
 62
7
 66
1
 10
0
 20
0
 30
0
 70
1
  0
VERTEX
  8
Layer1
 10
769.29
 20
424.076
  0
VERTEX
  8
Layer1
 10
765.427
 20
425.111
  0
VERTEX
  8
Layer1
 10
769.29
 20
426.146
  0
SEQEND
  0
LINE
  8
Layer1
  6
PHANTOM1
 62
7
 10
740.427
 20
354.921
 11
740.427
 21
402.921
  0
LINE
  8
Layer1
  6
PHANTOM1
 62
7
 10
762.427
 20
353.921
 11
741.427
 21
353.921
  0
LINE
  8
Layer1
  6
PHANTOM1
 62
7
 10
762.427
 20
403.921
 11
741.427
 21
403.921
  0
LINE
  8
Layer1
  6
PHANTOM1
 62
7
 10
740.427
 20
402.921
 11
741.427
 21
403.921
  0
LINE
  8
Layer1
  6
PHANTOM1
 62
7
 10
740.427
 20
354.921
 11
741.427
 21
353.921
  0
LINE
  8
Layer1
  6
PHANTOM1
 62
7
 10
762.427
 20
353.921
 11
763.427
 21
354.921
  0
LINE
  8
Layer1
  6
PHANTOM1
 62
7
 10
762.427
 20
403.921
 11
763.427
 21
402.921
  0
LINE
  8
Layer1
  6
DASHED1
 62
7
 10
783.922
 20
399.421
 11
780.379
 21
399.421
  0
LINE
  8
Layer1
  6
PHANTOM1
 62
7
 10
763.427
 20
402.921
 11
763.427
 21
354.921
  0
LINE
  8
Layer1
  6
DASHED1
 62
7
 10
767.918
 20
398.921
 11
780.879
 21
398.921
  0
LINE
  8
Layer1
  6
DASHED1
 62
7
 10
765.688
 20
393.921
 11
780.879
 21
393.921
  0
LINE
  8
Layer1
  6
CONTINUOUS
 62
7
 10
765.427
 20
354.921
 11
765.427
 21
331.921
  0
LINE
  8
Layer1
  6
CONTINUOUS
 62
7
 10
740.427
 20
354.921
 11
740.427
 21
331.921
  0
POLYLINE
  8
Layer1
  6
CONTINUOUS
 62
7
 66
1
 10
0
 20
0
 30
0
  0
VERTEX
  8
Layer1
 10
765.427
 20
333.921
  0
VERTEX
  8
Layer1
 10
740.427
 20
333.921
  0
SEQEND
  0
POLYLINE
  8
Layer1
  6
CONTINUOUS
 62
7
 66
1
 10
0
 20
0
 30
0
 70
1
  0
VERTEX
  8
Layer1
 10
761.563
 20
334.957
  0
VERTEX
  8
Layer1
 10
765.427
 20
333.921
  0
VERTEX
  8
Layer1
 10
761.563
 20
332.886
  0
SEQEND
  0
POLYLINE
  8
Layer1
  6
CONTINUOUS
 62
7
 66
1
 10
0
 20
0
 30
0
 70
1
  0
VERTEX
  8
Layer1
 10
744.29
 20
332.886
  0
VERTEX
  8
Layer1
 10
740.427
 20
333.921
  0
VERTEX
  8
Layer1
 10
744.29
 20
334.957
  0
SEQEND
  0
TEXT
  8
Layer1
 62
7
 10
754.332
 20
321.625
 72
1
 11
754.332
 21
321.625
 40
6
 41
1
  1
25ストローク 
  0
LINE
  8
Layer1
  6
CONTINUOUS
 62
7
 10
934.43
 20
333.921
 11
993.581
 21
333.921
  0
TEXT
  8
Layer1
 62
7
 10
1003.81
 20
385.727
 72
1
 11
1003.81
 21
385.727
 40
6
 41
1
 50
90
  1
115.2
  0
LINE
  8
Layer1
  6
CONTINUOUS
 62
7
 10
936.927
 20
449.121
 11
1006.33
 21
449.121
  0
LINE
  8
Layer1
  6
CONTINUOUS
 62
7
 10
936.924
 20
333.921
 11
1006.33
 21
333.921
  0
POLYLINE
  8
Layer1
  6
CONTINUOUS
 62
7
 66
1
 10
0
 20
0
 30
0
  0
VERTEX
  8
Layer1
 10
1004.33
 20
449.121
  0
VERTEX
  8
Layer1
 10
1004.33
 20
333.921
  0
SEQEND
  0
POLYLINE
  8
Layer1
  6
CONTINUOUS
 62
7
 66
1
 10
0
 20
0
 30
0
 70
1
  0
VERTEX
  8
Layer1
 10
1003.29
 20
445.258
  0
VERTEX
  8
Layer1
 10
1004.33
 20
449.121
  0
VERTEX
  8
Layer1
 10
1005.36
 20
445.258
  0
SEQEND
  0
POLYLINE
  8
Layer1
  6
CONTINUOUS
 62
7
 66
1
 10
0
 20
0
 30
0
 70
1
  0
VERTEX
  8
Layer1
 10
1005.36
 20
337.785
  0
VERTEX
  8
Layer1
 10
1004.33
 20
333.921
  0
VERTEX
  8
Layer1
 10
1003.29
 20
337.785
  0
SEQEND
  0
TEXT
  8
Layer1
 62
7
 10
1022.21
 20
406.421
 72
1
 11
1022.21
 21
406.421
 40
6
 41
1
 50
90
  1
 145 
  0
LINE
  8
Layer1
  6
CONTINUOUS
 62
7
 10
936.927
 20
478.921
 11
1024.21
 21
478.921
  0
LINE
  8
Layer1
  6
CONTINUOUS
 62
7
 10
1004.33
 20
333.921
 11
1024.21
 21
333.921
  0
POLYLINE
  8
Layer1
  6
CONTINUOUS
 62
7
 66
1
 10
0
 20
0
 30
0
  0
VERTEX
  8
Layer1
 10
1022.21
 20
478.921
  0
VERTEX
  8
Layer1
 10
1022.21
 20
333.921
  0
SEQEND
  0
POLYLINE
  8
Layer1
  6
CONTINUOUS
 62
7
 66
1
 10
0
 20
0
 30
0
 70
1
  0
VERTEX
  8
Layer1
 10
1021.18
 20
475.058
  0
VERTEX
  8
Layer1
 10
1022.21
 20
478.921
  0
VERTEX
  8
Layer1
 10
1023.25
 20
475.058
  0
SEQEND
  0
POLYLINE
  8
Layer1
  6
CONTINUOUS
 62
7
 66
1
 10
0
 20
0
 30
0
 70
1
  0
VERTEX
  8
Layer1
 10
1023.25
 20
337.785
  0
VERTEX
  8
Layer1
 10
1022.21
 20
333.921
  0
VERTEX
  8
Layer1
 10
1021.18
 20
337.785
  0
SEQEND
  0
TEXT
  8
Layer1
 62
7
 10
1000.19
 20
421.864
 72
1
 11
1000.19
 21
421.864
 40
6
 41
1
 50
90
  1
(シャットハイト） 
  0
TEXT
  8
Layer1
 62
7
 10
1021.44
 20
437.277
 72
1
 11
1021.44
 21
437.277
 40
6
 41
1
 50
90
  1
(オープンハイト）
  0
LINE
  8
Layer1
  6
CONTINUOUS
 62
7
 10
952.927
 20
410.921
 11
951.927
 21
411.921
  0
LINE
  8
Layer1
  6
CONTINUOUS
 62
7
 10
889.876
 20
403.921
 11
890.876
 21
404.921
  0
LINE
  8
Layer1
  6
CONTINUOUS
 62
7
 10
889.626
 20
418.921
 11
890.927
 21
417.621
  0
LINE
  8
Layer1
  6
CONTINUOUS
 62
7
 10
792.927
 20
415.921
 11
792.927
 21
404.921
  0
POLYLINE
  8
Layer1
  6
CONTINUOUS
 62
7
 66
1
 10
0
 20
0
 30
0
  0
VERTEX
  8
Layer1
 10
791.144
 20
403.921
  0
VERTEX
  8
Layer1
 10
791.146
 20
403.571
  0
VERTEX
  8
Layer1
 10
791.147
 20
403.22
  0
VERTEX
  8
Layer1
 10
791.149
 20
402.868
  0
VERTEX
  8
Layer1
 10
791.152
 20
402.515
  0
VERTEX
  8
Layer1
 10
791.155
 20
402.16
  0
VERTEX
  8
Layer1
 10
791.159
 20
401.804
  0
VERTEX
  8
Layer1
 10
791.164
 20
401.445
  0
VERTEX
  8
Layer1
 10
791.17
 20
401.084
  0
VERTEX
  8
Layer1
 10
791.178
 20
400.72
  0
VERTEX
  8
Layer1
 10
791.187
 20
400.352
  0
VERTEX
  8
Layer1
 10
791.198
 20
399.98
  0
VERTEX
  8
Layer1
 10
791.21
 20
399.605
  0
VERTEX
  8
Layer1
 10
791.225
 20
399.224
  0
VERTEX
  8
Layer1
 10
791.242
 20
398.839
  0
VERTEX
  8
Layer1
 10
791.261
 20
398.448
  0
VERTEX
  8
Layer1
 10
791.283
 20
398.052
  0
VERTEX
  8
Layer1
 10
791.308
 20
397.65
  0
VERTEX
  8
Layer1
 10
791.333
 20
397.243
  0
VERTEX
  8
Layer1
 10
791.359
 20
396.832
  0
VERTEX
  8
Layer1
 10
791.384
 20
396.419
  0
VERTEX
  8
Layer1
 10
791.406
 20
396.005
  0
VERTEX
  8
Layer1
 10
791.424
 20
395.591
  0
VERTEX
  8
Layer1
 10
791.437
 20
395.178
  0
VERTEX
  8
Layer1
 10
791.443
 20
394.768
  0
VERTEX
  8
Layer1
 10
791.441
 20
394.363
  0
VERTEX
  8
Layer1
 10
791.43
 20
393.962
  0
VERTEX
  8
Layer1
 10
791.408
 20
393.569
  0
VERTEX
  8
Layer1
 10
791.374
 20
393.183
  0
VERTEX
  8
Layer1
 10
791.326
 20
392.807
  0
VERTEX
  8
Layer1
 10
791.263
 20
392.441
  0
VERTEX
  8
Layer1
 10
791.185
 20
392.086
  0
VERTEX
  8
Layer1
 10
791.088
 20
391.745
  0
VERTEX
  8
Layer1
 10
790.973
 20
391.419
  0
VERTEX
  8
Layer1
 10
790.838
 20
391.107
  0
VERTEX
  8
Layer1
 10
790.681
 20
390.813
  0
VERTEX
  8
Layer1
 10
790.501
 20
390.537
  0
VERTEX
  8
Layer1
 10
790.297
 20
390.281
  0
VERTEX
  8
Layer1
 10
790.067
 20
390.045
  0
VERTEX
  8
Layer1
 10
789.81
 20
389.831
  0
VERTEX
  8
Layer1
 10
789.529
 20
389.636
  0
VERTEX
  8
Layer1
 10
789.228
 20
389.455
  0
VERTEX
  8
Layer1
 10
788.911
 20
389.285
  0
VERTEX
  8
Layer1
 10
788.581
 20
389.121
  0
VERTEX
  8
Layer1
 10
788.243
 20
388.959
  0
VERTEX
  8
Layer1
 10
787.901
 20
388.794
  0
VERTEX
  8
Layer1
 10
787.557
 20
388.623
  0
VERTEX
  8
Layer1
 10
787.217
 20
388.441
  0
VERTEX
  8
Layer1
 10
786.885
 20
388.244
  0
VERTEX
  8
Layer1
 10
786.563
 20
388.028
  0
VERTEX
  8
Layer1
 10
786.253
 20
387.793
  0
VERTEX
  8
Layer1
 10
785.952
 20
387.543
  0
VERTEX
  8
Layer1
 10
785.66
 20
387.281
  0
VERTEX
  8
Layer1
 10
785.376
 20
387.011
  0
VERTEX
  8
Layer1
 10
785.097
 20
386.734
  0
VERTEX
  8
Layer1
 10
784.822
 20
386.456
  0
VERTEX
  8
Layer1
 10
784.551
 20
386.178
  0
VERTEX
  8
Layer1
 10
784.281
 20
385.905
  0
VERTEX
  8
Layer1
 10
784.011
 20
385.639
  0
VERTEX
  8
Layer1
 10
783.74
 20
385.383
  0
VERTEX
  8
Layer1
 10
783.467
 20
385.141
  0
VERTEX
  8
Layer1
 10
783.189
 20
384.916
  0
VERTEX
  8
Layer1
 10
782.906
 20
384.712
  0
VERTEX
  8
Layer1
 10
782.616
 20
384.531
  0
VERTEX
  8
Layer1
 10
782.317
 20
384.377
  0
VERTEX
  8
Layer1
 10
782.009
 20
384.253
  0
VERTEX
  8
Layer1
 10
781.69
 20
384.162
  0
VERTEX
  8
Layer1
 10
781.359
 20
384.105
  0
VERTEX
  8
Layer1
 10
781.017
 20
384.08
  0
VERTEX
  8
Layer1
 10
780.665
 20
384.081
  0
VERTEX
  8
Layer1
 10
780.305
 20
384.105
  0
VERTEX
  8
Layer1
 10
779.939
 20
384.145
  0
VERTEX
  8
Layer1
 10
779.567
 20
384.199
  0
VERTEX
  8
Layer1
 10
779.191
 20
384.26
  0
VERTEX
  8
Layer1
 10
778.812
 20
384.325
  0
VERTEX
  8
Layer1
 10
778.432
 20
384.39
  0
VERTEX
  8
Layer1
 10
778.052
 20
384.448
  0
VERTEX
  8
Layer1
 10
777.673
 20
384.497
  0
VERTEX
  8
Layer1
 10
777.297
 20
384.531
  0
VERTEX
  8
Layer1
 10
776.925
 20
384.545
  0
VERTEX
  8
Layer1
 10
776.559
 20
384.536
  0
VERTEX
  8
Layer1
 10
776.199
 20
384.499
  0
VERTEX
  8
Layer1
 10
775.846
 20
384.435
  0
VERTEX
  8
Layer1
 10
775.498
 20
384.347
  0
VERTEX
  8
Layer1
 10
775.156
 20
384.237
  0
VERTEX
  8
Layer1
 10
774.818
 20
384.107
  0
VERTEX
  8
Layer1
 10
774.485
 20
383.961
  0
VERTEX
  8
Layer1
 10
774.154
 20
383.8
  0
VERTEX
  8
Layer1
 10
773.826
 20
383.627
  0
VERTEX
  8
Layer1
 10
773.501
 20
383.444
  0
VERTEX
  8
Layer1
 10
773.177
 20
383.254
  0
VERTEX
  8
Layer1
 10
772.853
 20
383.059
  0
VERTEX
  8
Layer1
 10
772.53
 20
382.863
  0
VERTEX
  8
Layer1
 10
772.207
 20
382.666
  0
VERTEX
  8
Layer1
 10
771.882
 20
382.472
  0
VERTEX
  8
Layer1
 10
771.556
 20
382.284
  0
VERTEX
  8
Layer1
 10
771.227
 20
382.103
  0
VERTEX
  8
Layer1
 10
770.896
 20
381.932
  0
VERTEX
  8
Layer1
 10
770.561
 20
381.774
  0
VERTEX
  8
Layer1
 10
770.222
 20
381.631
  0
VERTEX
  8
Layer1
 10
769.878
 20
381.504
  0
VERTEX
  8
Layer1
 10
769.53
 20
381.395
  0
VERTEX
  8
Layer1
 10
769.178
 20
381.3
  0
VERTEX
  8
Layer1
 10
768.821
 20
381.22
  0
VERTEX
  8
Layer1
 10
768.462
 20
381.152
  0
VERTEX
  8
Layer1
 10
768.099
 20
381.094
  0
VERTEX
  8
Layer1
 10
767.734
 20
381.047
  0
VERTEX
  8
Layer1
 10
767.367
 20
381.008
  0
VERTEX
  8
Layer1
 10
766.998
 20
380.975
  0
VERTEX
  8
Layer1
 10
766.627
 20
380.948
  0
VERTEX
  8
Layer1
 10
766.255
 20
380.926
  0
VERTEX
  8
Layer1
 10
765.882
 20
380.906
  0
VERTEX
  8
Layer1
 10
765.509
 20
380.887
  0
SEQEND
  0
LINE
  8
Layer1
  6
DASHED1
 62
7
 10
805.377
 20
398.921
 11
812.477
 21
398.921
  0
LINE
  8
Layer1
  6
DASHED1
 62
7
 10
805.377
 20
393.921
 11
812.477
 21
393.921
  0
LINE
  8
Layer1
  6
DASHED1
 62
7
 10
812.477
 20
398.921
 11
812.477
 21
393.921
  0
LINE
  8
Layer1
  6
DASHED1
 62
7
 10
812.477
 20
393.921
 11
812.477
 21
394.242
  0
LINE
  8
Layer1
  6
DASHED1
 62
7
 10
808.92
 20
393.421
 11
808.92
 21
394.546
  0
LINE
  8
Layer1
  6
CONTINUOUS
 62
7
 10
765.427
 20
354.921
 11
765.427
 21
402.921
  0
LINE
  8
Layer1
  6
CONTINUOUS
 62
7
 10
787.427
 20
353.921
 11
766.427
 21
353.921
  0
LINE
  8
Layer1
  6
CONTINUOUS
 62
7
 10
787.427
 20
403.921
 11
766.427
 21
403.921
  0
LINE
  8
Layer1
  6
CONTINUOUS
 62
7
 10
788.427
 20
402.921
 11
788.427
 21
399.421
  0
LINE
  8
Layer1
  6
CONTINUOUS
 62
7
 10
765.427
 20
402.921
 11
766.427
 21
403.921
  0
LINE
  8
Layer1
  6
CONTINUOUS
 62
7
 10
765.427
 20
354.921
 11
766.427
 21
353.921
  0
LINE
  8
Layer1
  6
CONTINUOUS
 62
7
 10
787.427
 20
353.921
 11
788.427
 21
354.921
  0
LINE
  8
Layer1
  6
CONTINUOUS
 62
7
 10
788.427
 20
354.921
 11
789.427
 21
353.921
  0
LINE
  8
Layer1
  6
CONTINUOUS
 62
7
 10
787.427
 20
403.921
 11
788.427
 21
402.921
  0
LINE
  8
Layer1
  6
CONTINUOUS
 62
7
 10
788.427
 20
402.921
 11
789.427
 21
403.921
  0
LINE
  8
Layer1
  6
CENTER1
 62
7
 10
818.989
 20
396.421
 11
758.492
 21
396.421
  0
LINE
  8
Layer1
  6
DASHED1
 62
7
 10
812.477
 20
398.921
 11
813.92
 21
396.421
  0
LINE
  8
Layer1
  6
DASHED1
 62
7
 10
813.92
 20
396.421
 11
812.477
 21
393.921
  0
LINE
  8
Layer1
  6
CONTINUOUS
 62
7
 10
766.427
 20
392.421
 11
766.427
 21
400.421
  0
LINE
  8
Layer1
  6
CONTINUOUS
 62
7
 10
767.427
 20
401.421
 11
772.427
 21
401.421
  0
LINE
  8
Layer1
  6
CONTINUOUS
 62
7
 10
767.427
 20
391.421
 11
772.427
 21
391.421
  0
LINE
  8
Layer1
  6
CONTINUOUS
 62
7
 10
772.427
 20
401.921
 11
772.427
 21
390.921
  0
LINE
  8
Layer1
  6
DASHED1
 62
7
 10
805.377
 20
399.421
 11
791.127
 21
399.421
  0
LINE
  8
Layer1
  6
DASHED1
 62
7
 10
805.377
 20
393.421
 11
791.393
 21
393.421
  0
LINE
  8
Layer1
  6
DASHED1
 62
7
 10
806.377
 20
394.421
 11
806.377
 21
398.421
  0
LINE
  8
Layer1
  6
CONTINUOUS
 62
7
 10
772.379
 20
398.921
 11
792.918
 21
398.921
  0
LINE
  8
Layer1
  6
CONTINUOUS
 62
7
 10
772.379
 20
393.921
 11
790.688
 21
393.921
  0
LINE
  8
Layer1
  6
DASHED1
 62
7
 10
805.377
 20
399.421
 11
805.377
 21
393.421
  0
LINE
  8
Layer1
  6
DASHED1
 62
7
 10
805.377
 20
399.421
 11
806.377
 21
398.421
  0
LINE
  8
Layer1
  6
DASHED1
 62
7
 10
806.377
 20
394.421
 11
805.377
 21
393.421
  0
LINE
  8
Layer1
  6
CONTINUOUS
 62
7
 10
766.427
 20
392.421
 11
767.427
 21
391.421
  0
LINE
  8
Layer1
  6
CONTINUOUS
 62
7
 10
772.427
 20
401.921
 11
765.427
 21
401.921
  0
LINE
  8
Layer1
  6
CONTINUOUS
 62
7
 10
772.427
 20
390.921
 11
765.427
 21
390.921
  0
LINE
  8
Layer1
  6
DASHED1
 62
7
 10
808.92
 20
399.421
 11
805.377
 21
399.421
  0
LINE
  8
Layer1
  6
DASHED1
 62
7
 10
808.92
 20
393.421
 11
805.377
 21
393.421
  0
LINE
  8
Layer1
  6
DASHED1
 62
7
 10
808.92
 20
399.421
 11
809.786
 21
398.921
  0
LINE
  8
Layer1
  6
DASHED1
 62
7
 10
808.92
 20
393.421
 11
809.786
 21
393.921
  0
LINE
  8
Layer1
  6
DASHED1
 62
7
 10
809.786
 20
398.921
 11
809.786
 21
393.921
  0
LINE
  8
Layer1
  6
CONTINUOUS
 62
7
 10
767.427
 20
401.421
 11
767.427
 21
391.421
  0
LINE
  8
Layer1
  6
CONTINUOUS
 62
7
 10
788.427
 20
393.421
 11
788.427
 21
354.921
  0
LINE
  8
Layer1
  6
CONTINUOUS
 62
7
 10
791.129
 20
399.421
 11
772.379
 21
399.421
  0
LINE
  8
Layer1
  6
DASHED1
 62
7
 10
792.916
 20
398.921
 11
805.877
 21
398.921
  0
LINE
  8
Layer1
  6
DASHED1
 62
7
 10
790.686
 20
393.921
 11
805.877
 21
393.921
  0
LINE
  8
Layer1
  6
CONTINUOUS
 62
7
 10
791.395
 20
393.421
 11
772.379
 21
393.421
  0
LINE
  8
Layer1
  6
CONTINUOUS
 62
7
 10
767.427
 20
401.421
 11
772.427
 21
401.421
  0
LINE
  8
Layer1
  6
CONTINUOUS
 62
7
 10
766.427
 20
400.421
 11
767.427
 21
401.421
  0
LINE
  8
Layer1
  6
CONTINUOUS
 62
7
 10
772.427
 20
401.421
 11
767.427
 21
401.421
  0
LINE
  8
Layer1
  6
CONTINUOUS
 62
7
 10
772.177
 20
400.921
 11
767.677
 21
400.921
  0
LINE
  8
Layer1
  6
CONTINUOUS
 62
7
 10
771.677
 20
399.921
 11
768.177
 21
399.921
  0
LINE
  8
Layer1
  6
CONTINUOUS
 62
7
 10
771.177
 20
398.921
 11
768.677
 21
398.921
  0
LINE
  8
Layer1
  6
CONTINUOUS
 62
7
 10
610.789
 20
418.727
 11
480.789
 21
418.727
  0
LINE
  8
Layer1
  6
CONTINUOUS
 62
7
 10
480.789
 20
418.727
 11
479.789
 21
417.727
  0
LINE
  8
Layer1
  6
CONTINUOUS
 62
7
 10
610.789
 20
418.727
 11
611.789
 21
417.727
  0
LINE
  8
Layer1
  6
CONTINUOUS
 62
7
 10
892.074
 20
333.921
 11
894.392
 21
333.921
  0
LINE
  8
Layer1
  6
CONTINUOUS
 62
7
 10
892.847
 20
351.921
 11
890.529
 21
351.921
  0
LINE
  8
Layer1
  6
CONTINUOUS
 62
7
 10
890.529
 20
347.427
 11
892.847
 21
347.427
  0
LINE
  8
Layer1
  6
CONTINUOUS
 62
7
 10
892.074
 20
338.439
 11
894.392
 21
338.439
  0
LINE
  8
Layer1
  6
CONTINUOUS
 62
7
 10
892.847
 20
351.921
 11
892.847
 21
347.427
  0
LINE
  8
Layer1
  6
CONTINUOUS
 62
7
 10
890.529
 20
351.921
 11
890.529
 21
347.427
  0
LINE
  8
Layer1
  6
CONTINUOUS
 62
7
 10
892.074
 20
338.439
 11
892.074
 21
333.921
  0
LINE
  8
Layer1
  6
CONTINUOUS
 62
7
 10
894.392
 20
338.439
 11
894.392
 21
333.921
  0
LINE
  8
Layer1
  6
CONTINUOUS
 62
7
 10
890.529
 20
347.427
 11
892.074
 21
338.439
  0
LINE
  8
Layer1
  6
CONTINUOUS
 62
7
 10
892.847
 20
347.427
 11
894.392
 21
338.439
  0
LINE
  8
Layer1
  6
CONTINUOUS
 62
7
 10
891.302
 20
342.933
 11
892.074
 21
333.921
  0
LINE
  8
Layer1
  6
CONTINUOUS
 62
7
 10
893.04
 20
351.921
 11
893.62
 21
342.933
  0
LINE
  8
Layer1
  6
CONTINUOUS
 62
7
 10
883.188
 20
333.921
 11
885.506
 21
333.921
  0
LINE
  8
Layer1
  6
CONTINUOUS
 62
7
 10
883.961
 20
351.921
 11
881.642
 21
351.921
  0
LINE
  8
Layer1
  6
CONTINUOUS
 62
7
 10
881.642
 20
347.427
 11
883.961
 21
347.427
  0
LINE
  8
Layer1
  6
CONTINUOUS
 62
7
 10
883.188
 20
338.439
 11
885.506
 21
338.439
  0
LINE
  8
Layer1
  6
CONTINUOUS
 62
7
 10
883.961
 20
351.921
 11
883.961
 21
347.427
  0
LINE
  8
Layer1
  6
CONTINUOUS
 62
7
 10
881.642
 20
351.921
 11
881.642
 21
347.427
  0
LINE
  8
Layer1
  6
CONTINUOUS
 62
7
 10
883.188
 20
338.439
 11
883.188
 21
333.921
  0
LINE
  8
Layer1
  6
CONTINUOUS
 62
7
 10
885.506
 20
338.439
 11
885.506
 21
333.921
  0
LINE
  8
Layer1
  6
CONTINUOUS
 62
7
 10
881.642
 20
347.427
 11
883.188
 21
338.439
  0
LINE
  8
Layer1
  6
CONTINUOUS
 62
7
 10
883.961
 20
347.427
 11
885.506
 21
338.439
  0
LINE
  8
Layer1
  6
CONTINUOUS
 62
7
 10
882.415
 20
342.933
 11
883.188
 21
333.921
  0
LINE
  8
Layer1
  6
CONTINUOUS
 62
7
 10
884.154
 20
351.921
 11
884.733
 21
342.933
  0
LINE
  8
Layer1
  6
CONTINUOUS
 62
7
 10
887.438
 20
333.921
 11
889.756
 21
333.921
  0
LINE
  8
Layer1
  6
CONTINUOUS
 62
7
 10
888.211
 20
351.921
 11
885.892
 21
351.921
  0
LINE
  8
Layer1
  6
CONTINUOUS
 62
7
 10
885.892
 20
347.427
 11
888.211
 21
347.427
  0
LINE
  8
Layer1
  6
CONTINUOUS
 62
7
 10
887.438
 20
338.439
 11
889.756
 21
338.439
  0
LINE
  8
Layer1
  6
CONTINUOUS
 62
7
 10
888.211
 20
351.921
 11
888.211
 21
347.427
  0
LINE
  8
Layer1
  6
CONTINUOUS
 62
7
 10
885.892
 20
351.921
 11
885.892
 21
347.427
  0
LINE
  8
Layer1
  6
CONTINUOUS
 62
7
 10
887.438
 20
338.439
 11
887.438
 21
333.921
  0
LINE
  8
Layer1
  6
CONTINUOUS
 62
7
 10
889.756
 20
338.439
 11
889.756
 21
333.921
  0
LINE
  8
Layer1
  6
CONTINUOUS
 62
7
 10
885.892
 20
347.427
 11
887.438
 21
338.439
  0
LINE
  8
Layer1
  6
CONTINUOUS
 62
7
 10
888.211
 20
347.427
 11
889.756
 21
338.439
  0
LINE
  8
Layer1
  6
CONTINUOUS
 62
7
 10
886.665
 20
342.933
 11
887.438
 21
333.921
  0
LINE
  8
Layer1
  6
CONTINUOUS
 62
7
 10
888.404
 20
351.921
 11
888.983
 21
342.933
  0
LINE
  8
Layer1
  6
CONTINUOUS
 62
7
 10
883.188
 20
333.921
 11
885.506
 21
333.921
  0
LINE
  8
Layer1
  6
CONTINUOUS
 62
7
 10
883.961
 20
351.921
 11
881.642
 21
351.921
  0
LINE
  8
Layer1
  6
CONTINUOUS
 62
7
 10
881.642
 20
347.427
 11
883.961
 21
347.427
  0
LINE
  8
Layer1
  6
CONTINUOUS
 62
7
 10
883.188
 20
338.439
 11
885.506
 21
338.439
  0
LINE
  8
Layer1
  6
CONTINUOUS
 62
7
 10
883.961
 20
351.921
 11
883.961
 21
347.427
  0
LINE
  8
Layer1
  6
CONTINUOUS
 62
7
 10
881.642
 20
351.921
 11
881.642
 21
347.427
  0
LINE
  8
Layer1
  6
CONTINUOUS
 62
7
 10
883.188
 20
338.439
 11
883.188
 21
333.921
  0
LINE
  8
Layer1
  6
CONTINUOUS
 62
7
 10
885.506
 20
338.439
 11
885.506
 21
333.921
  0
LINE
  8
Layer1
  6
CONTINUOUS
 62
7
 10
881.642
 20
347.427
 11
883.188
 21
338.439
  0
LINE
  8
Layer1
  6
CONTINUOUS
 62
7
 10
883.961
 20
347.427
 11
885.506
 21
338.439
  0
LINE
  8
Layer1
  6
CONTINUOUS
 62
7
 10
882.415
 20
342.933
 11
883.188
 21
333.921
  0
LINE
  8
Layer1
  6
CONTINUOUS
 62
7
 10
884.154
 20
351.921
 11
884.733
 21
342.933
  0
LINE
  8
Layer1
  6
CONTINUOUS
 62
7
 10
892.074
 20
333.921
 11
894.392
 21
333.921
  0
LINE
  8
Layer1
  6
CONTINUOUS
 62
7
 10
892.847
 20
351.921
 11
890.529
 21
351.921
  0
LINE
  8
Layer1
  6
CONTINUOUS
 62
7
 10
890.529
 20
347.427
 11
892.847
 21
347.427
  0
LINE
  8
Layer1
  6
CONTINUOUS
 62
7
 10
892.074
 20
338.439
 11
894.392
 21
338.439
  0
LINE
  8
Layer1
  6
CONTINUOUS
 62
7
 10
892.847
 20
351.921
 11
892.847
 21
347.427
  0
LINE
  8
Layer1
  6
CONTINUOUS
 62
7
 10
890.529
 20
351.921
 11
890.529
 21
347.427
  0
LINE
  8
Layer1
  6
CONTINUOUS
 62
7
 10
892.074
 20
338.439
 11
892.074
 21
333.921
  0
LINE
  8
Layer1
  6
CONTINUOUS
 62
7
 10
894.392
 20
338.439
 11
894.392
 21
333.921
  0
LINE
  8
Layer1
  6
CONTINUOUS
 62
7
 10
890.529
 20
347.427
 11
892.074
 21
338.439
  0
LINE
  8
Layer1
  6
CONTINUOUS
 62
7
 10
892.847
 20
347.427
 11
894.392
 21
338.439
  0
LINE
  8
Layer1
  6
CONTINUOUS
 62
7
 10
891.302
 20
342.933
 11
892.074
 21
333.921
  0
LINE
  8
Layer1
  6
CONTINUOUS
 62
7
 10
893.04
 20
351.921
 11
893.62
 21
342.933
  0
LINE
  8
Layer1
  6
CONTINUOUS
 62
7
 10
896.517
 20
333.921
 11
898.836
 21
333.921
  0
LINE
  8
Layer1
  6
CONTINUOUS
 62
7
 10
897.29
 20
351.921
 11
894.972
 21
351.921
  0
LINE
  8
Layer1
  6
CONTINUOUS
 62
7
 10
894.972
 20
347.427
 11
897.29
 21
347.427
  0
LINE
  8
Layer1
  6
CONTINUOUS
 62
7
 10
896.517
 20
338.439
 11
898.836
 21
338.439
  0
LINE
  8
Layer1
  6
CONTINUOUS
 62
7
 10
897.29
 20
351.921
 11
897.29
 21
347.427
  0
LINE
  8
Layer1
  6
CONTINUOUS
 62
7
 10
894.972
 20
351.921
 11
894.972
 21
347.427
  0
LINE
  8
Layer1
  6
CONTINUOUS
 62
7
 10
896.517
 20
338.439
 11
896.517
 21
333.921
  0
LINE
  8
Layer1
  6
CONTINUOUS
 62
7
 10
898.836
 20
338.439
 11
898.836
 21
333.921
  0
LINE
  8
Layer1
  6
CONTINUOUS
 62
7
 10
894.972
 20
347.427
 11
896.517
 21
338.439
  0
LINE
  8
Layer1
  6
CONTINUOUS
 62
7
 10
897.29
 20
347.427
 11
898.836
 21
338.439
  0
LINE
  8
Layer1
  6
CONTINUOUS
 62
7
 10
895.745
 20
342.933
 11
896.517
 21
333.921
  0
LINE
  8
Layer1
  6
CONTINUOUS
 62
7
 10
897.483
 20
351.921
 11
898.063
 21
342.933
  0
LINE
  8
Layer1
  6
CONTINUOUS
 62
7
 10
896.711
 20
333.921
 11
899.029
 21
333.921
  0
LINE
  8
Layer1
  6
CONTINUOUS
 62
7
 10
897.483
 20
351.921
 11
895.165
 21
351.921
  0
LINE
  8
Layer1
  6
CONTINUOUS
 62
7
 10
895.165
 20
347.427
 11
897.483
 21
347.427
  0
LINE
  8
Layer1
  6
CONTINUOUS
 62
7
 10
896.711
 20
338.439
 11
899.029
 21
338.439
  0
LINE
  8
Layer1
  6
CONTINUOUS
 62
7
 10
897.483
 20
351.921
 11
897.483
 21
347.427
  0
LINE
  8
Layer1
  6
CONTINUOUS
 62
7
 10
895.165
 20
351.921
 11
895.165
 21
347.427
  0
LINE
  8
Layer1
  6
CONTINUOUS
 62
7
 10
896.711
 20
338.439
 11
896.711
 21
333.921
  0
LINE
  8
Layer1
  6
CONTINUOUS
 62
7
 10
899.029
 20
338.439
 11
899.029
 21
333.921
  0
LINE
  8
Layer1
  6
CONTINUOUS
 62
7
 10
895.165
 20
347.427
 11
896.711
 21
338.439
  0
LINE
  8
Layer1
  6
CONTINUOUS
 62
7
 10
897.483
 20
347.427
 11
899.029
 21
338.439
  0
LINE
  8
Layer1
  6
CONTINUOUS
 62
7
 10
895.938
 20
342.933
 11
896.711
 21
333.921
  0
LINE
  8
Layer1
  6
CONTINUOUS
 62
7
 10
897.677
 20
351.921
 11
898.256
 21
342.933
  0
LINE
  8
Layer1
  6
CONTINUOUS
 62
7
 10
878.552
 20
333.921
 11
880.87
 21
333.921
  0
LINE
  8
Layer1
  6
CONTINUOUS
 62
7
 10
874.688
 20
351.921
 11
872.37
 21
351.921
  0
LINE
  8
Layer1
  6
CONTINUOUS
 62
7
 10
872.37
 20
347.427
 11
874.688
 21
347.427
  0
LINE
  8
Layer1
  6
CONTINUOUS
 62
7
 10
873.915
 20
338.439
 11
876.233
 21
338.439
  0
LINE
  8
Layer1
  6
CONTINUOUS
 62
7
 10
874.688
 20
351.921
 11
874.688
 21
347.427
  0
LINE
  8
Layer1
  6
CONTINUOUS
 62
7
 10
872.37
 20
351.921
 11
872.37
 21
347.427
  0
LINE
  8
Layer1
  6
CONTINUOUS
 62
7
 10
873.915
 20
338.439
 11
873.915
 21
337.341
  0
LINE
  8
Layer1
  6
CONTINUOUS
 62
7
 10
876.233
 20
338.439
 11
876.233
 21
336.18
  0
LINE
  8
Layer1
  6
CONTINUOUS
 62
7
 10
872.37
 20
347.427
 11
873.915
 21
338.439
  0
LINE
  8
Layer1
  6
CONTINUOUS
 62
7
 10
874.688
 20
347.427
 11
876.233
 21
338.439
  0
LINE
  8
Layer1
  6
CONTINUOUS
 62
7
 10
873.142
 20
342.933
 11
873.605
 21
337.535
  0
LINE
  8
Layer1
  6
CONTINUOUS
 62
7
 10
874.881
 20
351.921
 11
875.461
 21
342.933
  0
LINE
  8
Layer1
  6
CONTINUOUS
 62
7
 10
879.324
 20
351.921
 11
877.006
 21
351.921
  0
LINE
  8
Layer1
  6
CONTINUOUS
 62
7
 10
877.006
 20
347.427
 11
879.324
 21
347.427
  0
LINE
  8
Layer1
  6
CONTINUOUS
 62
7
 10
878.552
 20
338.439
 11
880.87
 21
338.439
  0
LINE
  8
Layer1
  6
CONTINUOUS
 62
7
 10
879.324
 20
351.921
 11
879.324
 21
347.427
  0
LINE
  8
Layer1
  6
CONTINUOUS
 62
7
 10
877.006
 20
351.921
 11
877.006
 21
347.427
  0
LINE
  8
Layer1
  6
CONTINUOUS
 62
7
 10
878.552
 20
338.439
 11
878.552
 21
335.427
  0
LINE
  8
Layer1
  6
CONTINUOUS
 62
7
 10
880.87
 20
338.439
 11
880.87
 21
334.834
  0
LINE
  8
Layer1
  6
CONTINUOUS
 62
7
 10
877.006
 20
347.427
 11
878.552
 21
338.439
  0
LINE
  8
Layer1
  6
CONTINUOUS
 62
7
 10
879.324
 20
347.427
 11
880.87
 21
338.439
  0
LINE
  8
Layer1
  6
CONTINUOUS
 62
7
 10
877.779
 20
342.933
 11
878.419
 21
335.465
  0
LINE
  8
Layer1
  6
CONTINUOUS
 62
7
 10
879.517
 20
351.921
 11
880.097
 21
342.933
  0
TEXT
  8
Layer1
 62
7
 10
526.336
 20
636.461
 73
3
 11
526.336
 21
636.461
 40
10
 41
1
  1
EMC-50-100-25
  0
LINE
  8
Layer1
  6
CONTINUOUS
 62
7
 10
520.976
 20
640.353
 11
520.976
 21
622.913
  0
LINE
  8
Layer1
  6
CONTINUOUS
 62
7
 10
520.976
 20
622.913
 11
593.954
 21
622.913
  0
LINE
  8
Layer1
  6
CONTINUOUS
 62
7
 10
593.954
 20
640.353
 11
593.954
 21
622.913
  0
LINE
  8
Layer1
  6
CONTINUOUS
 62
7
 10
520.976
 20
640.353
 11
593.954
 21
640.353
  0
ENDSEC
  0
EOF
