  0
SECTION
  2
HEADER
  9
$EXTMIN
 10
0
 20
0
  9
$EXTMAX
 10
841
 20
594
  9
$LTSCALE
 40
1
  9
$LIMMIN
 10
0
 20
0
  9
$LIMMAX
 10
841
 20
594
  9
$DIMSCALE
 40
1
  0
ENDSEC
  0
SECTION
  2
TABLES
  0
TABLE
  2
LTYPE
 70
9
  0
LTYPE
  2
CONTINUOUS
 70
64
  3
----------
 72
65
 73
0
 40
0
  0
LTYPE
  2
DASHED1
 70
64
  3
--  --  --  --  --  --  --  --  
 72
65
 73
2
 40
2.5
 49
1.25
 49
-1.25
  0
LTYPE
  2
DASHED2
 70
64
  3
----    ----    ----    ----    
 72
65
 73
2
 40
5
 49
2.5
 49
-2.5
  0
LTYPE
  2
DASHED3
 70
64
  3
------  ------  ------  ------  
 72
65
 73
2
 40
5
 49
3.75
 49
-1.25
  0
LTYPE
  2
CENTER1
 70
64
  3
----- - ----- - ----- - ----- - 
 72
65
 73
4
 40
7.5
 49
3.75
 49
-1.25
 49
1.25
 49
-1.25
  0
LTYPE
  2
CENTER2
 70
64
  3
----------  --  ----------  --  
 72
65
 73
4
 40
13.75
 49
6.25
 49
-2.5
 49
2.5
 49
-2.5
  0
LTYPE
  2
PHANTOM1
 70
64
  3
--- - - --- - - --- - - --- - - 
 72
65
 73
6
 40
9.5
 49
3.25
 49
-1.25
 49
1.25
 49
-1.25
 49
1.25
 49
-1.25
  0
LTYPE
  2
PHANTOM2
 70
64
  3
--------  -  -  --------  -  -  
 72
65
 73
6
 40
18
 49
8
 49
-2.5
 49
1.25
 49
-2.5
 49
1.25
 49
-2.5
  0
LTYPE
  2
DOT
 70
64
  3
-   -   -   -   -   -   -   -   
 72
65
 73
2
 40
2.5
 49
0.625
 49
-1.875
  0
LTYPE
  2
HOJO
 70
64
  3
-   -   -   -   -   -   -   -   
 72
65
 73
2
 40
2.5
 49
0.625
 49
-1.875
  0
ENDTAB
  0
TABLE
  2
STYLE
 70
2
  0
STYLE
  2
STANDARD
 70
64
 40
0
 41
1
 42
0
 50
0
 71
0
  3
TXT
  4
BIGFONT
  0
STYLE
  2
TATEGAKI
 70
68
 40
0
 41
1
 42
0
 50
0
 71
0
  3
TXT
  4
EXTFONT
  0
ENDTAB
  0
TABLE
  2
LAYER
 70
1
  0
LAYER
  2
Layer1
 70
64
 62
7
  6
CONTINUOUS
  0
ENDTAB
  0
ENDSEC
  0
SECTION
  2
ENTITIES
  0
LINE
  8
Layer1
  6
CONTINUOUS
 62
7
 10
341.521
 20
87.1671
 11
173.521
 21
87.1671
  0
LINE
  8
Layer1
  6
CONTINUOUS
 62
7
 10
572.164
 20
87.1671
 11
465.173
 21
87.1671
  0
LINE
  8
Layer1
  6
CONTINUOUS
 62
7
 10
218.021
 20
157.167
 11
233.021
 21
157.167
  0
LINE
  8
Layer1
  6
CENTER2
 62
7
 10
257.521
 20
164.425
 11
257.521
 21
82.0991
  0
LINE
  8
Layer1
  6
DASHED1
 62
7
 10
325.521
 20
105.167
 11
339.521
 21
105.167
  0
LINE
  8
Layer1
  6
CONTINUOUS
 62
7
 10
465.173
 20
102.167
 11
520.686
 21
102.167
  0
CIRCLE
  8
Layer1
  6
CONTINUOUS
 62
7
 10
257.521
 20
97.6671
 40
4
  0
LINE
  8
Layer1
  6
CENTER1
 62
7
 10
249.651
 20
97.6671
 11
266.083
 21
97.6671
  0
LINE
  8
Layer1
  6
CONTINUOUS
 62
7
 10
574.151
 20
156.367
 11
574.151
 21
88.1671
  0
CIRCLE
  8
Layer1
  6
CONTINUOUS
 62
7
 10
257.521
 20
97.6671
 40
5
  0
LINE
  8
Layer1
  6
CENTER2
 62
7
 10
428.101
 20
372.895
 11
590.512
 21
372.895
  0
CIRCLE
  8
Layer1
  6
CONTINUOUS
 62
7
 10
474.151
 20
447.895
 40
7
  0
CIRCLE
  8
Layer1
  6
CONTINUOUS
 62
7
 10
564.151
 20
447.895
 40
7
  0
CIRCLE
  8
Layer1
  6
CONTINUOUS
 62
7
 10
474.151
 20
297.895
 40
7
  0
CIRCLE
  8
Layer1
  6
CONTINUOUS
 62
7
 10
564.151
 20
297.895
 40
7
  0
CIRCLE
  8
Layer1
  6
CONTINUOUS
 62
7
 10
474.151
 20
447.895
 40
4.5
  0
CIRCLE
  8
Layer1
  6
CONTINUOUS
 62
7
 10
564.151
 20
447.895
 40
4.5
  0
CIRCLE
  8
Layer1
  6
CONTINUOUS
 62
7
 10
474.151
 20
297.895
 40
4.5
  0
CIRCLE
  8
Layer1
  6
CONTINUOUS
 62
7
 10
564.151
 20
297.895
 40
4.5
  0
LINE
  8
Layer1
  6
DASHED1
 62
7
 10
464.173
 20
93.8671
 11
489.173
 21
93.8671
  0
LINE
  8
Layer1
  6
DASHED1
 62
7
 10
465.13
 20
101.867
 11
489.173
 21
101.867
  0
LINE
  8
Layer1
  6
CONTINUOUS
 62
7
 10
465.13
 20
101.867
 11
464.13
 21
102.867
  0
LINE
  8
Layer1
  6
CONTINUOUS
 62
7
 10
464.154
 20
107.167
 11
460.651
 21
107.167
  0
LINE
  8
Layer1
  6
CONTINUOUS
 62
7
 10
322.521
 20
158.167
 11
322.521
 21
171.167
  0
LINE
  8
Layer1
  6
CONTINUOUS
 62
7
 10
192.521
 20
158.167
 11
192.521
 21
171.167
  0
LINE
  8
Layer1
  6
CONTINUOUS
 62
7
 10
218.521
 20
157.167
 11
296.521
 21
157.167
  0
LINE
  8
Layer1
  6
CONTINUOUS
 62
7
 10
321.521
 20
172.167
 11
193.521
 21
172.167
  0
LINE
  8
Layer1
  6
CONTINUOUS
 62
7
 10
273.521
 20
157.167
 11
278.391
 21
157.167
  0
LINE
  8
Layer1
  6
CONTINUOUS
 62
7
 10
241.521
 20
157.167
 11
239.838
 21
157.167
  0
LINE
  8
Layer1
  6
CONTINUOUS
 62
7
 10
282.021
 20
157.167
 11
233.021
 21
157.167
  0
LINE
  8
Layer1
  6
CONTINUOUS
 62
7
 10
321.521
 20
157.167
 11
193.521
 21
157.167
  0
LINE
  8
Layer1
  6
CENTER1
 62
7
 10
211.061
 20
132.167
 11
307.051
 21
132.167
  0
LINE
  8
Layer1
  6
CENTER2
 62
7
 10
257.521
 20
237.034
 11
257.521
 21
164.425
  0
LINE
  8
Layer1
  6
CONTINUOUS
 62
7
 10
465.173
 20
170.367
 11
464.173
 21
169.367
  0
LINE
  8
Layer1
  6
CONTINUOUS
 62
7
 10
465.173
 20
157.167
 11
554.521
 21
157.167
  0
LINE
  8
Layer1
  6
CONTINUOUS
 62
7
 10
508.173
 20
163.167
 11
488.775
 21
163.167
  0
LINE
  8
Layer1
  6
CONTINUOUS
 62
7
 10
531.151
 20
170.367
 11
465.173
 21
170.367
  0
LINE
  8
Layer1
  6
CONTINUOUS
 62
7
 10
510.66
 20
158.167
 11
510.66
 21
161.667
  0
ARC
  8
Layer1
  6
CONTINUOUS
 62
7
 10
509.16
 20
161.667
 40
1.5
 50
2.03555e-013
 51
90
  0
ARC
  8
Layer1
  6
CONTINUOUS
 62
7
 10
511.66
 20
158.167
 40
1
 50
180
 51
270
  0
LINE
  8
Layer1
  6
DASHED1
 62
7
 10
526.176
 20
170.367
 11
526.16
 21
170.351
  0
LINE
  8
Layer1
  6
CONTINUOUS
 62
7
 10
500.66
 20
170.367
 11
500.66
 21
163.167
  0
LINE
  8
Layer1
  6
CONTINUOUS
 62
7
 10
495.66
 20
170.367
 11
495.66
 21
163.167
  0
LINE
  8
Layer1
  6
CONTINUOUS
 62
7
 10
495.118
 20
168.773
 11
495.118
 21
163.167
  0
LINE
  8
Layer1
  6
CONTINUOUS
 62
7
 10
501.16
 20
169.367
 11
501.16
 21
163.167
  0
LINE
  8
Layer1
  6
DASHED1
 62
7
 10
480.173
 20
152.667
 11
480.173
 21
146.667
  0
LINE
  8
Layer1
  6
DASHED1
 62
7
 10
476.63
 20
152.167
 11
483.729
 21
152.167
  0
LINE
  8
Layer1
  6
DASHED1
 62
7
 10
476.63
 20
147.167
 11
483.729
 21
147.167
  0
LINE
  8
Layer1
  6
DASHED1
 62
7
 10
483.729
 20
152.167
 11
483.729
 21
147.167
  0
LINE
  8
Layer1
  6
DASHED1
 62
7
 10
483.729
 20
147.167
 11
483.729
 21
147.487
  0
LINE
  8
Layer1
  6
DASHED1
 62
7
 10
480.173
 20
146.667
 11
480.173
 21
147.792
  0
LINE
  8
Layer1
  6
CONTINUOUS
 62
7
 10
574.151
 20
164.167
 11
574.151
 21
103.167
  0
LINE
  8
Layer1
  6
CENTER1
 62
7
 10
498.151
 20
189.187
 11
498.151
 21
137.923
  0
LINE
  8
Layer1
  6
CENTER1
 62
7
 10
475.651
 20
148.697
 11
475.651
 21
174.51
  0
LINE
  8
Layer1
  6
CENTER1
 62
7
 10
520.651
 20
152.484
 11
520.651
 21
176.008
  0
LINE
  8
Layer1
  6
CONTINUOUS
 62
7
 10
560.294
 20
147.167
 11
571.151
 21
147.167
  0
LINE
  8
Layer1
  6
CONTINUOUS
 62
7
 10
554.521
 20
157.167
 11
574.151
 21
123.167
  0
LINE
  8
Layer1
  6
CONTINUOUS
 62
7
 10
560.294
 20
147.167
 11
533.151
 21
194.181
  0
LINE
  8
Layer1
  6
CONTINUOUS
 62
7
 10
574.151
 20
219.167
 11
574.151
 21
150.167
  0
LINE
  8
Layer1
  6
CONTINUOUS
 62
7
 10
533.151
 20
219.167
 11
533.151
 21
194.181
  0
LINE
  8
Layer1
  6
CONTINUOUS
 62
7
 10
573.151
 20
232.167
 11
534.151
 21
232.167
  0
LINE
  8
Layer1
  6
CONTINUOUS
 62
7
 10
573.151
 20
217.167
 11
534.151
 21
217.167
  0
LINE
  8
Layer1
  6
CONTINUOUS
 62
7
 10
533.151
 20
231.167
 11
534.151
 21
232.167
  0
LINE
  8
Layer1
  6
CONTINUOUS
 62
7
 10
573.151
 20
232.167
 11
574.151
 21
231.167
  0
LINE
  8
Layer1
  6
CONTINUOUS
 62
7
 10
533.151
 20
218.167
 11
533.151
 21
231.167
  0
LINE
  8
Layer1
  6
CONTINUOUS
 62
7
 10
574.151
 20
218.167
 11
574.151
 21
231.167
  0
LINE
  8
Layer1
  6
CONTINUOUS
 62
7
 10
566.151
 20
234.819
 11
566.151
 21
228.556
  0
LINE
  8
Layer1
  6
CONTINUOUS
 62
7
 10
541.151
 20
234.603
 11
541.151
 21
228.664
  0
LINE
  8
Layer1
  6
CENTER2
 62
7
 10
553.651
 20
236.876
 11
553.651
 21
143.447
  0
LINE
  8
Layer1
  6
CONTINUOUS
 62
7
 10
541.151
 20
227.381
 11
541.151
 21
224.465
  0
LINE
  8
Layer1
  6
CONTINUOUS
 62
7
 10
541.151
 20
222.09
 11
541.151
 21
214.64
  0
LINE
  8
Layer1
  6
CONTINUOUS
 62
7
 10
566.151
 20
227.489
 11
566.151
 21
224.465
  0
LINE
  8
Layer1
  6
CONTINUOUS
 62
7
 10
566.151
 20
222.09
 11
566.151
 21
214.856
  0
LINE
  8
Layer1
  6
CONTINUOUS
 62
7
 10
535.551
 20
232.167
 11
546.551
 21
232.167
  0
LINE
  8
Layer1
  6
CONTINUOUS
 62
7
 10
560.551
 20
232.167
 11
571.551
 21
232.167
  0
LINE
  8
Layer1
  6
CONTINUOUS
 62
7
 10
533.051
 20
218.167
 11
534.051
 21
217.167
  0
LINE
  8
Layer1
  6
CONTINUOUS
 62
7
 10
573.151
 20
217.167
 11
574.151
 21
218.167
  0
ARC
  8
Layer1
  6
CONTINUOUS
 62
7
 10
571.151
 20
150.167
 40
3
 50
270
 51
2.03555e-013
  0
ARC
  8
Layer1
  6
CONTINUOUS
 62
7
 10
561.53
 20
149.167
 40
2
 50
210
 51
270
  0
LINE
  8
Layer1
  6
CENTER1
 62
7
 10
553.151
 20
84.3531
 11
553.151
 21
129.777
  0
LINE
  8
Layer1
  6
CONTINUOUS
 62
7
 10
573.151
 20
87.1671
 11
574.151
 21
88.1671
  0
LINE
  8
Layer1
  6
CONTINUOUS
 62
7
 10
574.194
 20
108.167
 11
574.194
 21
127.367
  0
LINE
  8
Layer1
  6
CONTINUOUS
 62
7
 10
559.151
 20
88.3431
 11
559.151
 21
110.343
  0
LINE
  8
Layer1
  6
CONTINUOUS
 62
7
 10
547.151
 20
88.3431
 11
547.151
 21
110.343
  0
LINE
  8
Layer1
  6
CONTINUOUS
 62
7
 10
547.151
 20
110.343
 11
559.151
 21
110.343
  0
LINE
  8
Layer1
  6
CONTINUOUS
 62
7
 10
573.194
 20
107.167
 11
559.151
 21
107.167
  0
LINE
  8
Layer1
  6
CONTINUOUS
 62
7
 10
574.194
 20
108.167
 11
573.194
 21
107.167
  0
LINE
  8
Layer1
  6
DASHED1
 62
7
 10
550.151
 20
100.954
 11
550.151
 21
122.343
  0
LINE
  8
Layer1
  6
DASHED1
 62
7
 10
556.151
 20
111.343
 11
556.151
 21
122.343
  0
LINE
  8
Layer1
  6
DASHED1
 62
7
 10
550.151
 20
122.343
 11
556.151
 21
122.343
  0
LINE
  8
Layer1
  6
DASHED1
 62
7
 10
550.651
 20
100.969
 11
550.651
 21
125.9
  0
LINE
  8
Layer1
  6
DASHED1
 62
7
 10
555.651
 20
101.33
 11
555.651
 21
125.9
  0
LINE
  8
Layer1
  6
CONTINUOUS
 62
7
 10
553.151
 20
127.343
 11
555.651
 21
125.9
  0
LINE
  8
Layer1
  6
CONTINUOUS
 62
7
 10
553.151
 20
127.343
 11
550.651
 21
125.9
  0
LINE
  8
Layer1
  6
DASHED1
 62
7
 10
550.651
 20
125.9
 11
555.651
 21
125.9
  0
LINE
  8
Layer1
  6
CONTINUOUS
 62
7
 10
555.651
 20
125.9
 11
555.331
 21
125.9
  0
LINE
  8
Layer1
  6
CONTINUOUS
 62
7
 10
556.151
 20
122.343
 11
555.026
 21
122.343
  0
LINE
  8
Layer1
  6
CONTINUOUS
 62
7
 10
550.151
 20
122.343
 11
550.151
 21
121.443
  0
LINE
  8
Layer1
  6
DASHED1
 62
7
 10
556.151
 20
122.343
 11
556.151
 21
101.725
  0
LINE
  8
Layer1
  6
CONTINUOUS
 62
7
 10
549.151
 20
110.343
 11
557.151
 21
110.343
  0
LINE
  8
Layer1
  6
CONTINUOUS
 62
7
 10
559.151
 20
88.3431
 11
547.151
 21
88.3431
  0
LINE
  8
Layer1
  6
CENTER1
 62
7
 10
564.151
 20
439.241
 11
564.151
 21
456.606
  0
LINE
  8
Layer1
  6
CENTER1
 62
7
 10
551.916
 20
447.895
 11
575.051
 21
447.895
  0
LINE
  8
Layer1
  6
CENTER1
 62
7
 10
554.595
 20
297.895
 11
572.749
 21
297.895
  0
LINE
  8
Layer1
  6
CENTER1
 62
7
 10
564.151
 20
308.402
 11
564.151
 21
286.302
  0
LINE
  8
Layer1
  6
CONTINUOUS
 62
7
 10
459.651
 20
323.895
 11
459.651
 21
421.895
  0
LINE
  8
Layer1
  6
CENTER1
 62
7
 10
475.651
 20
437.504
 11
475.651
 21
424.165
  0
LINE
  8
Layer1
  6
CENTER1
 62
7
 10
520.651
 20
438.661
 11
520.651
 21
422.874
  0
LINE
  8
Layer1
  6
CENTER1
 62
7
 10
468.293
 20
430.874
 11
484.079
 21
430.874
  0
LINE
  8
Layer1
  6
CENTER1
 62
7
 10
468.293
 20
315.395
 11
482.418
 21
315.395
  0
LINE
  8
Layer1
  6
CONTINUOUS
 62
7
 10
464.151
 20
288.895
 11
464.151
 21
456.895
  0
LINE
  8
Layer1
  6
CONTINUOUS
 62
7
 10
533.151
 20
308.895
 11
533.151
 21
437.895
  0
LINE
  8
Layer1
  6
CENTER1
 62
7
 10
515.098
 20
430.874
 11
528.115
 21
430.874
  0
LINE
  8
Layer1
  6
CENTER1
 62
7
 10
520.651
 20
325.912
 11
520.651
 21
306.803
  0
LINE
  8
Layer1
  6
CENTER1
 62
7
 10
475.651
 20
325.635
 11
475.651
 21
308.188
  0
LINE
  8
Layer1
  6
CENTER1
 62
7
 10
515.652
 20
315.395
 11
529.553
 21
315.395
  0
CIRCLE
  8
Layer1
  6
CONTINUOUS
 62
7
 10
520.651
 20
430.874
 40
5.5
  0
CIRCLE
  8
Layer1
  6
CONTINUOUS
 62
7
 10
475.651
 20
430.874
 40
5.5
  0
CIRCLE
  8
Layer1
  6
CONTINUOUS
 62
7
 10
475.651
 20
315.395
 40
5.5
  0
CIRCLE
  8
Layer1
  6
CONTINUOUS
 62
7
 10
520.651
 20
315.395
 40
5.5
  0
CIRCLE
  8
Layer1
  6
CONTINUOUS
 62
7
 10
520.651
 20
430.874
 40
5
  0
CIRCLE
  8
Layer1
  6
CONTINUOUS
 62
7
 10
475.651
 20
430.874
 40
5
  0
CIRCLE
  8
Layer1
  6
CONTINUOUS
 62
7
 10
475.651
 20
315.395
 40
5
  0
CIRCLE
  8
Layer1
  6
CONTINUOUS
 62
7
 10
520.651
 20
315.395
 40
5
  0
POLYLINE
  8
Layer1
  6
CONTINUOUS
 62
7
 66
1
 10
0
 20
0
 30
0
 70
1
  0
VERTEX
  8
Layer1
 10
520.651
 20
433.734
  0
VERTEX
  8
Layer1
 10
518.174
 20
432.304
  0
VERTEX
  8
Layer1
 10
518.174
 20
429.444
  0
VERTEX
  8
Layer1
 10
520.651
 20
428.014
  0
VERTEX
  8
Layer1
 10
523.128
 20
429.444
  0
VERTEX
  8
Layer1
 10
523.128
 20
432.304
  0
SEQEND
  0
POLYLINE
  8
Layer1
  6
CONTINUOUS
 62
7
 66
1
 10
0
 20
0
 30
0
 70
1
  0
VERTEX
  8
Layer1
 10
475.651
 20
433.734
  0
VERTEX
  8
Layer1
 10
473.174
 20
432.304
  0
VERTEX
  8
Layer1
 10
473.174
 20
429.444
  0
VERTEX
  8
Layer1
 10
475.651
 20
428.014
  0
VERTEX
  8
Layer1
 10
478.128
 20
429.444
  0
VERTEX
  8
Layer1
 10
478.128
 20
432.304
  0
SEQEND
  0
POLYLINE
  8
Layer1
  6
CONTINUOUS
 62
7
 66
1
 10
0
 20
0
 30
0
 70
1
  0
VERTEX
  8
Layer1
 10
520.651
 20
318.255
  0
VERTEX
  8
Layer1
 10
518.174
 20
316.825
  0
VERTEX
  8
Layer1
 10
518.174
 20
313.965
  0
VERTEX
  8
Layer1
 10
520.651
 20
312.535
  0
VERTEX
  8
Layer1
 10
523.128
 20
313.965
  0
VERTEX
  8
Layer1
 10
523.128
 20
316.825
  0
SEQEND
  0
POLYLINE
  8
Layer1
  6
CONTINUOUS
 62
7
 66
1
 10
0
 20
0
 30
0
 70
1
  0
VERTEX
  8
Layer1
 10
475.651
 20
318.255
  0
VERTEX
  8
Layer1
 10
473.174
 20
316.825
  0
VERTEX
  8
Layer1
 10
473.174
 20
313.965
  0
VERTEX
  8
Layer1
 10
475.651
 20
312.535
  0
VERTEX
  8
Layer1
 10
478.128
 20
313.965
  0
VERTEX
  8
Layer1
 10
478.128
 20
316.825
  0
SEQEND
  0
CIRCLE
  8
Layer1
  6
CONTINUOUS
 62
7
 10
520.651
 20
315.395
 40
2.86
  0
CIRCLE
  8
Layer1
  6
CONTINUOUS
 62
7
 10
475.651
 20
315.395
 40
2.86
  0
CIRCLE
  8
Layer1
  6
CONTINUOUS
 62
7
 10
520.651
 20
430.874
 40
2.86
  0
CIRCLE
  8
Layer1
  6
CONTINUOUS
 62
7
 10
475.651
 20
430.874
 40
2.86
  0
LINE
  8
Layer1
  6
CONTINUOUS
 62
7
 10
436.651
 20
421.895
 11
436.651
 21
323.895
  0
LINE
  8
Layer1
  6
CENTER1
 62
7
 10
434.928
 20
415.395
 11
484.164
 21
415.395
  0
LINE
  8
Layer1
  6
DASHED1
 62
7
 10
437.651
 20
411.395
 11
437.651
 21
419.395
  0
LINE
  8
Layer1
  6
DASHED1
 62
7
 10
438.651
 20
420.395
 11
443.651
 21
420.395
  0
LINE
  8
Layer1
  6
DASHED1
 62
7
 10
438.651
 20
410.395
 11
443.651
 21
410.395
  0
LINE
  8
Layer1
  6
DASHED1
 62
7
 10
443.651
 20
420.395
 11
443.651
 21
410.395
  0
LINE
  8
Layer1
  6
DASHED1
 62
7
 10
477.651
 20
418.395
 11
443.651
 21
418.395
  0
LINE
  8
Layer1
  6
DASHED1
 62
7
 10
477.651
 20
412.395
 11
443.651
 21
412.395
  0
LINE
  8
Layer1
  6
DASHED1
 62
7
 10
478.651
 20
413.395
 11
478.651
 21
417.395
  0
LINE
  8
Layer1
  6
DASHED1
 62
7
 10
443.651
 20
417.895
 11
478.151
 21
417.895
  0
LINE
  8
Layer1
  6
DASHED1
 62
7
 10
443.651
 20
412.895
 11
478.151
 21
412.895
  0
LINE
  8
Layer1
  6
DASHED1
 62
7
 10
477.651
 20
418.395
 11
477.651
 21
412.395
  0
LINE
  8
Layer1
  6
DASHED1
 62
7
 10
477.651
 20
418.395
 11
478.651
 21
417.395
  0
LINE
  8
Layer1
  6
DASHED1
 62
7
 10
478.651
 20
413.395
 11
477.651
 21
412.395
  0
LINE
  8
Layer1
  6
DASHED1
 62
7
 10
437.651
 20
419.395
 11
438.651
 21
420.395
  0
LINE
  8
Layer1
  6
DASHED1
 62
7
 10
437.651
 20
411.395
 11
438.651
 21
410.395
  0
LINE
  8
Layer1
  6
DASHED1
 62
7
 10
438.651
 20
420.395
 11
436.651
 21
420.395
  0
LINE
  8
Layer1
  6
DASHED1
 62
7
 10
438.651
 20
410.395
 11
436.651
 21
410.395
  0
LINE
  8
Layer1
  6
CONTINUOUS
 62
7
 10
436.651
 20
108.167
 11
436.651
 21
156.167
  0
LINE
  8
Layer1
  6
CONTINUOUS
 62
7
 10
458.651
 20
107.167
 11
437.651
 21
107.167
  0
LINE
  8
Layer1
  6
CONTINUOUS
 62
7
 10
458.651
 20
157.167
 11
437.651
 21
157.167
  0
LINE
  8
Layer1
  6
CONTINUOUS
 62
7
 10
459.651
 20
156.167
 11
459.651
 21
152.667
  0
LINE
  8
Layer1
  6
CONTINUOUS
 62
7
 10
436.651
 20
156.167
 11
437.651
 21
157.167
  0
LINE
  8
Layer1
  6
CONTINUOUS
 62
7
 10
436.651
 20
108.167
 11
437.651
 21
107.167
  0
LINE
  8
Layer1
  6
CONTINUOUS
 62
7
 10
458.651
 20
107.167
 11
459.651
 21
108.167
  0
LINE
  8
Layer1
  6
CONTINUOUS
 62
7
 10
459.651
 20
108.167
 11
460.651
 21
107.167
  0
LINE
  8
Layer1
  6
CONTINUOUS
 62
7
 10
458.651
 20
157.167
 11
459.651
 21
156.167
  0
LINE
  8
Layer1
  6
CONTINUOUS
 62
7
 10
459.651
 20
156.167
 11
460.651
 21
157.167
  0
LINE
  8
Layer1
  6
CENTER1
 62
7
 10
491.261
 20
149.667
 11
430.763
 21
149.667
  0
LINE
  8
Layer1
  6
CENTER1
 62
7
 10
487.708
 20
114.667
 11
431.731
 21
114.667
  0
LINE
  8
Layer1
  6
DASHED1
 62
7
 10
483.729
 20
152.167
 11
485.173
 21
149.667
  0
LINE
  8
Layer1
  6
DASHED1
 62
7
 10
485.173
 20
149.667
 11
483.729
 21
147.167
  0
LINE
  8
Layer1
  6
CONTINUOUS
 62
7
 10
437.651
 20
145.667
 11
437.651
 21
153.667
  0
LINE
  8
Layer1
  6
CONTINUOUS
 62
7
 10
438.651
 20
154.667
 11
443.651
 21
154.667
  0
LINE
  8
Layer1
  6
CONTINUOUS
 62
7
 10
438.651
 20
144.667
 11
443.651
 21
144.667
  0
LINE
  8
Layer1
  6
CONTINUOUS
 62
7
 10
443.651
 20
155.167
 11
443.651
 21
144.167
  0
LINE
  8
Layer1
  6
DASHED1
 62
7
 10
476.63
 20
152.667
 11
462.38
 21
152.667
  0
LINE
  8
Layer1
  6
DASHED1
 62
7
 10
476.63
 20
146.667
 11
461.688
 21
146.667
  0
LINE
  8
Layer1
  6
DASHED1
 62
7
 10
477.63
 20
147.667
 11
477.63
 21
151.667
  0
LINE
  8
Layer1
  6
CONTINUOUS
 62
7
 10
443.651
 20
152.167
 11
465.19
 21
152.167
  0
LINE
  8
Layer1
  6
CONTINUOUS
 62
7
 10
443.651
 20
147.167
 11
462.959
 21
147.167
  0
LINE
  8
Layer1
  6
DASHED1
 62
7
 10
476.63
 20
152.667
 11
476.63
 21
146.667
  0
LINE
  8
Layer1
  6
DASHED1
 62
7
 10
476.63
 20
152.667
 11
477.63
 21
151.667
  0
LINE
  8
Layer1
  6
DASHED1
 62
7
 10
477.63
 20
147.667
 11
476.63
 21
146.667
  0
LINE
  8
Layer1
  6
CONTINUOUS
 62
7
 10
437.651
 20
145.667
 11
438.651
 21
144.667
  0
LINE
  8
Layer1
  6
CONTINUOUS
 62
7
 10
443.651
 20
155.167
 11
436.651
 21
155.167
  0
LINE
  8
Layer1
  6
CONTINUOUS
 62
7
 10
443.651
 20
144.167
 11
436.651
 21
144.167
  0
LINE
  8
Layer1
  6
DASHED1
 62
7
 10
480.173
 20
152.667
 11
476.63
 21
152.667
  0
LINE
  8
Layer1
  6
DASHED1
 62
7
 10
480.173
 20
146.667
 11
476.63
 21
146.667
  0
LINE
  8
Layer1
  6
DASHED1
 62
7
 10
480.173
 20
152.667
 11
481.039
 21
152.167
  0
LINE
  8
Layer1
  6
DASHED1
 62
7
 10
480.173
 20
146.667
 11
481.039
 21
147.167
  0
LINE
  8
Layer1
  6
DASHED1
 62
7
 10
481.039
 20
152.167
 11
481.039
 21
147.167
  0
LINE
  8
Layer1
  6
CONTINUOUS
 62
7
 10
438.651
 20
154.667
 11
438.651
 21
144.667
  0
LINE
  8
Layer1
  6
CONTINUOUS
 62
7
 10
464.173
 20
88.1671
 11
465.173
 21
87.1671
  0
LINE
  8
Layer1
  6
CENTER1
 62
7
 10
477.921
 20
91.1261
 11
522.596
 21
91.1261
  0
LINE
  8
Layer1
  6
PHANTOM1
 62
7
 10
547.151
 20
88.8671
 11
547.151
 21
93.3671
  0
LINE
  8
Layer1
  6
CONTINUOUS
 62
7
 10
547.151
 20
106.867
 11
547.151
 21
88.8671
  0
LINE
  8
Layer1
  6
DASHED1
 62
7
 10
532.855
 20
88.8671
 11
535.174
 21
88.8671
  0
LINE
  8
Layer1
  6
CONTINUOUS
 62
7
 10
547.151
 20
106.867
 11
545.219
 21
106.867
  0
LINE
  8
Layer1
  6
DASHED1
 62
7
 10
531.31
 20
102.373
 11
533.628
 21
102.373
  0
LINE
  8
Layer1
  6
DASHED1
 62
7
 10
532.855
 20
93.3851
 11
535.174
 21
93.3851
  0
LINE
  8
Layer1
  6
DASHED1
 62
7
 10
533.628
 20
106.867
 11
533.628
 21
102.373
  0
LINE
  8
Layer1
  6
DASHED1
 62
7
 10
531.31
 20
106.867
 11
531.31
 21
102.373
  0
LINE
  8
Layer1
  6
DASHED1
 62
7
 10
532.855
 20
93.3851
 11
532.855
 21
88.8671
  0
LINE
  8
Layer1
  6
DASHED1
 62
7
 10
535.174
 20
93.3851
 11
535.174
 21
88.8671
  0
LINE
  8
Layer1
  6
DASHED1
 62
7
 10
531.31
 20
102.373
 11
532.855
 21
93.3851
  0
LINE
  8
Layer1
  6
DASHED1
 62
7
 10
533.628
 20
102.373
 11
535.174
 21
93.3851
  0
LINE
  8
Layer1
  6
DASHED1
 62
7
 10
532.083
 20
97.8791
 11
532.855
 21
88.8671
  0
LINE
  8
Layer1
  6
DASHED1
 62
7
 10
533.821
 20
106.867
 11
534.401
 21
97.8791
  0
LINE
  8
Layer1
  6
CONTINUOUS
 62
7
 10
537.492
 20
88.8671
 11
539.81
 21
88.8671
  0
LINE
  8
Layer1
  6
CONTINUOUS
 62
7
 10
538.264
 20
106.867
 11
535.946
 21
106.867
  0
LINE
  8
Layer1
  6
CONTINUOUS
 62
7
 10
535.946
 20
102.373
 11
538.264
 21
102.373
  0
LINE
  8
Layer1
  6
CONTINUOUS
 62
7
 10
537.492
 20
93.3851
 11
539.81
 21
93.3851
  0
LINE
  8
Layer1
  6
CONTINUOUS
 62
7
 10
538.264
 20
106.867
 11
538.264
 21
102.373
  0
LINE
  8
Layer1
  6
CONTINUOUS
 62
7
 10
535.946
 20
106.867
 11
535.946
 21
102.373
  0
LINE
  8
Layer1
  6
CONTINUOUS
 62
7
 10
537.492
 20
93.3851
 11
537.492
 21
88.8671
  0
LINE
  8
Layer1
  6
CONTINUOUS
 62
7
 10
539.81
 20
93.3851
 11
539.81
 21
88.8671
  0
LINE
  8
Layer1
  6
CONTINUOUS
 62
7
 10
535.946
 20
102.373
 11
537.492
 21
93.3851
  0
LINE
  8
Layer1
  6
CONTINUOUS
 62
7
 10
538.264
 20
102.373
 11
539.81
 21
93.3851
  0
LINE
  8
Layer1
  6
CONTINUOUS
 62
7
 10
536.719
 20
97.8791
 11
537.492
 21
88.8671
  0
LINE
  8
Layer1
  6
CONTINUOUS
 62
7
 10
538.458
 20
106.867
 11
539.037
 21
97.8791
  0
LINE
  8
Layer1
  6
CONTINUOUS
 62
7
 10
542.128
 20
88.8671
 11
544.446
 21
88.8671
  0
LINE
  8
Layer1
  6
CONTINUOUS
 62
7
 10
542.901
 20
106.867
 11
540.583
 21
106.867
  0
LINE
  8
Layer1
  6
CONTINUOUS
 62
7
 10
540.583
 20
102.373
 11
542.901
 21
102.373
  0
LINE
  8
Layer1
  6
CONTINUOUS
 62
7
 10
542.128
 20
93.3851
 11
544.446
 21
93.3851
  0
LINE
  8
Layer1
  6
CONTINUOUS
 62
7
 10
542.901
 20
106.867
 11
542.901
 21
102.373
  0
LINE
  8
Layer1
  6
CONTINUOUS
 62
7
 10
540.583
 20
106.867
 11
540.583
 21
102.373
  0
LINE
  8
Layer1
  6
CONTINUOUS
 62
7
 10
542.128
 20
93.3851
 11
542.128
 21
88.8671
  0
LINE
  8
Layer1
  6
CONTINUOUS
 62
7
 10
544.446
 20
93.3851
 11
544.446
 21
88.8671
  0
LINE
  8
Layer1
  6
CONTINUOUS
 62
7
 10
540.583
 20
102.373
 11
542.128
 21
93.3851
  0
LINE
  8
Layer1
  6
CONTINUOUS
 62
7
 10
542.901
 20
102.373
 11
544.446
 21
93.3851
  0
LINE
  8
Layer1
  6
CONTINUOUS
 62
7
 10
541.355
 20
97.8791
 11
542.128
 21
88.8671
  0
LINE
  8
Layer1
  6
CONTINUOUS
 62
7
 10
543.094
 20
106.867
 11
543.674
 21
97.8791
  0
LINE
  8
Layer1
  6
CONTINUOUS
 62
7
 10
546.764
 20
88.8671
 11
547.151
 21
88.8671
  0
LINE
  8
Layer1
  6
CONTINUOUS
 62
7
 10
545.219
 20
102.373
 11
547.151
 21
102.367
  0
LINE
  8
Layer1
  6
CONTINUOUS
 62
7
 10
546.764
 20
93.3851
 11
547.151
 21
93.3671
  0
LINE
  8
Layer1
  6
CONTINUOUS
 62
7
 10
545.219
 20
106.867
 11
545.219
 21
102.373
  0
LINE
  8
Layer1
  6
CONTINUOUS
 62
7
 10
546.764
 20
93.3851
 11
546.764
 21
88.8671
  0
LINE
  8
Layer1
  6
CONTINUOUS
 62
7
 10
545.219
 20
102.373
 11
546.764
 21
93.3851
  0
LINE
  8
Layer1
  6
CONTINUOUS
 62
7
 10
545.992
 20
97.8791
 11
546.764
 21
88.8671
  0
LINE
  8
Layer1
  6
DASHED1
 62
7
 10
533.628
 20
106.867
 11
531.31
 21
106.867
  0
LINE
  8
Layer1
  6
DASHED1
 62
7
 10
528.992
 20
106.867
 11
526.674
 21
106.867
  0
LINE
  8
Layer1
  6
DASHED1
 62
7
 10
524.355
 20
106.867
 11
522.037
 21
106.867
  0
LINE
  8
Layer1
  6
DASHED1
 62
7
 10
523.583
 20
88.8671
 11
525.901
 21
88.8671
  0
LINE
  8
Layer1
  6
CONTINUOUS
 62
7
 10
521.596
 20
107.167
 11
547.151
 21
107.167
  0
POLYLINE
  8
Layer1
  6
CONTINUOUS
 62
7
 66
1
 10
0
 20
0
 30
0
  0
VERTEX
  8
Layer1
 10
493.652
 20
157.167
  0
VERTEX
  8
Layer1
 10
494.162
 20
156.818
  0
VERTEX
  8
Layer1
 10
494.965
 20
156.266
  0
VERTEX
  8
Layer1
 10
495.744
 20
155.701
  0
VERTEX
  8
Layer1
 10
496.476
 20
155.111
  0
VERTEX
  8
Layer1
 10
497.142
 20
154.483
  0
VERTEX
  8
Layer1
 10
497.719
 20
153.802
  0
VERTEX
  8
Layer1
 10
498.192
 20
153.058
  0
VERTEX
  8
Layer1
 10
498.568
 20
152.255
  0
VERTEX
  8
Layer1
 10
498.863
 20
151.403
  0
VERTEX
  8
Layer1
 10
499.091
 20
150.508
  0
VERTEX
  8
Layer1
 10
499.267
 20
149.581
  0
VERTEX
  8
Layer1
 10
499.408
 20
148.63
  0
VERTEX
  8
Layer1
 10
499.527
 20
147.663
  0
VERTEX
  8
Layer1
 10
499.64
 20
146.689
  0
VERTEX
  8
Layer1
 10
499.762
 20
145.716
  0
VERTEX
  8
Layer1
 10
499.908
 20
144.754
  0
VERTEX
  8
Layer1
 10
500.094
 20
143.811
  0
VERTEX
  8
Layer1
 10
500.327
 20
142.891
  0
VERTEX
  8
Layer1
 10
500.607
 20
141.994
  0
VERTEX
  8
Layer1
 10
500.93
 20
141.119
  0
VERTEX
  8
Layer1
 10
501.295
 20
140.264
  0
VERTEX
  8
Layer1
 10
501.698
 20
139.429
  0
VERTEX
  8
Layer1
 10
502.139
 20
138.612
  0
VERTEX
  8
Layer1
 10
502.614
 20
137.813
  0
VERTEX
  8
Layer1
 10
503.12
 20
137.029
  0
VERTEX
  8
Layer1
 10
503.657
 20
136.26
  0
VERTEX
  8
Layer1
 10
504.221
 20
135.506
  0
VERTEX
  8
Layer1
 10
504.809
 20
134.763
  0
VERTEX
  8
Layer1
 10
505.421
 20
134.032
  0
VERTEX
  8
Layer1
 10
506.052
 20
133.312
  0
VERTEX
  8
Layer1
 10
506.702
 20
132.6
  0
VERTEX
  8
Layer1
 10
507.367
 20
131.896
  0
VERTEX
  8
Layer1
 10
508.045
 20
131.2
  0
VERTEX
  8
Layer1
 10
508.734
 20
130.509
  0
VERTEX
  8
Layer1
 10
509.432
 20
129.822
  0
VERTEX
  8
Layer1
 10
510.136
 20
129.139
  0
VERTEX
  8
Layer1
 10
510.843
 20
128.458
  0
VERTEX
  8
Layer1
 10
511.552
 20
127.778
  0
VERTEX
  8
Layer1
 10
512.26
 20
127.098
  0
VERTEX
  8
Layer1
 10
512.965
 20
126.417
  0
VERTEX
  8
Layer1
 10
513.664
 20
125.733
  0
VERTEX
  8
Layer1
 10
514.354
 20
125.045
  0
VERTEX
  8
Layer1
 10
515.029
 20
124.349
  0
VERTEX
  8
Layer1
 10
515.685
 20
123.645
  0
VERTEX
  8
Layer1
 10
516.318
 20
122.929
  0
VERTEX
  8
Layer1
 10
516.922
 20
122.199
  0
VERTEX
  8
Layer1
 10
517.493
 20
121.452
  0
VERTEX
  8
Layer1
 10
518.027
 20
120.687
  0
VERTEX
  8
Layer1
 10
518.519
 20
119.9
  0
VERTEX
  8
Layer1
 10
518.964
 20
119.089
  0
VERTEX
  8
Layer1
 10
519.357
 20
118.252
  0
VERTEX
  8
Layer1
 10
519.695
 20
117.387
  0
VERTEX
  8
Layer1
 10
519.978
 20
116.495
  0
VERTEX
  8
Layer1
 10
520.211
 20
115.578
  0
VERTEX
  8
Layer1
 10
520.4
 20
114.639
  0
VERTEX
  8
Layer1
 10
520.549
 20
113.681
  0
VERTEX
  8
Layer1
 10
520.663
 20
112.707
  0
VERTEX
  8
Layer1
 10
520.746
 20
111.72
  0
VERTEX
  8
Layer1
 10
520.805
 20
110.723
  0
VERTEX
  8
Layer1
 10
520.842
 20
109.719
  0
VERTEX
  8
Layer1
 10
520.865
 20
108.709
  0
VERTEX
  8
Layer1
 10
520.876
 20
107.699
  0
VERTEX
  8
Layer1
 10
520.882
 20
106.689
  0
VERTEX
  8
Layer1
 10
520.887
 20
105.683
  0
VERTEX
  8
Layer1
 10
520.896
 20
104.685
  0
VERTEX
  8
Layer1
 10
520.914
 20
103.696
  0
VERTEX
  8
Layer1
 10
520.945
 20
102.72
  0
VERTEX
  8
Layer1
 10
520.996
 20
101.759
  0
VERTEX
  8
Layer1
 10
521.069
 20
100.817
  0
VERTEX
  8
Layer1
 10
521.171
 20
99.8961
  0
VERTEX
  8
Layer1
 10
521.306
 20
98.9991
  0
VERTEX
  8
Layer1
 10
521.479
 20
98.1291
  0
VERTEX
  8
Layer1
 10
521.695
 20
97.2891
  0
VERTEX
  8
Layer1
 10
521.959
 20
96.4821
  0
VERTEX
  8
Layer1
 10
522.276
 20
95.7111
  0
VERTEX
  8
Layer1
 10
522.65
 20
94.9771
  0
VERTEX
  8
Layer1
 10
523.087
 20
94.2861
  0
VERTEX
  8
Layer1
 10
523.589
 20
93.6371
  0
VERTEX
  8
Layer1
 10
524.155
 20
93.0311
  0
VERTEX
  8
Layer1
 10
524.781
 20
92.4631
  0
VERTEX
  8
Layer1
 10
525.463
 20
91.9321
  0
VERTEX
  8
Layer1
 10
526.196
 20
91.4351
  0
VERTEX
  8
Layer1
 10
526.977
 20
90.9691
  0
VERTEX
  8
Layer1
 10
527.801
 20
90.5321
  0
VERTEX
  8
Layer1
 10
528.666
 20
90.1221
  0
VERTEX
  8
Layer1
 10
529.566
 20
89.7341
  0
VERTEX
  8
Layer1
 10
530.498
 20
89.3681
  0
VERTEX
  8
Layer1
 10
531.457
 20
89.0191
  0
VERTEX
  8
Layer1
 10
532.441
 20
88.6871
  0
VERTEX
  8
Layer1
 10
533.444
 20
88.3671
  0
VERTEX
  8
Layer1
 10
534.464
 20
88.0581
  0
VERTEX
  8
Layer1
 10
535.495
 20
87.7571
  0
VERTEX
  8
Layer1
 10
536.534
 20
87.4601
  0
VERTEX
  8
Layer1
 10
537.577
 20
87.1671
  0
SEQEND
  0
LINE
  8
Layer1
  6
CONTINUOUS
 62
7
 10
464.173
 20
158.167
 11
465.173
 21
157.167
  0
LINE
  8
Layer1
  6
CONTINUOUS
 62
7
 10
464.173
 20
101.167
 11
465.173
 21
102.167
  0
LINE
  8
Layer1
  6
CENTER1
 62
7
 10
521.05
 20
104.62
 11
478.27
 21
104.62
  0
LINE
  8
Layer1
  6
DASHED1
 62
7
 10
489.173
 20
93.8671
 11
489.173
 21
101.867
  0
LINE
  8
Layer1
  6
CENTER1
 62
7
 10
491.59
 20
97.8671
 11
462.261
 21
97.8671
  0
LINE
  8
Layer1
  6
DASHED1
 62
7
 10
481.105
 20
88.8671
 11
483.407
 21
88.8671
  0
LINE
  8
Layer1
  6
DASHED1
 62
7
 10
481.873
 20
106.867
 11
479.571
 21
106.867
  0
LINE
  8
Layer1
  6
DASHED1
 62
7
 10
479.571
 20
102.373
 11
481.873
 21
102.373
  0
LINE
  8
Layer1
  6
DASHED1
 62
7
 10
481.105
 20
93.3851
 11
483.407
 21
93.3851
  0
LINE
  8
Layer1
  6
DASHED1
 62
7
 10
481.873
 20
106.867
 11
481.873
 21
102.373
  0
LINE
  8
Layer1
  6
DASHED1
 62
7
 10
479.571
 20
106.867
 11
479.571
 21
102.373
  0
LINE
  8
Layer1
  6
DASHED1
 62
7
 10
481.105
 20
93.3851
 11
481.105
 21
88.8671
  0
LINE
  8
Layer1
  6
DASHED1
 62
7
 10
483.407
 20
93.3851
 11
483.407
 21
88.8671
  0
LINE
  8
Layer1
  6
DASHED1
 62
7
 10
479.571
 20
102.373
 11
481.105
 21
93.3851
  0
LINE
  8
Layer1
  6
DASHED1
 62
7
 10
481.873
 20
102.373
 11
483.407
 21
93.3851
  0
LINE
  8
Layer1
  6
DASHED1
 62
7
 10
480.338
 20
97.8791
 11
481.105
 21
88.8671
  0
LINE
  8
Layer1
  6
DASHED1
 62
7
 10
482.064
 20
106.867
 11
482.64
 21
97.8791
  0
LINE
  8
Layer1
  6
DASHED1
 62
7
 10
479.379
 20
88.8671
 11
480.53
 21
88.8671
  0
LINE
  8
Layer1
  6
DASHED1
 62
7
 10
480.53
 20
93.3611
 11
479.379
 21
93.3611
  0
LINE
  8
Layer1
  6
DASHED1
 62
7
 10
480.53
 20
88.8671
 11
480.53
 21
93.3611
  0
LINE
  8
Layer1
  6
DASHED1
 62
7
 10
480.53
 20
93.3611
 11
479.763
 21
97.8551
  0
LINE
  8
Layer1
  6
DASHED1
 62
7
 10
479.379
 20
88.8671
 11
479.379
 21
97.8551
  0
LINE
  8
Layer1
  6
DASHED1
 62
7
 10
479.763
 20
97.8551
 11
479.379
 21
97.8551
  0
LINE
  8
Layer1
  6
CONTINUOUS
 62
7
 10
524.355
 20
106.867
 11
522.037
 21
106.867
  0
LINE
  8
Layer1
  6
CONTINUOUS
 62
7
 10
522.037
 20
102.373
 11
524.355
 21
102.373
  0
LINE
  8
Layer1
  6
CONTINUOUS
 62
7
 10
523.583
 20
93.3851
 11
525.901
 21
93.3851
  0
LINE
  8
Layer1
  6
CONTINUOUS
 62
7
 10
524.355
 20
106.867
 11
524.355
 21
102.373
  0
LINE
  8
Layer1
  6
CONTINUOUS
 62
7
 10
522.037
 20
106.867
 11
522.037
 21
102.373
  0
LINE
  8
Layer1
  6
DASHED1
 62
7
 10
523.583
 20
93.3851
 11
523.583
 21
88.8671
  0
LINE
  8
Layer1
  6
DASHED1
 62
7
 10
525.901
 20
91.9001
 11
525.901
 21
88.8671
  0
LINE
  8
Layer1
  6
CONTINUOUS
 62
7
 10
522.037
 20
102.373
 11
523.354
 21
94.7171
  0
LINE
  8
Layer1
  6
CONTINUOUS
 62
7
 10
524.355
 20
102.373
 11
525.901
 21
93.3851
  0
LINE
  8
Layer1
  6
DASHED1
 62
7
 10
523.027
 20
95.3481
 11
523.583
 21
88.8671
  0
LINE
  8
Layer1
  6
CONTINUOUS
 62
7
 10
524.549
 20
106.867
 11
525.128
 21
97.8791
  0
LINE
  8
Layer1
  6
DASHED1
 62
7
 10
528.219
 20
88.8671
 11
530.537
 21
88.8671
  0
LINE
  8
Layer1
  6
CONTINUOUS
 62
7
 10
532.855
 20
88.8671
 11
535.174
 21
88.8671
  0
LINE
  8
Layer1
  6
CONTINUOUS
 62
7
 10
533.628
 20
106.867
 11
531.31
 21
106.867
  0
LINE
  8
Layer1
  6
CONTINUOUS
 62
7
 10
531.31
 20
102.373
 11
533.628
 21
102.373
  0
LINE
  8
Layer1
  6
CONTINUOUS
 62
7
 10
532.855
 20
93.3851
 11
535.174
 21
93.3851
  0
LINE
  8
Layer1
  6
CONTINUOUS
 62
7
 10
533.628
 20
106.867
 11
533.628
 21
102.373
  0
LINE
  8
Layer1
  6
CONTINUOUS
 62
7
 10
531.31
 20
106.867
 11
531.31
 21
102.373
  0
LINE
  8
Layer1
  6
CONTINUOUS
 62
7
 10
532.855
 20
93.3851
 11
532.855
 21
88.8671
  0
LINE
  8
Layer1
  6
CONTINUOUS
 62
7
 10
535.174
 20
93.3851
 11
535.174
 21
88.8671
  0
LINE
  8
Layer1
  6
CONTINUOUS
 62
7
 10
531.31
 20
102.373
 11
532.855
 21
93.3851
  0
LINE
  8
Layer1
  6
CONTINUOUS
 62
7
 10
533.628
 20
102.373
 11
535.174
 21
93.3851
  0
LINE
  8
Layer1
  6
CONTINUOUS
 62
7
 10
532.083
 20
97.8791
 11
532.855
 21
88.8671
  0
LINE
  8
Layer1
  6
CONTINUOUS
 62
7
 10
533.821
 20
106.867
 11
534.401
 21
97.8791
  0
LINE
  8
Layer1
  6
CONTINUOUS
 62
7
 10
525.901
 20
91.9001
 11
525.901
 21
93.3851
  0
LINE
  8
Layer1
  6
CONTINUOUS
 62
7
 10
523.027
 20
95.3481
 11
522.81
 21
97.8791
  0
LINE
  8
Layer1
  6
CONTINUOUS
 62
7
 10
523.354
 20
94.7171
 11
523.583
 21
93.3851
  0
LINE
  8
Layer1
  6
CONTINUOUS
 62
7
 10
528.992
 20
106.867
 11
526.674
 21
106.867
  0
LINE
  8
Layer1
  6
CONTINUOUS
 62
7
 10
526.674
 20
102.373
 11
528.992
 21
102.373
  0
LINE
  8
Layer1
  6
CONTINUOUS
 62
7
 10
528.219
 20
93.3851
 11
530.537
 21
93.3851
  0
LINE
  8
Layer1
  6
CONTINUOUS
 62
7
 10
528.992
 20
106.867
 11
528.992
 21
102.373
  0
LINE
  8
Layer1
  6
CONTINUOUS
 62
7
 10
526.674
 20
106.867
 11
526.674
 21
102.373
  0
LINE
  8
Layer1
  6
CONTINUOUS
 62
7
 10
528.219
 20
93.3851
 11
528.219
 21
90.4641
  0
LINE
  8
Layer1
  6
CONTINUOUS
 62
7
 10
530.537
 20
93.3851
 11
530.537
 21
89.4291
  0
LINE
  8
Layer1
  6
CONTINUOUS
 62
7
 10
526.674
 20
102.373
 11
528.219
 21
93.3851
  0
LINE
  8
Layer1
  6
CONTINUOUS
 62
7
 10
528.992
 20
102.373
 11
530.537
 21
93.3851
  0
LINE
  8
Layer1
  6
CONTINUOUS
 62
7
 10
527.446
 20
97.8791
 11
528.075
 21
90.5421
  0
LINE
  8
Layer1
  6
CONTINUOUS
 62
7
 10
529.185
 20
106.867
 11
529.764
 21
97.8791
  0
LINE
  8
Layer1
  6
DASHED1
 62
7
 10
528.219
 20
88.8671
 11
528.047
 21
90.8771
  0
LINE
  8
Layer1
  6
DASHED1
 62
7
 10
528.219
 20
90.4641
 11
528.219
 21
88.8671
  0
LINE
  8
Layer1
  6
CONTINUOUS
 62
7
 10
530.537
 20
89.4291
 11
530.537
 21
88.8671
  0
LINE
  8
Layer1
  6
CONTINUOUS
 62
7
 10
464.194
 20
157.167
 11
460.651
 21
157.167
  0
POLYLINE
  8
Layer1
  6
CONTINUOUS
 62
7
 66
1
 10
0
 20
0
 30
0
  0
VERTEX
  8
Layer1
 10
463.264
 20
157.167
  0
VERTEX
  8
Layer1
 10
463.273
 20
156.839
  0
VERTEX
  8
Layer1
 10
463.282
 20
156.511
  0
VERTEX
  8
Layer1
 10
463.291
 20
156.181
  0
VERTEX
  8
Layer1
 10
463.301
 20
155.85
  0
VERTEX
  8
Layer1
 10
463.31
 20
155.518
  0
VERTEX
  8
Layer1
 10
463.32
 20
155.183
  0
VERTEX
  8
Layer1
 10
463.33
 20
154.844
  0
VERTEX
  8
Layer1
 10
463.341
 20
154.503
  0
VERTEX
  8
Layer1
 10
463.351
 20
154.158
  0
VERTEX
  8
Layer1
 10
463.363
 20
153.808
  0
VERTEX
  8
Layer1
 10
463.374
 20
153.453
  0
VERTEX
  8
Layer1
 10
463.386
 20
153.093
  0
VERTEX
  8
Layer1
 10
463.398
 20
152.727
  0
VERTEX
  8
Layer1
 10
463.412
 20
152.355
  0
VERTEX
  8
Layer1
 10
463.425
 20
151.977
  0
VERTEX
  8
Layer1
 10
463.437
 20
151.593
  0
VERTEX
  8
Layer1
 10
463.447
 20
151.207
  0
VERTEX
  8
Layer1
 10
463.453
 20
150.819
  0
VERTEX
  8
Layer1
 10
463.453
 20
150.431
  0
VERTEX
  8
Layer1
 10
463.447
 20
150.045
  0
VERTEX
  8
Layer1
 10
463.433
 20
149.663
  0
VERTEX
  8
Layer1
 10
463.409
 20
149.286
  0
VERTEX
  8
Layer1
 10
463.374
 20
148.916
  0
VERTEX
  8
Layer1
 10
463.327
 20
148.554
  0
VERTEX
  8
Layer1
 10
463.266
 20
148.202
  0
VERTEX
  8
Layer1
 10
463.189
 20
147.863
  0
VERTEX
  8
Layer1
 10
463.096
 20
147.536
  0
VERTEX
  8
Layer1
 10
462.985
 20
147.225
  0
VERTEX
  8
Layer1
 10
462.855
 20
146.931
  0
VERTEX
  8
Layer1
 10
462.703
 20
146.655
  0
VERTEX
  8
Layer1
 10
462.529
 20
146.4
  0
VERTEX
  8
Layer1
 10
462.332
 20
146.166
  0
VERTEX
  8
Layer1
 10
462.109
 20
145.956
  0
VERTEX
  8
Layer1
 10
461.861
 20
145.771
  0
VERTEX
  8
Layer1
 10
461.589
 20
145.606
  0
VERTEX
  8
Layer1
 10
461.297
 20
145.46
  0
VERTEX
  8
Layer1
 10
460.988
 20
145.327
  0
VERTEX
  8
Layer1
 10
460.666
 20
145.203
  0
VERTEX
  8
Layer1
 10
460.334
 20
145.084
  0
VERTEX
  8
Layer1
 10
459.996
 20
144.967
  0
VERTEX
  8
Layer1
 10
459.655
 20
144.848
  0
VERTEX
  8
Layer1
 10
459.315
 20
144.721
  0
VERTEX
  8
Layer1
 10
458.978
 20
144.584
  0
VERTEX
  8
Layer1
 10
458.649
 20
144.432
  0
VERTEX
  8
Layer1
 10
458.329
 20
144.264
  0
VERTEX
  8
Layer1
 10
458.018
 20
144.081
  0
VERTEX
  8
Layer1
 10
457.714
 20
143.886
  0
VERTEX
  8
Layer1
 10
457.416
 20
143.682
  0
VERTEX
  8
Layer1
 10
457.125
 20
143.471
  0
VERTEX
  8
Layer1
 10
456.837
 20
143.255
  0
VERTEX
  8
Layer1
 10
456.554
 20
143.037
  0
VERTEX
  8
Layer1
 10
456.273
 20
142.819
  0
VERTEX
  8
Layer1
 10
455.993
 20
142.605
  0
VERTEX
  8
Layer1
 10
455.714
 20
142.396
  0
VERTEX
  8
Layer1
 10
455.435
 20
142.195
  0
VERTEX
  8
Layer1
 10
455.154
 20
142.005
  0
VERTEX
  8
Layer1
 10
454.871
 20
141.827
  0
VERTEX
  8
Layer1
 10
454.585
 20
141.665
  0
VERTEX
  8
Layer1
 10
454.294
 20
141.521
  0
VERTEX
  8
Layer1
 10
453.998
 20
141.397
  0
VERTEX
  8
Layer1
 10
453.695
 20
141.297
  0
VERTEX
  8
Layer1
 10
453.385
 20
141.222
  0
VERTEX
  8
Layer1
 10
453.067
 20
141.172
  0
VERTEX
  8
Layer1
 10
452.742
 20
141.146
  0
VERTEX
  8
Layer1
 10
452.411
 20
141.141
  0
VERTEX
  8
Layer1
 10
452.075
 20
141.152
  0
VERTEX
  8
Layer1
 10
451.733
 20
141.178
  0
VERTEX
  8
Layer1
 10
451.388
 20
141.214
  0
VERTEX
  8
Layer1
 10
451.039
 20
141.259
  0
VERTEX
  8
Layer1
 10
450.689
 20
141.309
  0
VERTEX
  8
Layer1
 10
450.336
 20
141.36
  0
VERTEX
  8
Layer1
 10
449.983
 20
141.411
  0
VERTEX
  8
Layer1
 10
449.629
 20
141.457
  0
VERTEX
  8
Layer1
 10
449.277
 20
141.497
  0
VERTEX
  8
Layer1
 10
448.925
 20
141.526
  0
VERTEX
  8
Layer1
 10
448.576
 20
141.542
  0
VERTEX
  8
Layer1
 10
448.231
 20
141.542
  0
VERTEX
  8
Layer1
 10
447.888
 20
141.522
  0
VERTEX
  8
Layer1
 10
447.55
 20
141.483
  0
VERTEX
  8
Layer1
 10
447.216
 20
141.426
  0
VERTEX
  8
Layer1
 10
446.885
 20
141.352
  0
VERTEX
  8
Layer1
 10
446.556
 20
141.264
  0
VERTEX
  8
Layer1
 10
446.231
 20
141.162
  0
VERTEX
  8
Layer1
 10
445.907
 20
141.049
  0
VERTEX
  8
Layer1
 10
445.586
 20
140.925
  0
VERTEX
  8
Layer1
 10
445.266
 20
140.794
  0
VERTEX
  8
Layer1
 10
444.947
 20
140.655
  0
VERTEX
  8
Layer1
 10
444.63
 20
140.512
  0
VERTEX
  8
Layer1
 10
444.313
 20
140.365
  0
VERTEX
  8
Layer1
 10
443.996
 20
140.217
  0
VERTEX
  8
Layer1
 10
443.679
 20
140.068
  0
VERTEX
  8
Layer1
 10
443.361
 20
139.921
  0
VERTEX
  8
Layer1
 10
443.043
 20
139.777
  0
VERTEX
  8
Layer1
 10
442.724
 20
139.638
  0
VERTEX
  8
Layer1
 10
442.403
 20
139.505
  0
VERTEX
  8
Layer1
 10
442.08
 20
139.38
  0
VERTEX
  8
Layer1
 10
441.756
 20
139.264
  0
VERTEX
  8
Layer1
 10
441.428
 20
139.16
  0
VERTEX
  8
Layer1
 10
441.098
 20
139.069
  0
VERTEX
  8
Layer1
 10
440.766
 20
138.988
  0
VERTEX
  8
Layer1
 10
440.431
 20
138.918
  0
VERTEX
  8
Layer1
 10
440.094
 20
138.858
  0
VERTEX
  8
Layer1
 10
439.755
 20
138.807
  0
VERTEX
  8
Layer1
 10
439.415
 20
138.764
  0
VERTEX
  8
Layer1
 10
439.073
 20
138.727
  0
VERTEX
  8
Layer1
 10
438.729
 20
138.697
  0
VERTEX
  8
Layer1
 10
438.385
 20
138.672
  0
VERTEX
  8
Layer1
 10
438.039
 20
138.652
  0
VERTEX
  8
Layer1
 10
437.693
 20
138.635
  0
VERTEX
  8
Layer1
 10
437.346
 20
138.62
  0
VERTEX
  8
Layer1
 10
436.998
 20
138.608
  0
VERTEX
  8
Layer1
 10
436.651
 20
138.596
  0
SEQEND
  0
LINE
  8
Layer1
  6
CONTINUOUS
 62
7
 10
459.651
 20
146.667
 11
459.651
 21
108.167
  0
LINE
  8
Layer1
  6
CONTINUOUS
 62
7
 10
464.172
 20
156.167
 11
465.173
 21
157.167
  0
LINE
  8
Layer1
  6
CONTINUOUS
 62
7
 10
463.401
 20
152.667
 11
443.651
 21
152.667
  0
LINE
  8
Layer1
  6
DASHED1
 62
7
 10
464.169
 20
152.167
 11
477.13
 21
152.167
  0
LINE
  8
Layer1
  6
DASHED1
 62
7
 10
461.938
 20
147.167
 11
477.13
 21
147.167
  0
LINE
  8
Layer1
  6
CONTINUOUS
 62
7
 10
462.71
 20
146.667
 11
443.651
 21
146.667
  0
LINE
  8
Layer1
  6
CONTINUOUS
 62
7
 10
564.151
 20
87.1671
 11
564.151
 21
107.167
  0
LINE
  8
Layer1
  6
CONTINUOUS
 62
7
 10
575.151
 20
102.167
 11
585.151
 21
102.167
  0
LINE
  8
Layer1
  6
CENTER1
 62
7
 10
600.565
 20
115.167
 11
569.85
 21
115.167
  0
LINE
  8
Layer1
  6
CONTINUOUS
 62
7
 10
586.151
 20
103.167
 11
586.151
 21
164.167
  0
LINE
  8
Layer1
  6
CONTINUOUS
 62
7
 10
575.151
 20
165.167
 11
585.151
 21
165.167
  0
LINE
  8
Layer1
  6
CONTINUOUS
 62
7
 10
585.151
 20
165.167
 11
586.151
 21
164.167
  0
LINE
  8
Layer1
  6
CONTINUOUS
 62
7
 10
586.151
 20
103.167
 11
585.151
 21
102.167
  0
LINE
  8
Layer1
  6
CONTINUOUS
 62
7
 10
575.151
 20
102.167
 11
574.151
 21
103.167
  0
LINE
  8
Layer1
  6
CONTINUOUS
 62
7
 10
574.151
 20
164.167
 11
575.151
 21
165.167
  0
LINE
  8
Layer1
  6
DASHED1
 62
7
 10
516.66
 20
169.867
 11
524.66
 21
169.867
  0
LINE
  8
Layer1
  6
DASHED1
 62
7
 10
525.66
 20
168.867
 11
525.66
 21
163.867
  0
LINE
  8
Layer1
  6
DASHED1
 62
7
 10
515.66
 20
168.867
 11
515.66
 21
163.867
  0
LINE
  8
Layer1
  6
DASHED1
 62
7
 10
526.16
 20
163.867
 11
515.16
 21
163.867
  0
LINE
  8
Layer1
  6
DASHED1
 62
7
 10
524.66
 20
169.867
 11
525.66
 21
168.867
  0
LINE
  8
Layer1
  6
DASHED1
 62
7
 10
516.66
 20
169.867
 11
515.66
 21
168.867
  0
LINE
  8
Layer1
  6
DASHED1
 62
7
 10
525.66
 20
168.867
 11
515.66
 21
168.867
  0
LINE
  8
Layer1
  6
DASHED1
 62
7
 10
515.16
 20
169.351
 11
515.16
 21
163.867
  0
LINE
  8
Layer1
  6
DASHED1
 62
7
 10
526.16
 20
169.351
 11
526.16
 21
163.867
  0
LINE
  8
Layer1
  6
DASHED1
 62
7
 10
517.16
 20
163.867
 11
517.16
 21
157.167
  0
LINE
  8
Layer1
  6
DASHED1
 62
7
 10
526.16
 20
163.867
 11
515.16
 21
163.867
  0
LINE
  8
Layer1
  6
DASHED1
 62
7
 10
524.16
 20
163.867
 11
524.16
 21
157.167
  0
LINE
  8
Layer1
  6
DASHED1
 62
7
 10
515.16
 20
169.351
 11
514.143
 21
170.367
  0
LINE
  8
Layer1
  6
DASHED1
 62
7
 10
526.16
 20
169.351
 11
527.176
 21
170.367
  0
LINE
  8
Layer1
  6
DASHED1
 62
7
 10
527.176
 20
170.367
 11
514.143
 21
170.367
  0
LINE
  8
Layer1
  6
DASHED1
 62
7
 10
515.16
 20
169.351
 11
516.143
 21
169.351
  0
LINE
  8
Layer1
  6
DASHED1
 62
7
 10
526.16
 20
169.351
 11
525.176
 21
169.351
  0
LINE
  8
Layer1
  6
CONTINUOUS
 62
7
 10
557.151
 20
89.3431
 11
549.151
 21
89.3431
  0
LINE
  8
Layer1
  6
CONTINUOUS
 62
7
 10
548.151
 20
90.3431
 11
548.151
 21
95.3431
  0
LINE
  8
Layer1
  6
CONTINUOUS
 62
7
 10
558.151
 20
90.3431
 11
558.151
 21
95.3431
  0
LINE
  8
Layer1
  6
CONTINUOUS
 62
7
 10
547.651
 20
95.3431
 11
558.651
 21
95.3431
  0
LINE
  8
Layer1
  6
CONTINUOUS
 62
7
 10
549.151
 20
89.3431
 11
548.151
 21
90.3431
  0
LINE
  8
Layer1
  6
CONTINUOUS
 62
7
 10
557.151
 20
89.3431
 11
558.151
 21
90.3431
  0
LINE
  8
Layer1
  6
CONTINUOUS
 62
7
 10
548.151
 20
90.3431
 11
558.151
 21
90.3431
  0
LINE
  8
Layer1
  6
CONTINUOUS
 62
7
 10
556.151
 20
122.343
 11
555.651
 21
123.21
  0
LINE
  8
Layer1
  6
CONTINUOUS
 62
7
 10
550.151
 20
122.343
 11
550.651
 21
123.21
  0
LINE
  8
Layer1
  6
DASHED1
 62
7
 10
550.651
 20
123.21
 11
555.651
 21
123.21
  0
POLYLINE
  8
Layer1
  6
CONTINUOUS
 62
7
 66
1
 10
0
 20
0
 30
0
  0
VERTEX
  8
Layer1
 10
547.151
 20
99.3431
  0
VERTEX
  8
Layer1
 10
547.337
 20
99.4841
  0
VERTEX
  8
Layer1
 10
547.524
 20
99.6241
  0
VERTEX
  8
Layer1
 10
547.711
 20
99.7621
  0
VERTEX
  8
Layer1
 10
547.898
 20
99.8971
  0
VERTEX
  8
Layer1
 10
548.086
 20
100.029
  0
VERTEX
  8
Layer1
 10
548.274
 20
100.155
  0
VERTEX
  8
Layer1
 10
548.463
 20
100.277
  0
VERTEX
  8
Layer1
 10
548.652
 20
100.391
  0
VERTEX
  8
Layer1
 10
548.842
 20
100.498
  0
VERTEX
  8
Layer1
 10
549.033
 20
100.597
  0
VERTEX
  8
Layer1
 10
549.225
 20
100.687
  0
VERTEX
  8
Layer1
 10
549.418
 20
100.766
  0
VERTEX
  8
Layer1
 10
549.613
 20
100.834
  0
VERTEX
  8
Layer1
 10
549.808
 20
100.89
  0
VERTEX
  8
Layer1
 10
550.005
 20
100.933
  0
VERTEX
  8
Layer1
 10
550.203
 20
100.961
  0
VERTEX
  8
Layer1
 10
550.403
 20
100.975
  0
VERTEX
  8
Layer1
 10
550.605
 20
100.974
  0
VERTEX
  8
Layer1
 10
550.808
 20
100.955
  0
VERTEX
  8
Layer1
 10
551.013
 20
100.922
  0
VERTEX
  8
Layer1
 10
551.22
 20
100.877
  0
VERTEX
  8
Layer1
 10
551.427
 20
100.822
  0
VERTEX
  8
Layer1
 10
551.634
 20
100.761
  0
VERTEX
  8
Layer1
 10
551.843
 20
100.697
  0
VERTEX
  8
Layer1
 10
552.051
 20
100.631
  0
VERTEX
  8
Layer1
 10
552.258
 20
100.568
  0
VERTEX
  8
Layer1
 10
552.465
 20
100.509
  0
VERTEX
  8
Layer1
 10
552.671
 20
100.458
  0
VERTEX
  8
Layer1
 10
552.876
 20
100.417
  0
VERTEX
  8
Layer1
 10
553.08
 20
100.389
  0
VERTEX
  8
Layer1
 10
553.281
 20
100.377
  0
VERTEX
  8
Layer1
 10
553.481
 20
100.381
  0
VERTEX
  8
Layer1
 10
553.678
 20
100.401
  0
VERTEX
  8
Layer1
 10
553.874
 20
100.435
  0
VERTEX
  8
Layer1
 10
554.068
 20
100.484
  0
VERTEX
  8
Layer1
 10
554.26
 20
100.545
  0
VERTEX
  8
Layer1
 10
554.45
 20
100.618
  0
VERTEX
  8
Layer1
 10
554.639
 20
100.702
  0
VERTEX
  8
Layer1
 10
554.826
 20
100.797
  0
VERTEX
  8
Layer1
 10
555.012
 20
100.902
  0
VERTEX
  8
Layer1
 10
555.196
 20
101.015
  0
VERTEX
  8
Layer1
 10
555.379
 20
101.135
  0
VERTEX
  8
Layer1
 10
555.561
 20
101.263
  0
VERTEX
  8
Layer1
 10
555.741
 20
101.397
  0
VERTEX
  8
Layer1
 10
555.92
 20
101.536
  0
VERTEX
  8
Layer1
 10
556.097
 20
101.68
  0
VERTEX
  8
Layer1
 10
556.274
 20
101.827
  0
VERTEX
  8
Layer1
 10
556.449
 20
101.977
  0
VERTEX
  8
Layer1
 10
556.623
 20
102.128
  0
VERTEX
  8
Layer1
 10
556.797
 20
102.281
  0
VERTEX
  8
Layer1
 10
556.969
 20
102.434
  0
VERTEX
  8
Layer1
 10
557.14
 20
102.586
  0
VERTEX
  8
Layer1
 10
557.311
 20
102.736
  0
VERTEX
  8
Layer1
 10
557.481
 20
102.884
  0
VERTEX
  8
Layer1
 10
557.65
 20
103.029
  0
VERTEX
  8
Layer1
 10
557.819
 20
103.17
  0
VERTEX
  8
Layer1
 10
557.986
 20
103.307
  0
VERTEX
  8
Layer1
 10
558.154
 20
103.441
  0
VERTEX
  8
Layer1
 10
558.321
 20
103.573
  0
VERTEX
  8
Layer1
 10
558.487
 20
103.702
  0
VERTEX
  8
Layer1
 10
558.653
 20
103.829
  0
VERTEX
  8
Layer1
 10
558.819
 20
103.955
  0
VERTEX
  8
Layer1
 10
558.985
 20
104.08
  0
VERTEX
  8
Layer1
 10
559.151
 20
104.204
  0
SEQEND
  0
LINE
  8
Layer1
  6
CONTINUOUS
 62
7
 10
556.151
 20
101.725
 11
556.151
 21
95.3431
  0
LINE
  8
Layer1
  6
CONTINUOUS
 62
7
 10
555.651
 20
101.33
 11
555.651
 21
95.3431
  0
LINE
  8
Layer1
  6
CONTINUOUS
 62
7
 10
550.651
 20
100.971
 11
550.651
 21
95.3431
  0
LINE
  8
Layer1
  6
CONTINUOUS
 62
7
 10
550.151
 20
100.954
 11
550.151
 21
95.3431
  0
LINE
  8
Layer1
  6
CONTINUOUS
 62
7
 10
548.151
 20
95.3431
 11
548.151
 21
90.3431
  0
LINE
  8
Layer1
  6
CONTINUOUS
 62
7
 10
558.151
 20
95.3431
 11
558.151
 21
90.3431
  0
LINE
  8
Layer1
  6
CONTINUOUS
 62
7
 10
547.651
 20
88.3431
 11
547.651
 21
95.3431
  0
LINE
  8
Layer1
  6
CONTINUOUS
 62
7
 10
558.651
 20
88.3431
 11
558.651
 21
95.3431
  0
LINE
  8
Layer1
  6
CONTINUOUS
 62
7
 10
548.651
 20
95.0931
 11
548.651
 21
90.5931
  0
LINE
  8
Layer1
  6
CONTINUOUS
 62
7
 10
549.651
 20
94.5931
 11
549.651
 21
91.0931
  0
LINE
  8
Layer1
  6
CONTINUOUS
 62
7
 10
550.651
 20
94.0931
 11
550.651
 21
91.5931
  0
LINE
  8
Layer1
  6
CONTINUOUS
 62
7
 10
553.151
 20
95.3431
 11
553.151
 21
90.3431
  0
LINE
  8
Layer1
  6
DASHED1
 62
7
 10
515.66
 20
163.867
 11
515.66
 21
168.867
  0
LINE
  8
Layer1
  6
DASHED1
 62
7
 10
516.16
 20
168.617
 11
516.16
 21
164.117
  0
LINE
  8
Layer1
  6
DASHED1
 62
7
 10
517.16
 20
168.117
 11
517.16
 21
164.617
  0
LINE
  8
Layer1
  6
DASHED1
 62
7
 10
518.16
 20
167.617
 11
518.16
 21
165.117
  0
LINE
  8
Layer1
  6
CONTINUOUS
 62
7
 10
438.651
 20
154.667
 11
443.651
 21
154.667
  0
LINE
  8
Layer1
  6
CONTINUOUS
 62
7
 10
437.651
 20
153.667
 11
438.651
 21
154.667
  0
LINE
  8
Layer1
  6
CONTINUOUS
 62
7
 10
443.651
 20
154.667
 11
438.651
 21
154.667
  0
LINE
  8
Layer1
  6
CONTINUOUS
 62
7
 10
443.401
 20
154.167
 11
438.901
 21
154.167
  0
LINE
  8
Layer1
  6
CONTINUOUS
 62
7
 10
442.901
 20
153.167
 11
439.401
 21
153.167
  0
LINE
  8
Layer1
  6
CONTINUOUS
 62
7
 10
442.401
 20
152.167
 11
439.901
 21
152.167
  0
LINE
  8
Layer1
  6
CONTINUOUS
 62
7
 10
586.151
 20
436.895
 11
586.151
 21
308.895
  0
LINE
  8
Layer1
  6
CONTINUOUS
 62
7
 10
574.151
 20
456.895
 11
574.151
 21
307.895
  0
LINE
  8
Layer1
  6
CONTINUOUS
 62
7
 10
586.151
 20
423.895
 11
593.651
 21
423.895
  0
LINE
  8
Layer1
  6
CONTINUOUS
 62
7
 10
586.151
 20
436.895
 11
593.651
 21
436.895
  0
LINE
  8
Layer1
  6
CONTINUOUS
 62
7
 10
593.651
 20
423.895
 11
593.651
 21
436.895
  0
LINE
  8
Layer1
  6
CONTINUOUS
 62
7
 10
594.151
 20
424.395
 11
594.151
 21
436.395
  0
LINE
  8
Layer1
  6
CONTINUOUS
 62
7
 10
593.651
 20
423.895
 11
594.151
 21
424.395
  0
LINE
  8
Layer1
  6
CONTINUOUS
 62
7
 10
593.651
 20
436.895
 11
594.151
 21
436.395
  0
LINE
  8
Layer1
  6
CONTINUOUS
 62
7
 10
586.151
 20
436.895
 11
586.151
 21
423.895
  0
LINE
  8
Layer1
  6
CONTINUOUS
 62
7
 10
586.728
 20
435.895
 11
593.074
 21
435.895
  0
LINE
  8
Layer1
  6
CONTINUOUS
 62
7
 10
587.305
 20
434.895
 11
592.497
 21
434.895
  0
LINE
  8
Layer1
  6
CONTINUOUS
 62
7
 10
587.882
 20
433.895
 11
591.92
 21
433.895
  0
LINE
  8
Layer1
  6
CONTINUOUS
 62
7
 10
588.459
 20
432.895
 11
591.343
 21
432.895
  0
LINE
  8
Layer1
  6
CONTINUOUS
 62
7
 10
586.151
 20
308.895
 11
593.651
 21
308.895
  0
LINE
  8
Layer1
  6
CONTINUOUS
 62
7
 10
586.151
 20
321.895
 11
593.651
 21
321.895
  0
LINE
  8
Layer1
  6
CONTINUOUS
 62
7
 10
593.651
 20
308.895
 11
593.651
 21
321.895
  0
LINE
  8
Layer1
  6
CONTINUOUS
 62
7
 10
594.151
 20
309.395
 11
594.151
 21
321.395
  0
LINE
  8
Layer1
  6
CONTINUOUS
 62
7
 10
593.651
 20
308.895
 11
594.151
 21
309.395
  0
LINE
  8
Layer1
  6
CONTINUOUS
 62
7
 10
593.651
 20
321.895
 11
594.151
 21
321.395
  0
LINE
  8
Layer1
  6
CONTINUOUS
 62
7
 10
586.151
 20
321.895
 11
586.151
 21
308.895
  0
LINE
  8
Layer1
  6
CONTINUOUS
 62
7
 10
586.728
 20
320.895
 11
593.074
 21
320.895
  0
LINE
  8
Layer1
  6
CONTINUOUS
 62
7
 10
587.305
 20
319.895
 11
592.497
 21
319.895
  0
LINE
  8
Layer1
  6
CONTINUOUS
 62
7
 10
587.882
 20
318.895
 11
591.92
 21
318.895
  0
LINE
  8
Layer1
  6
CONTINUOUS
 62
7
 10
588.459
 20
317.895
 11
591.343
 21
317.895
  0
LINE
  8
Layer1
  6
CENTER1
 62
7
 10
567.151
 20
149.167
 11
592.989
 21
149.167
  0
LINE
  8
Layer1
  6
CENTER1
 62
7
 10
565.772
 20
130.167
 11
592.989
 21
130.167
  0
LINE
  8
Layer1
  6
CENTER1
 62
7
 10
570.33
 20
111.167
 11
596.444
 21
111.167
  0
CIRCLE
  8
Layer1
  6
CONTINUOUS
 62
7
 10
498.151
 20
372.895
 40
3.76681
  0
ARC
  8
Layer1
  6
CONTINUOUS
 62
7
 10
493.678
 20
372.93
 40
1
 50
140.711
 51
225
  0
LINE
  8
Layer1
  6
CONTINUOUS
 62
7
 10
502.661
 20
374.539
 11
504.924
 21
374.539
  0
LINE
  8
Layer1
  6
CONTINUOUS
 62
7
 10
502.661
 20
371.054
 11
504.924
 21
371.054
  0
LINE
  8
Layer1
  6
CONTINUOUS
 62
7
 10
504.924
 20
374.539
 11
504.924
 21
371.054
  0
ARC
  8
Layer1
  6
CONTINUOUS
 62
7
 10
498.151
 20
372.895
 40
4.80058
 50
20.031
 51
140.098
  0
ARC
  8
Layer1
  6
CONTINUOUS
 62
7
 10
498.151
 20
372.895
 40
4.80058
 50
218.056
 51
337.793
  0
ARC
  8
Layer1
  6
CONTINUOUS
 62
7
 10
485.258
 20
365.645
 40
10.1292
 50
24.1178
 51
40.4581
  0
ARC
  8
Layer1
  6
CONTINUOUS
 62
7
 10
485.197
 20
380.136
 40
10.1292
 50
319.542
 51
335.882
  0
ARC
  8
Layer1
  6
CONTINUOUS
 62
7
 10
503.793
 20
374.539
 40
0.542282
 50
0
 51
180
  0
ARC
  8
Layer1
  6
CONTINUOUS
 62
7
 10
503.793
 20
371.054
 40
0.657613
 50
180
 51
2.03555e-013
  0
LINE
  8
Layer1
  6
CONTINUOUS
 62
7
 10
253.719
 20
178.81
 11
261.564
 21
178.81
  0
LINE
  8
Layer1
  6
CONTINUOUS
 62
7
 10
253.392
 20
178.207
 11
261.866
 21
178.207
  0
LINE
  8
Layer1
  6
CONTINUOUS
 62
7
 10
253.297
 20
174.827
 11
261.745
 21
174.827
  0
LINE
  8
Layer1
  6
CONTINUOUS
 62
7
 10
262.47
 20
174.103
 11
252.573
 21
174.103
  0
LINE
  8
Layer1
  6
CONTINUOUS
 62
7
 10
262.47
 20
174.103
 11
262.47
 21
172.232
  0
LINE
  8
Layer1
  6
CONTINUOUS
 62
7
 10
252.573
 20
174.103
 11
252.573
 21
172.232
  0
POLYLINE
  8
Layer1
  6
CONTINUOUS
 62
7
 66
1
 10
0
 20
0
 30
0
  0
VERTEX
  8
Layer1
 10
257.514
 20
176.023
  0
VERTEX
  8
Layer1
 10
257.449
 20
176.08
  0
VERTEX
  8
Layer1
 10
257.382
 20
176.136
  0
VERTEX
  8
Layer1
 10
257.314
 20
176.189
  0
VERTEX
  8
Layer1
 10
257.245
 20
176.241
  0
VERTEX
  8
Layer1
 10
257.174
 20
176.291
  0
VERTEX
  8
Layer1
 10
257.102
 20
176.339
  0
VERTEX
  8
Layer1
 10
257.028
 20
176.385
  0
VERTEX
  8
Layer1
 10
256.954
 20
176.43
  0
VERTEX
  8
Layer1
 10
256.878
 20
176.472
  0
VERTEX
  8
Layer1
 10
256.801
 20
176.513
  0
VERTEX
  8
Layer1
 10
256.724
 20
176.551
  0
VERTEX
  8
Layer1
 10
256.645
 20
176.587
  0
VERTEX
  8
Layer1
 10
256.565
 20
176.622
  0
VERTEX
  8
Layer1
 10
256.485
 20
176.654
  0
VERTEX
  8
Layer1
 10
256.403
 20
176.684
  0
VERTEX
  8
Layer1
 10
256.321
 20
176.712
  0
VERTEX
  8
Layer1
 10
256.239
 20
176.738
  0
VERTEX
  8
Layer1
 10
256.155
 20
176.762
  0
VERTEX
  8
Layer1
 10
256.071
 20
176.784
  0
VERTEX
  8
Layer1
 10
255.987
 20
176.803
  0
VERTEX
  8
Layer1
 10
255.902
 20
176.82
  0
VERTEX
  8
Layer1
 10
255.816
 20
176.835
  0
VERTEX
  8
Layer1
 10
255.731
 20
176.848
  0
VERTEX
  8
Layer1
 10
255.645
 20
176.859
  0
VERTEX
  8
Layer1
 10
255.558
 20
176.867
  0
VERTEX
  8
Layer1
 10
255.472
 20
176.873
  0
VERTEX
  8
Layer1
 10
255.385
 20
176.877
  0
VERTEX
  8
Layer1
 10
255.298
 20
176.879
  0
VERTEX
  8
Layer1
 10
255.212
 20
176.878
  0
VERTEX
  8
Layer1
 10
255.125
 20
176.876
  0
VERTEX
  8
Layer1
 10
255.039
 20
176.871
  0
VERTEX
  8
Layer1
 10
254.952
 20
176.863
  0
VERTEX
  8
Layer1
 10
254.866
 20
176.854
  0
VERTEX
  8
Layer1
 10
254.78
 20
176.842
  0
VERTEX
  8
Layer1
 10
254.694
 20
176.828
  0
VERTEX
  8
Layer1
 10
254.609
 20
176.812
  0
VERTEX
  8
Layer1
 10
254.525
 20
176.793
  0
VERTEX
  8
Layer1
 10
254.44
 20
176.773
  0
VERTEX
  8
Layer1
 10
254.357
 20
176.75
  0
VERTEX
  8
Layer1
 10
254.274
 20
176.725
  0
VERTEX
  8
Layer1
 10
254.191
 20
176.698
  0
VERTEX
  8
Layer1
 10
254.109
 20
176.669
  0
VERTEX
  8
Layer1
 10
254.029
 20
176.638
  0
VERTEX
  8
Layer1
 10
253.949
 20
176.604
  0
VERTEX
  8
Layer1
 10
253.869
 20
176.569
  0
VERTEX
  8
Layer1
 10
253.791
 20
176.532
  0
VERTEX
  8
Layer1
 10
253.714
 20
176.492
  0
VERTEX
  8
Layer1
 10
253.638
 20
176.451
  0
SEQEND
  0
POLYLINE
  8
Layer1
  6
CONTINUOUS
 62
7
 66
1
 10
0
 20
0
 30
0
  0
VERTEX
  8
Layer1
 10
261.867
 20
176.396
  0
VERTEX
  8
Layer1
 10
261.779
 20
176.432
  0
VERTEX
  8
Layer1
 10
261.691
 20
176.465
  0
VERTEX
  8
Layer1
 10
261.602
 20
176.497
  0
VERTEX
  8
Layer1
 10
261.513
 20
176.528
  0
VERTEX
  8
Layer1
 10
261.423
 20
176.556
  0
VERTEX
  8
Layer1
 10
261.332
 20
176.583
  0
VERTEX
  8
Layer1
 10
261.241
 20
176.608
  0
VERTEX
  8
Layer1
 10
261.149
 20
176.631
  0
VERTEX
  8
Layer1
 10
261.057
 20
176.652
  0
VERTEX
  8
Layer1
 10
260.965
 20
176.671
  0
VERTEX
  8
Layer1
 10
260.872
 20
176.689
  0
VERTEX
  8
Layer1
 10
260.779
 20
176.704
  0
VERTEX
  8
Layer1
 10
260.686
 20
176.718
  0
VERTEX
  8
Layer1
 10
260.592
 20
176.73
  0
VERTEX
  8
Layer1
 10
260.498
 20
176.74
  0
VERTEX
  8
Layer1
 10
260.404
 20
176.748
  0
VERTEX
  8
Layer1
 10
260.31
 20
176.754
  0
VERTEX
  8
Layer1
 10
260.215
 20
176.759
  0
VERTEX
  8
Layer1
 10
260.121
 20
176.761
  0
VERTEX
  8
Layer1
 10
260.027
 20
176.762
  0
VERTEX
  8
Layer1
 10
259.932
 20
176.76
  0
VERTEX
  8
Layer1
 10
259.838
 20
176.757
  0
VERTEX
  8
Layer1
 10
259.744
 20
176.752
  0
VERTEX
  8
Layer1
 10
259.649
 20
176.745
  0
VERTEX
  8
Layer1
 10
259.555
 20
176.736
  0
VERTEX
  8
Layer1
 10
259.461
 20
176.725
  0
VERTEX
  8
Layer1
 10
259.368
 20
176.713
  0
VERTEX
  8
Layer1
 10
259.275
 20
176.698
  0
VERTEX
  8
Layer1
 10
259.182
 20
176.682
  0
VERTEX
  8
Layer1
 10
259.089
 20
176.664
  0
VERTEX
  8
Layer1
 10
258.997
 20
176.644
  0
VERTEX
  8
Layer1
 10
258.905
 20
176.622
  0
VERTEX
  8
Layer1
 10
258.813
 20
176.598
  0
VERTEX
  8
Layer1
 10
258.722
 20
176.573
  0
VERTEX
  8
Layer1
 10
258.632
 20
176.545
  0
VERTEX
  8
Layer1
 10
258.542
 20
176.516
  0
VERTEX
  8
Layer1
 10
258.453
 20
176.485
  0
VERTEX
  8
Layer1
 10
258.364
 20
176.453
  0
VERTEX
  8
Layer1
 10
258.276
 20
176.418
  0
VERTEX
  8
Layer1
 10
258.189
 20
176.382
  0
VERTEX
  8
Layer1
 10
258.103
 20
176.344
  0
VERTEX
  8
Layer1
 10
258.017
 20
176.304
  0
VERTEX
  8
Layer1
 10
257.932
 20
176.263
  0
VERTEX
  8
Layer1
 10
257.848
 20
176.22
  0
VERTEX
  8
Layer1
 10
257.765
 20
176.175
  0
VERTEX
  8
Layer1
 10
257.683
 20
176.129
  0
VERTEX
  8
Layer1
 10
257.602
 20
176.081
  0
VERTEX
  8
Layer1
 10
257.521
 20
176.031
  0
SEQEND
  0
LINE
  8
Layer1
  6
CONTINUOUS
 62
7
 10
253.984
 20
176.619
 11
253.65
 21
176.43
  0
LINE
  8
Layer1
  6
CONTINUOUS
 62
7
 10
253.719
 20
178.81
 11
252.86
 21
177.226
  0
LINE
  8
Layer1
  6
CONTINUOUS
 62
7
 10
261.564
 20
178.81
 11
262.452
 21
176.995
  0
LINE
  8
Layer1
  6
CONTINUOUS
 62
7
 10
261.382
 20
176.54
 11
261.867
 21
176.396
  0
POLYLINE
  8
Layer1
  6
CONTINUOUS
 62
7
 66
1
 10
0
 20
0
 30
0
  0
VERTEX
  8
Layer1
 10
252.86
 20
177.226
  0
VERTEX
  8
Layer1
 10
252.845
 20
177.199
  0
VERTEX
  8
Layer1
 10
252.831
 20
177.17
  0
VERTEX
  8
Layer1
 10
252.819
 20
177.141
  0
VERTEX
  8
Layer1
 10
252.809
 20
177.111
  0
VERTEX
  8
Layer1
 10
252.8
 20
177.081
  0
VERTEX
  8
Layer1
 10
252.793
 20
177.05
  0
VERTEX
  8
Layer1
 10
252.788
 20
177.019
  0
VERTEX
  8
Layer1
 10
252.784
 20
176.987
  0
VERTEX
  8
Layer1
 10
252.782
 20
176.956
  0
VERTEX
  8
Layer1
 10
252.782
 20
176.924
  0
VERTEX
  8
Layer1
 10
252.783
 20
176.892
  0
VERTEX
  8
Layer1
 10
252.786
 20
176.861
  0
VERTEX
  8
Layer1
 10
252.791
 20
176.83
  0
VERTEX
  8
Layer1
 10
252.798
 20
176.799
  0
VERTEX
  8
Layer1
 10
252.806
 20
176.768
  0
VERTEX
  8
Layer1
 10
252.816
 20
176.738
  0
VERTEX
  8
Layer1
 10
252.827
 20
176.709
  0
VERTEX
  8
Layer1
 10
252.84
 20
176.68
  0
VERTEX
  8
Layer1
 10
252.855
 20
176.652
  0
VERTEX
  8
Layer1
 10
252.871
 20
176.625
  0
VERTEX
  8
Layer1
 10
252.889
 20
176.598
  0
VERTEX
  8
Layer1
 10
252.908
 20
176.573
  0
VERTEX
  8
Layer1
 10
252.928
 20
176.549
  0
VERTEX
  8
Layer1
 10
252.95
 20
176.526
  0
VERTEX
  8
Layer1
 10
252.973
 20
176.504
  0
VERTEX
  8
Layer1
 10
252.997
 20
176.483
  0
VERTEX
  8
Layer1
 10
253.022
 20
176.464
  0
VERTEX
  8
Layer1
 10
253.048
 20
176.446
  0
VERTEX
  8
Layer1
 10
253.075
 20
176.43
  0
VERTEX
  8
Layer1
 10
253.103
 20
176.415
  0
VERTEX
  8
Layer1
 10
253.132
 20
176.402
  0
VERTEX
  8
Layer1
 10
253.161
 20
176.39
  0
VERTEX
  8
Layer1
 10
253.191
 20
176.38
  0
VERTEX
  8
Layer1
 10
253.221
 20
176.371
  0
VERTEX
  8
Layer1
 10
253.252
 20
176.364
  0
VERTEX
  8
Layer1
 10
253.283
 20
176.359
  0
VERTEX
  8
Layer1
 10
253.315
 20
176.356
  0
VERTEX
  8
Layer1
 10
253.346
 20
176.354
  0
VERTEX
  8
Layer1
 10
253.378
 20
176.354
  0
VERTEX
  8
Layer1
 10
253.41
 20
176.356
  0
VERTEX
  8
Layer1
 10
253.441
 20
176.359
  0
VERTEX
  8
Layer1
 10
253.472
 20
176.364
  0
VERTEX
  8
Layer1
 10
253.503
 20
176.371
  0
VERTEX
  8
Layer1
 10
253.534
 20
176.379
  0
VERTEX
  8
Layer1
 10
253.564
 20
176.39
  0
VERTEX
  8
Layer1
 10
253.593
 20
176.401
  0
VERTEX
  8
Layer1
 10
253.622
 20
176.415
  0
VERTEX
  8
Layer1
 10
253.65
 20
176.43
  0
SEQEND
  0
POLYLINE
  8
Layer1
  6
CONTINUOUS
 62
7
 66
1
 10
0
 20
0
 30
0
  0
VERTEX
  8
Layer1
 10
261.867
 20
176.396
  0
VERTEX
  8
Layer1
 10
261.887
 20
176.39
  0
VERTEX
  8
Layer1
 10
261.908
 20
176.386
  0
VERTEX
  8
Layer1
 10
261.929
 20
176.382
  0
VERTEX
  8
Layer1
 10
261.951
 20
176.379
  0
VERTEX
  8
Layer1
 10
261.972
 20
176.377
  0
VERTEX
  8
Layer1
 10
261.993
 20
176.376
  0
VERTEX
  8
Layer1
 10
262.015
 20
176.377
  0
VERTEX
  8
Layer1
 10
262.036
 20
176.378
  0
VERTEX
  8
Layer1
 10
262.057
 20
176.38
  0
VERTEX
  8
Layer1
 10
262.079
 20
176.383
  0
VERTEX
  8
Layer1
 10
262.1
 20
176.387
  0
VERTEX
  8
Layer1
 10
262.12
 20
176.392
  0
VERTEX
  8
Layer1
 10
262.141
 20
176.397
  0
VERTEX
  8
Layer1
 10
262.161
 20
176.404
  0
VERTEX
  8
Layer1
 10
262.181
 20
176.412
  0
VERTEX
  8
Layer1
 10
262.201
 20
176.42
  0
VERTEX
  8
Layer1
 10
262.22
 20
176.43
  0
VERTEX
  8
Layer1
 10
262.239
 20
176.44
  0
VERTEX
  8
Layer1
 10
262.257
 20
176.451
  0
VERTEX
  8
Layer1
 10
262.275
 20
176.463
  0
VERTEX
  8
Layer1
 10
262.292
 20
176.476
  0
VERTEX
  8
Layer1
 10
262.309
 20
176.49
  0
VERTEX
  8
Layer1
 10
262.325
 20
176.504
  0
VERTEX
  8
Layer1
 10
262.34
 20
176.519
  0
VERTEX
  8
Layer1
 10
262.355
 20
176.534
  0
VERTEX
  8
Layer1
 10
262.368
 20
176.551
  0
VERTEX
  8
Layer1
 10
262.382
 20
176.568
  0
VERTEX
  8
Layer1
 10
262.394
 20
176.585
  0
VERTEX
  8
Layer1
 10
262.405
 20
176.603
  0
VERTEX
  8
Layer1
 10
262.416
 20
176.622
  0
VERTEX
  8
Layer1
 10
262.426
 20
176.641
  0
VERTEX
  8
Layer1
 10
262.435
 20
176.66
  0
VERTEX
  8
Layer1
 10
262.443
 20
176.68
  0
VERTEX
  8
Layer1
 10
262.45
 20
176.7
  0
VERTEX
  8
Layer1
 10
262.457
 20
176.72
  0
VERTEX
  8
Layer1
 10
262.462
 20
176.741
  0
VERTEX
  8
Layer1
 10
262.466
 20
176.762
  0
VERTEX
  8
Layer1
 10
262.47
 20
176.783
  0
VERTEX
  8
Layer1
 10
262.472
 20
176.804
  0
VERTEX
  8
Layer1
 10
262.474
 20
176.826
  0
VERTEX
  8
Layer1
 10
262.475
 20
176.847
  0
VERTEX
  8
Layer1
 10
262.474
 20
176.869
  0
VERTEX
  8
Layer1
 10
262.473
 20
176.89
  0
VERTEX
  8
Layer1
 10
262.471
 20
176.911
  0
VERTEX
  8
Layer1
 10
262.467
 20
176.932
  0
VERTEX
  8
Layer1
 10
262.463
 20
176.953
  0
VERTEX
  8
Layer1
 10
262.458
 20
176.974
  0
VERTEX
  8
Layer1
 10
262.452
 20
176.995
  0
SEQEND
  0
LINE
  8
Layer1
  6
CONTINUOUS
 62
7
 10
260.589
 20
176.73
 11
260.589
 21
174.827
  0
LINE
  8
Layer1
  6
CONTINUOUS
 62
7
 10
254.443
 20
176.774
 11
254.443
 21
174.827
  0
LINE
  8
Layer1
  6
CONTINUOUS
 62
7
 10
253.297
 20
174.827
 11
252.573
 21
174.103
  0
LINE
  8
Layer1
  6
CONTINUOUS
 62
7
 10
261.745
 20
174.827
 11
262.47
 21
174.103
  0
LINE
  8
Layer1
  6
CONTINUOUS
 62
7
 10
492.81
 20
179.537
 11
502.7
 21
179.537
  0
LINE
  8
Layer1
  6
CONTINUOUS
 62
7
 10
492.81
 20
177.222
 11
501.632
 21
177.222
  0
LINE
  8
Layer1
  6
CONTINUOUS
 62
7
 10
502.7
 20
179.537
 11
504.124
 21
177.875
  0
LINE
  8
Layer1
  6
CONTINUOUS
 62
7
 10
504.124
 20
177.222
 11
504.124
 21
177.875
  0
POLYLINE
  8
Layer1
  6
CONTINUOUS
 62
7
 66
1
 10
0
 20
0
 30
0
  0
VERTEX
  8
Layer1
 10
501.632
 20
177.222
  0
VERTEX
  8
Layer1
 10
501.634
 20
177.14
  0
VERTEX
  8
Layer1
 10
501.641
 20
177.058
  0
VERTEX
  8
Layer1
 10
501.653
 20
176.977
  0
VERTEX
  8
Layer1
 10
501.671
 20
176.897
  0
VERTEX
  8
Layer1
 10
501.695
 20
176.818
  0
VERTEX
  8
Layer1
 10
501.723
 20
176.741
  0
VERTEX
  8
Layer1
 10
501.756
 20
176.666
  0
VERTEX
  8
Layer1
 10
501.794
 20
176.593
  0
VERTEX
  8
Layer1
 10
501.837
 20
176.523
  0
VERTEX
  8
Layer1
 10
501.885
 20
176.456
  0
VERTEX
  8
Layer1
 10
501.936
 20
176.393
  0
VERTEX
  8
Layer1
 10
501.992
 20
176.332
  0
VERTEX
  8
Layer1
 10
502.052
 20
176.276
  0
VERTEX
  8
Layer1
 10
502.115
 20
176.224
  0
VERTEX
  8
Layer1
 10
502.182
 20
176.176
  0
VERTEX
  8
Layer1
 10
502.251
 20
176.132
  0
VERTEX
  8
Layer1
 10
502.323
 20
176.093
  0
VERTEX
  8
Layer1
 10
502.398
 20
176.059
  0
VERTEX
  8
Layer1
 10
502.475
 20
176.03
  0
VERTEX
  8
Layer1
 10
502.553
 20
176.006
  0
VERTEX
  8
Layer1
 10
502.633
 20
175.987
  0
VERTEX
  8
Layer1
 10
502.714
 20
175.974
  0
VERTEX
  8
Layer1
 10
502.796
 20
175.966
  0
VERTEX
  8
Layer1
 10
502.878
 20
175.963
  0
VERTEX
  8
Layer1
 10
502.96
 20
175.966
  0
VERTEX
  8
Layer1
 10
503.042
 20
175.974
  0
VERTEX
  8
Layer1
 10
503.123
 20
175.987
  0
VERTEX
  8
Layer1
 10
503.203
 20
176.006
  0
VERTEX
  8
Layer1
 10
503.281
 20
176.03
  0
VERTEX
  8
Layer1
 10
503.358
 20
176.059
  0
VERTEX
  8
Layer1
 10
503.433
 20
176.093
  0
VERTEX
  8
Layer1
 10
503.505
 20
176.132
  0
VERTEX
  8
Layer1
 10
503.575
 20
176.176
  0
VERTEX
  8
Layer1
 10
503.641
 20
176.224
  0
VERTEX
  8
Layer1
 10
503.704
 20
176.276
  0
VERTEX
  8
Layer1
 10
503.764
 20
176.332
  0
VERTEX
  8
Layer1
 10
503.82
 20
176.393
  0
VERTEX
  8
Layer1
 10
503.871
 20
176.456
  0
VERTEX
  8
Layer1
 10
503.919
 20
176.523
  0
VERTEX
  8
Layer1
 10
503.962
 20
176.593
  0
VERTEX
  8
Layer1
 10
504
 20
176.666
  0
VERTEX
  8
Layer1
 10
504.033
 20
176.741
  0
VERTEX
  8
Layer1
 10
504.062
 20
176.818
  0
VERTEX
  8
Layer1
 10
504.085
 20
176.897
  0
VERTEX
  8
Layer1
 10
504.103
 20
176.977
  0
VERTEX
  8
Layer1
 10
504.115
 20
177.058
  0
VERTEX
  8
Layer1
 10
504.123
 20
177.14
  0
VERTEX
  8
Layer1
 10
504.124
 20
177.222
  0
SEQEND
  0
LINE
  8
Layer1
  6
CONTINUOUS
 62
7
 10
492.81
 20
179.537
 11
490.397
 21
177.008
  0
LINE
  8
Layer1
  6
CONTINUOUS
 62
7
 10
492.81
 20
177.222
 11
491.386
 21
175.976
  0
POLYLINE
  8
Layer1
  6
CONTINUOUS
 62
7
 66
1
 10
0
 20
0
 30
0
  0
VERTEX
  8
Layer1
 10
490.397
 20
177.008
  0
VERTEX
  8
Layer1
 10
490.366
 20
176.975
  0
VERTEX
  8
Layer1
 10
490.338
 20
176.939
  0
VERTEX
  8
Layer1
 10
490.313
 20
176.901
  0
VERTEX
  8
Layer1
 10
490.289
 20
176.862
  0
VERTEX
  8
Layer1
 10
490.268
 20
176.822
  0
VERTEX
  8
Layer1
 10
490.25
 20
176.78
  0
VERTEX
  8
Layer1
 10
490.235
 20
176.737
  0
VERTEX
  8
Layer1
 10
490.222
 20
176.694
  0
VERTEX
  8
Layer1
 10
490.212
 20
176.649
  0
VERTEX
  8
Layer1
 10
490.205
 20
176.604
  0
VERTEX
  8
Layer1
 10
490.2
 20
176.559
  0
VERTEX
  8
Layer1
 10
490.199
 20
176.514
  0
VERTEX
  8
Layer1
 10
490.2
 20
176.468
  0
VERTEX
  8
Layer1
 10
490.205
 20
176.423
  0
VERTEX
  8
Layer1
 10
490.212
 20
176.378
  0
VERTEX
  8
Layer1
 10
490.222
 20
176.334
  0
VERTEX
  8
Layer1
 10
490.235
 20
176.29
  0
VERTEX
  8
Layer1
 10
490.251
 20
176.247
  0
VERTEX
  8
Layer1
 10
490.269
 20
176.206
  0
VERTEX
  8
Layer1
 10
490.29
 20
176.165
  0
VERTEX
  8
Layer1
 10
490.313
 20
176.126
  0
VERTEX
  8
Layer1
 10
490.339
 20
176.089
  0
VERTEX
  8
Layer1
 10
490.367
 20
176.053
  0
VERTEX
  8
Layer1
 10
490.398
 20
176.019
  0
VERTEX
  8
Layer1
 10
490.43
 20
175.987
  0
VERTEX
  8
Layer1
 10
490.465
 20
175.958
  0
VERTEX
  8
Layer1
 10
490.501
 20
175.93
  0
VERTEX
  8
Layer1
 10
490.539
 20
175.905
  0
VERTEX
  8
Layer1
 10
490.578
 20
175.883
  0
VERTEX
  8
Layer1
 10
490.619
 20
175.862
  0
VERTEX
  8
Layer1
 10
490.661
 20
175.845
  0
VERTEX
  8
Layer1
 10
490.704
 20
175.83
  0
VERTEX
  8
Layer1
 10
490.748
 20
175.818
  0
VERTEX
  8
Layer1
 10
490.793
 20
175.809
  0
VERTEX
  8
Layer1
 10
490.838
 20
175.803
  0
VERTEX
  8
Layer1
 10
490.883
 20
175.799
  0
VERTEX
  8
Layer1
 10
490.928
 20
175.799
  0
VERTEX
  8
Layer1
 10
490.974
 20
175.801
  0
VERTEX
  8
Layer1
 10
491.019
 20
175.806
  0
VERTEX
  8
Layer1
 10
491.064
 20
175.814
  0
VERTEX
  8
Layer1
 10
491.108
 20
175.825
  0
VERTEX
  8
Layer1
 10
491.151
 20
175.839
  0
VERTEX
  8
Layer1
 10
491.194
 20
175.855
  0
VERTEX
  8
Layer1
 10
491.235
 20
175.874
  0
VERTEX
  8
Layer1
 10
491.275
 20
175.896
  0
VERTEX
  8
Layer1
 10
491.314
 20
175.92
  0
VERTEX
  8
Layer1
 10
491.351
 20
175.947
  0
VERTEX
  8
Layer1
 10
491.386
 20
175.976
  0
SEQEND
  0
LINE
  8
Layer1
  6
CONTINUOUS
 62
7
 10
495.118
 20
177.222
 11
495.118
 21
174.099
  0
LINE
  8
Layer1
  6
CONTINUOUS
 62
7
 10
501.029
 20
177.222
 11
501.029
 21
174.099
  0
LINE
  8
Layer1
  6
CONTINUOUS
 62
7
 10
495.924
 20
163.946
 11
500.312
 21
163.946
  0
LINE
  8
Layer1
  6
CONTINUOUS
 62
7
 10
495.118
 20
164.495
 11
501.118
 21
164.495
  0
LINE
  8
Layer1
  6
CONTINUOUS
 62
7
 10
495.924
 20
163.946
 11
495.118
 21
164.495
  0
LINE
  8
Layer1
  6
CONTINUOUS
 62
7
 10
500.312
 20
163.946
 11
501.118
 21
164.495
  0
LINE
  8
Layer1
  6
CONTINUOUS
 62
7
 10
503.229
 20
170.367
 11
503.229
 21
173.454
  0
LINE
  8
Layer1
  6
CONTINUOUS
 62
7
 10
503.229
 20
173.454
 11
502.111
 21
174.099
  0
LINE
  8
Layer1
  6
CONTINUOUS
 62
7
 10
502.111
 20
174.099
 11
493.221
 21
174.099
  0
LINE
  8
Layer1
  6
CONTINUOUS
 62
7
 10
493.221
 20
174.099
 11
492.103
 21
173.454
  0
LINE
  8
Layer1
  6
CONTINUOUS
 62
7
 10
492.103
 20
173.454
 11
492.103
 21
170.367
  0
LINE
  8
Layer1
  6
CONTINUOUS
 62
7
 10
500.694
 20
170.367
 11
500.694
 21
173.454
  0
LINE
  8
Layer1
  6
CONTINUOUS
 62
7
 10
495.118
 20
170.367
 11
495.118
 21
173.454
  0
POLYLINE
  8
Layer1
  6
CONTINUOUS
 62
7
 66
1
 10
0
 20
0
 30
0
  0
VERTEX
  8
Layer1
 10
500.694
 20
173.453
  0
VERTEX
  8
Layer1
 10
500.592
 20
173.485
  0
VERTEX
  8
Layer1
 10
500.489
 20
173.516
  0
VERTEX
  8
Layer1
 10
500.386
 20
173.545
  0
VERTEX
  8
Layer1
 10
500.282
 20
173.573
  0
VERTEX
  8
Layer1
 10
500.178
 20
173.599
  0
VERTEX
  8
Layer1
 10
500.074
 20
173.624
  0
VERTEX
  8
Layer1
 10
499.969
 20
173.648
  0
VERTEX
  8
Layer1
 10
499.864
 20
173.671
  0
VERTEX
  8
Layer1
 10
499.759
 20
173.692
  0
VERTEX
  8
Layer1
 10
499.654
 20
173.711
  0
VERTEX
  8
Layer1
 10
499.548
 20
173.73
  0
VERTEX
  8
Layer1
 10
499.442
 20
173.747
  0
VERTEX
  8
Layer1
 10
499.336
 20
173.763
  0
VERTEX
  8
Layer1
 10
499.23
 20
173.777
  0
VERTEX
  8
Layer1
 10
499.123
 20
173.79
  0
VERTEX
  8
Layer1
 10
499.016
 20
173.802
  0
VERTEX
  8
Layer1
 10
498.91
 20
173.812
  0
VERTEX
  8
Layer1
 10
498.803
 20
173.821
  0
VERTEX
  8
Layer1
 10
498.696
 20
173.828
  0
VERTEX
  8
Layer1
 10
498.589
 20
173.835
  0
VERTEX
  8
Layer1
 10
498.481
 20
173.839
  0
VERTEX
  8
Layer1
 10
498.374
 20
173.843
  0
VERTEX
  8
Layer1
 10
498.267
 20
173.845
  0
VERTEX
  8
Layer1
 10
498.16
 20
173.846
  0
VERTEX
  8
Layer1
 10
498.052
 20
173.845
  0
VERTEX
  8
Layer1
 10
497.945
 20
173.843
  0
VERTEX
  8
Layer1
 10
497.838
 20
173.839
  0
VERTEX
  8
Layer1
 10
497.731
 20
173.835
  0
VERTEX
  8
Layer1
 10
497.624
 20
173.828
  0
VERTEX
  8
Layer1
 10
497.516
 20
173.821
  0
VERTEX
  8
Layer1
 10
497.41
 20
173.812
  0
VERTEX
  8
Layer1
 10
497.303
 20
173.802
  0
VERTEX
  8
Layer1
 10
497.196
 20
173.79
  0
VERTEX
  8
Layer1
 10
497.09
 20
173.777
  0
VERTEX
  8
Layer1
 10
496.983
 20
173.763
  0
VERTEX
  8
Layer1
 10
496.877
 20
173.747
  0
VERTEX
  8
Layer1
 10
496.771
 20
173.73
  0
VERTEX
  8
Layer1
 10
496.666
 20
173.711
  0
VERTEX
  8
Layer1
 10
496.56
 20
173.692
  0
VERTEX
  8
Layer1
 10
496.455
 20
173.671
  0
VERTEX
  8
Layer1
 10
496.35
 20
173.648
  0
VERTEX
  8
Layer1
 10
496.245
 20
173.624
  0
VERTEX
  8
Layer1
 10
496.141
 20
173.599
  0
VERTEX
  8
Layer1
 10
496.037
 20
173.573
  0
VERTEX
  8
Layer1
 10
495.933
 20
173.545
  0
VERTEX
  8
Layer1
 10
495.83
 20
173.516
  0
VERTEX
  8
Layer1
 10
495.727
 20
173.485
  0
VERTEX
  8
Layer1
 10
495.625
 20
173.453
  0
SEQEND
  0
POLYLINE
  8
Layer1
  6
CONTINUOUS
 62
7
 66
1
 10
0
 20
0
 30
0
  0
VERTEX
  8
Layer1
 10
503.229
 20
173.453
  0
VERTEX
  8
Layer1
 10
503.182
 20
173.485
  0
VERTEX
  8
Layer1
 10
503.135
 20
173.514
  0
VERTEX
  8
Layer1
 10
503.087
 20
173.543
  0
VERTEX
  8
Layer1
 10
503.038
 20
173.571
  0
VERTEX
  8
Layer1
 10
502.988
 20
173.597
  0
VERTEX
  8
Layer1
 10
502.938
 20
173.622
  0
VERTEX
  8
Layer1
 10
502.887
 20
173.646
  0
VERTEX
  8
Layer1
 10
502.836
 20
173.668
  0
VERTEX
  8
Layer1
 10
502.784
 20
173.69
  0
VERTEX
  8
Layer1
 10
502.731
 20
173.709
  0
VERTEX
  8
Layer1
 10
502.678
 20
173.728
  0
VERTEX
  8
Layer1
 10
502.625
 20
173.745
  0
VERTEX
  8
Layer1
 10
502.571
 20
173.761
  0
VERTEX
  8
Layer1
 10
502.517
 20
173.776
  0
VERTEX
  8
Layer1
 10
502.462
 20
173.789
  0
VERTEX
  8
Layer1
 10
502.408
 20
173.801
  0
VERTEX
  8
Layer1
 10
502.352
 20
173.811
  0
VERTEX
  8
Layer1
 10
502.297
 20
173.82
  0
VERTEX
  8
Layer1
 10
502.241
 20
173.828
  0
VERTEX
  8
Layer1
 10
502.186
 20
173.834
  0
VERTEX
  8
Layer1
 10
502.13
 20
173.839
  0
VERTEX
  8
Layer1
 10
502.074
 20
173.843
  0
VERTEX
  8
Layer1
 10
502.018
 20
173.845
  0
VERTEX
  8
Layer1
 10
501.962
 20
173.846
  0
VERTEX
  8
Layer1
 10
501.905
 20
173.845
  0
VERTEX
  8
Layer1
 10
501.849
 20
173.843
  0
VERTEX
  8
Layer1
 10
501.793
 20
173.839
  0
VERTEX
  8
Layer1
 10
501.737
 20
173.834
  0
VERTEX
  8
Layer1
 10
501.682
 20
173.828
  0
VERTEX
  8
Layer1
 10
501.626
 20
173.82
  0
VERTEX
  8
Layer1
 10
501.571
 20
173.811
  0
VERTEX
  8
Layer1
 10
501.516
 20
173.801
  0
VERTEX
  8
Layer1
 10
501.461
 20
173.789
  0
VERTEX
  8
Layer1
 10
501.406
 20
173.776
  0
VERTEX
  8
Layer1
 10
501.352
 20
173.761
  0
VERTEX
  8
Layer1
 10
501.298
 20
173.745
  0
VERTEX
  8
Layer1
 10
501.245
 20
173.728
  0
VERTEX
  8
Layer1
 10
501.192
 20
173.709
  0
VERTEX
  8
Layer1
 10
501.139
 20
173.69
  0
VERTEX
  8
Layer1
 10
501.087
 20
173.668
  0
VERTEX
  8
Layer1
 10
501.036
 20
173.646
  0
VERTEX
  8
Layer1
 10
500.985
 20
173.622
  0
VERTEX
  8
Layer1
 10
500.935
 20
173.597
  0
VERTEX
  8
Layer1
 10
500.885
 20
173.571
  0
VERTEX
  8
Layer1
 10
500.836
 20
173.543
  0
VERTEX
  8
Layer1
 10
500.788
 20
173.514
  0
VERTEX
  8
Layer1
 10
500.741
 20
173.485
  0
VERTEX
  8
Layer1
 10
500.694
 20
173.453
  0
SEQEND
  0
POLYLINE
  8
Layer1
  6
CONTINUOUS
 62
7
 66
1
 10
0
 20
0
 30
0
  0
VERTEX
  8
Layer1
 10
494.638
 20
173.453
  0
VERTEX
  8
Layer1
 10
494.592
 20
173.485
  0
VERTEX
  8
Layer1
 10
494.544
 20
173.514
  0
VERTEX
  8
Layer1
 10
494.496
 20
173.543
  0
VERTEX
  8
Layer1
 10
494.447
 20
173.571
  0
VERTEX
  8
Layer1
 10
494.397
 20
173.597
  0
VERTEX
  8
Layer1
 10
494.347
 20
173.622
  0
VERTEX
  8
Layer1
 10
494.296
 20
173.646
  0
VERTEX
  8
Layer1
 10
494.245
 20
173.668
  0
VERTEX
  8
Layer1
 10
494.193
 20
173.69
  0
VERTEX
  8
Layer1
 10
494.14
 20
173.709
  0
VERTEX
  8
Layer1
 10
494.088
 20
173.728
  0
VERTEX
  8
Layer1
 10
494.034
 20
173.745
  0
VERTEX
  8
Layer1
 10
493.98
 20
173.761
  0
VERTEX
  8
Layer1
 10
493.926
 20
173.776
  0
VERTEX
  8
Layer1
 10
493.872
 20
173.789
  0
VERTEX
  8
Layer1
 10
493.817
 20
173.801
  0
VERTEX
  8
Layer1
 10
493.762
 20
173.811
  0
VERTEX
  8
Layer1
 10
493.706
 20
173.82
  0
VERTEX
  8
Layer1
 10
493.651
 20
173.828
  0
VERTEX
  8
Layer1
 10
493.595
 20
173.834
  0
VERTEX
  8
Layer1
 10
493.539
 20
173.839
  0
VERTEX
  8
Layer1
 10
493.483
 20
173.843
  0
VERTEX
  8
Layer1
 10
493.427
 20
173.845
  0
VERTEX
  8
Layer1
 10
493.371
 20
173.846
  0
VERTEX
  8
Layer1
 10
493.315
 20
173.845
  0
VERTEX
  8
Layer1
 10
493.259
 20
173.843
  0
VERTEX
  8
Layer1
 10
493.203
 20
173.839
  0
VERTEX
  8
Layer1
 10
493.147
 20
173.834
  0
VERTEX
  8
Layer1
 10
493.091
 20
173.828
  0
VERTEX
  8
Layer1
 10
493.035
 20
173.82
  0
VERTEX
  8
Layer1
 10
492.98
 20
173.811
  0
VERTEX
  8
Layer1
 10
492.925
 20
173.801
  0
VERTEX
  8
Layer1
 10
492.87
 20
173.789
  0
VERTEX
  8
Layer1
 10
492.815
 20
173.776
  0
VERTEX
  8
Layer1
 10
492.761
 20
173.761
  0
VERTEX
  8
Layer1
 10
492.707
 20
173.745
  0
VERTEX
  8
Layer1
 10
492.654
 20
173.728
  0
VERTEX
  8
Layer1
 10
492.601
 20
173.709
  0
VERTEX
  8
Layer1
 10
492.548
 20
173.69
  0
VERTEX
  8
Layer1
 10
492.497
 20
173.668
  0
VERTEX
  8
Layer1
 10
492.445
 20
173.646
  0
VERTEX
  8
Layer1
 10
492.394
 20
173.622
  0
VERTEX
  8
Layer1
 10
492.344
 20
173.597
  0
VERTEX
  8
Layer1
 10
492.294
 20
173.571
  0
VERTEX
  8
Layer1
 10
492.246
 20
173.543
  0
VERTEX
  8
Layer1
 10
492.197
 20
173.514
  0
VERTEX
  8
Layer1
 10
492.15
 20
173.485
  0
VERTEX
  8
Layer1
 10
492.103
 20
173.453
  0
SEQEND
  0
POLYLINE
  8
Layer1
  6
CONTINUOUS
 62
7
 66
1
 10
0
 20
0
 30
0
 70
1
  0
VERTEX
  8
Layer1
 10
503.424
 20
177.209
  0
VERTEX
  8
Layer1
 10
503.419
 20
177.281
  0
VERTEX
  8
Layer1
 10
503.406
 20
177.351
  0
VERTEX
  8
Layer1
 10
503.383
 20
177.418
  0
VERTEX
  8
Layer1
 10
503.351
 20
177.482
  0
VERTEX
  8
Layer1
 10
503.311
 20
177.542
  0
VERTEX
  8
Layer1
 10
503.264
 20
177.595
  0
VERTEX
  8
Layer1
 10
503.21
 20
177.643
  0
VERTEX
  8
Layer1
 10
503.151
 20
177.682
  0
VERTEX
  8
Layer1
 10
503.087
 20
177.714
  0
VERTEX
  8
Layer1
 10
503.019
 20
177.737
  0
VERTEX
  8
Layer1
 10
502.949
 20
177.751
  0
VERTEX
  8
Layer1
 10
502.878
 20
177.755
  0
VERTEX
  8
Layer1
 10
502.807
 20
177.751
  0
VERTEX
  8
Layer1
 10
502.737
 20
177.737
  0
VERTEX
  8
Layer1
 10
502.669
 20
177.714
  0
VERTEX
  8
Layer1
 10
502.605
 20
177.682
  0
VERTEX
  8
Layer1
 10
502.546
 20
177.643
  0
VERTEX
  8
Layer1
 10
502.492
 20
177.595
  0
VERTEX
  8
Layer1
 10
502.445
 20
177.542
  0
VERTEX
  8
Layer1
 10
502.405
 20
177.482
  0
VERTEX
  8
Layer1
 10
502.374
 20
177.418
  0
VERTEX
  8
Layer1
 10
502.351
 20
177.351
  0
VERTEX
  8
Layer1
 10
502.337
 20
177.281
  0
VERTEX
  8
Layer1
 10
502.332
 20
177.209
  0
VERTEX
  8
Layer1
 10
502.337
 20
177.138
  0
VERTEX
  8
Layer1
 10
502.351
 20
177.068
  0
VERTEX
  8
Layer1
 10
502.374
 20
177
  0
VERTEX
  8
Layer1
 10
502.405
 20
176.936
  0
VERTEX
  8
Layer1
 10
502.445
 20
176.877
  0
VERTEX
  8
Layer1
 10
502.492
 20
176.823
  0
VERTEX
  8
Layer1
 10
502.546
 20
176.776
  0
VERTEX
  8
Layer1
 10
502.605
 20
176.736
  0
VERTEX
  8
Layer1
 10
502.669
 20
176.705
  0
VERTEX
  8
Layer1
 10
502.737
 20
176.682
  0
VERTEX
  8
Layer1
 10
502.807
 20
176.668
  0
VERTEX
  8
Layer1
 10
502.878
 20
176.663
  0
VERTEX
  8
Layer1
 10
502.949
 20
176.668
  0
VERTEX
  8
Layer1
 10
503.019
 20
176.682
  0
VERTEX
  8
Layer1
 10
503.087
 20
176.705
  0
VERTEX
  8
Layer1
 10
503.151
 20
176.736
  0
VERTEX
  8
Layer1
 10
503.21
 20
176.776
  0
VERTEX
  8
Layer1
 10
503.264
 20
176.823
  0
VERTEX
  8
Layer1
 10
503.311
 20
176.877
  0
VERTEX
  8
Layer1
 10
503.351
 20
176.936
  0
VERTEX
  8
Layer1
 10
503.383
 20
177
  0
VERTEX
  8
Layer1
 10
503.406
 20
177.068
  0
VERTEX
  8
Layer1
 10
503.419
 20
177.138
  0
SEQEND
  0
LINE
  8
Layer1
  6
CONTINUOUS
 62
7
 10
495.118
 20
164.495
 11
495.118
 21
170.367
  0
LINE
  8
Layer1
  6
CONTINUOUS
 62
7
 10
501.127
 20
164.495
 11
501.127
 21
170.367
  0
LINE
  8
Layer1
  6
CONTINUOUS
 62
7
 10
492.103
 20
170.367
 11
502.242
 21
170.367
  0
LINE
  8
Layer1
  6
DASHED1
 62
7
 10
523.66
 20
163.867
 11
523.66
 21
157.167
  0
LINE
  8
Layer1
  6
DASHED1
 62
7
 10
517.66
 20
163.867
 11
517.66
 21
157.167
  0
LINE
  8
Layer1
  6
PHANTOM1
 62
7
 10
574.151
 20
197.567
 11
533.051
 21
197.567
  0
LINE
  8
Layer1
  6
PHANTOM1
 62
7
 10
574.151
 20
182.567
 11
533.051
 21
182.567
  0
LINE
  8
Layer1
  6
PHANTOM1
 62
7
 10
533.051
 20
197.567
 11
533.051
 21
182.567
  0
LINE
  8
Layer1
  6
CONTINUOUS
 62
7
 10
342.521
 20
104.167
 11
342.521
 21
88.1671
  0
LINE
  8
Layer1
  6
CONTINUOUS
 62
7
 10
172.521
 20
88.1671
 11
172.521
 21
104.167
  0
LINE
  8
Layer1
  6
CONTINUOUS
 62
7
 10
173.521
 20
105.167
 11
189.521
 21
105.167
  0
LINE
  8
Layer1
  6
CENTER1
 62
7
 10
182.521
 20
109.846
 11
182.521
 21
83.9501
  0
LINE
  8
Layer1
  6
CENTER1
 62
7
 10
332.521
 20
109.309
 11
332.521
 21
82.4741
  0
LINE
  8
Layer1
  6
CONTINUOUS
 62
7
 10
322.521
 20
156.167
 11
322.521
 21
108.167
  0
LINE
  8
Layer1
  6
CONTINUOUS
 62
7
 10
192.521
 20
156.167
 11
192.521
 21
108.167
  0
LINE
  8
Layer1
  6
CONTINUOUS
 62
7
 10
207.521
 20
156.167
 11
207.521
 21
107.167
  0
LINE
  8
Layer1
  6
CONTINUOUS
 62
7
 10
307.521
 20
107.167
 11
307.521
 21
156.167
  0
LINE
  8
Layer1
  6
CONTINUOUS
 62
7
 10
207.521
 20
107.167
 11
307.521
 21
107.167
  0
LINE
  8
Layer1
  6
CONTINUOUS
 62
7
 10
341.521
 20
105.167
 11
325.521
 21
105.167
  0
ARC
  8
Layer1
  6
CONTINUOUS
 62
7
 10
189.521
 20
108.167
 40
3
 50
270
 51
2.03555e-013
  0
ARC
  8
Layer1
  6
CONTINUOUS
 62
7
 10
325.521
 20
108.167
 40
3
 50
180
 51
270
  0
LINE
  8
Layer1
  6
CONTINUOUS
 62
7
 10
193.521
 20
172.167
 11
192.521
 21
171.167
  0
LINE
  8
Layer1
  6
CONTINUOUS
 62
7
 10
192.521
 20
158.167
 11
193.521
 21
157.167
  0
LINE
  8
Layer1
  6
CONTINUOUS
 62
7
 10
193.521
 20
157.167
 11
192.521
 21
156.167
  0
LINE
  8
Layer1
  6
CONTINUOUS
 62
7
 10
321.521
 20
172.167
 11
322.521
 21
171.167
  0
LINE
  8
Layer1
  6
CONTINUOUS
 62
7
 10
322.521
 20
158.167
 11
321.521
 21
157.167
  0
LINE
  8
Layer1
  6
CONTINUOUS
 62
7
 10
321.521
 20
157.167
 11
322.521
 21
156.167
  0
LINE
  8
Layer1
  6
CONTINUOUS
 62
7
 10
308.521
 20
156.967
 11
315.877
 21
156.967
  0
LINE
  8
Layer1
  6
CONTINUOUS
 62
7
 10
206.521
 20
157.167
 11
205.317
 21
157.167
  0
LINE
  8
Layer1
  6
CONTINUOUS
 62
7
 10
206.521
 20
157.167
 11
207.521
 21
156.167
  0
LINE
  8
Layer1
  6
CONTINUOUS
 62
7
 10
307.521
 20
155.967
 11
308.521
 21
156.967
  0
LINE
  8
Layer1
  6
CONTINUOUS
 62
7
 10
208.521
 20
157.167
 11
306.521
 21
157.167
  0
LINE
  8
Layer1
  6
CONTINUOUS
 62
7
 10
306.521
 20
157.167
 11
307.521
 21
156.167
  0
LINE
  8
Layer1
  6
CONTINUOUS
 62
7
 10
307.521
 20
108.167
 11
306.521
 21
107.167
  0
LINE
  8
Layer1
  6
CONTINUOUS
 62
7
 10
208.521
 20
107.167
 11
207.521
 21
108.167
  0
LINE
  8
Layer1
  6
CONTINUOUS
 62
7
 10
207.521
 20
156.167
 11
208.521
 21
157.167
  0
LINE
  8
Layer1
  6
DASHED1
 62
7
 10
305.521
 20
149.167
 11
305.521
 21
170.167
  0
LINE
  8
Layer1
  6
DASHED1
 62
7
 10
209.521
 20
149.167
 11
209.521
 21
170.167
  0
LINE
  8
Layer1
  6
CONTINUOUS
 62
7
 10
191.521
 20
218.167
 11
191.521
 21
231.167
  0
LINE
  8
Layer1
  6
CONTINUOUS
 62
7
 10
323.521
 20
218.167
 11
323.521
 21
231.167
  0
LINE
  8
Layer1
  6
CONTINUOUS
 62
7
 10
322.521
 20
232.167
 11
192.521
 21
232.167
  0
LINE
  8
Layer1
  6
CONTINUOUS
 62
7
 10
192.521
 20
217.167
 11
207.521
 21
217.167
  0
LINE
  8
Layer1
  6
CONTINUOUS
 62
7
 10
322.521
 20
217.167
 11
307.521
 21
217.167
  0
LINE
  8
Layer1
  6
CONTINUOUS
 62
7
 10
173.521
 20
105.167
 11
172.521
 21
104.167
  0
LINE
  8
Layer1
  6
CONTINUOUS
 62
7
 10
172.521
 20
88.1671
 11
173.521
 21
87.1671
  0
LINE
  8
Layer1
  6
CONTINUOUS
 62
7
 10
341.521
 20
87.1671
 11
342.521
 21
88.1671
  0
LINE
  8
Layer1
  6
CONTINUOUS
 62
7
 10
342.521
 20
104.167
 11
341.521
 21
105.167
  0
LINE
  8
Layer1
  6
DASHED1
 62
7
 10
303.521
 20
147.167
 11
211.521
 21
147.167
  0
LINE
  8
Layer1
  6
CENTER1
 62
7
 10
200.021
 20
237.034
 11
200.021
 21
207.525
  0
LINE
  8
Layer1
  6
CENTER1
 62
7
 10
315.021
 20
237.034
 11
315.021
 21
208.599
  0
LINE
  8
Layer1
  6
CONTINUOUS
 62
7
 10
192.521
 20
232.167
 11
191.521
 21
231.167
  0
LINE
  8
Layer1
  6
CONTINUOUS
 62
7
 10
322.521
 20
232.167
 11
323.521
 21
231.167
  0
LINE
  8
Layer1
  6
CONTINUOUS
 62
7
 10
323.521
 20
218.167
 11
322.521
 21
217.167
  0
LINE
  8
Layer1
  6
CONTINUOUS
 62
7
 10
191.521
 20
218.167
 11
192.521
 21
217.167
  0
ARC
  8
Layer1
  6
CONTINUOUS
 62
7
 10
207.521
 20
215.167
 40
2
 50
0
 51
90
  0
ARC
  8
Layer1
  6
CONTINUOUS
 62
7
 10
307.521
 20
215.167
 40
2
 50
90
 51
180
  0
LINE
  8
Layer1
  6
DASHED1
 62
7
 10
209.521
 20
149.167
 11
211.521
 21
147.167
  0
LINE
  8
Layer1
  6
DASHED1
 62
7
 10
303.521
 20
147.167
 11
305.521
 21
149.167
  0
LINE
  8
Layer1
  6
CONTINUOUS
 62
7
 10
305.521
 20
170.167
 11
305.521
 21
215.167
  0
LINE
  8
Layer1
  6
CONTINUOUS
 62
7
 10
209.521
 20
170.167
 11
209.521
 21
215.167
  0
LINE
  8
Layer1
  6
CENTER1
 62
7
 10
315.021
 20
175.818
 11
315.021
 21
147.662
  0
LINE
  8
Layer1
  6
CENTER1
 62
7
 10
200.021
 20
174.464
 11
200.021
 21
152.793
  0
LINE
  8
Layer1
  6
CONTINUOUS
 62
7
 10
465.151
 20
457.895
 11
573.185
 21
457.895
  0
LINE
  8
Layer1
  6
CONTINUOUS
 62
7
 10
465.151
 20
437.895
 11
531.151
 21
437.895
  0
LINE
  8
Layer1
  6
CONTINUOUS
 62
7
 10
573.185
 20
438.895
 11
534.185
 21
438.895
  0
LINE
  8
Layer1
  6
CONTINUOUS
 62
7
 10
465.151
 20
307.895
 11
531.185
 21
307.895
  0
LINE
  8
Layer1
  6
CONTINUOUS
 62
7
 10
465.151
 20
287.895
 11
574.185
 21
287.895
  0
LINE
  8
Layer1
  6
CONTINUOUS
 62
7
 10
534.185
 20
306.895
 11
573.185
 21
306.895
  0
LINE
  8
Layer1
  6
CONTINUOUS
 62
7
 10
585.151
 20
437.895
 11
575.151
 21
437.895
  0
LINE
  8
Layer1
  6
CONTINUOUS
 62
7
 10
575.151
 20
307.895
 11
585.151
 21
307.895
  0
LINE
  8
Layer1
  6
CONTINUOUS
 62
7
 10
585.151
 20
307.895
 11
586.151
 21
308.895
  0
LINE
  8
Layer1
  6
CONTINUOUS
 62
7
 10
575.185
 20
307.895
 11
574.185
 21
308.895
  0
LINE
  8
Layer1
  6
CONTINUOUS
 62
7
 10
574.185
 20
307.895
 11
573.185
 21
306.895
  0
LINE
  8
Layer1
  6
CONTINUOUS
 62
7
 10
534.185
 20
306.895
 11
533.185
 21
307.895
  0
LINE
  8
Layer1
  6
CONTINUOUS
 62
7
 10
533.185
 20
437.895
 11
534.185
 21
438.895
  0
LINE
  8
Layer1
  6
CONTINUOUS
 62
7
 10
533.185
 20
437.895
 11
534.185
 21
438.895
  0
LINE
  8
Layer1
  6
CONTINUOUS
 62
7
 10
573.185
 20
438.895
 11
574.185
 21
437.895
  0
LINE
  8
Layer1
  6
CONTINUOUS
 62
7
 10
532.185
 20
308.895
 11
531.185
 21
307.895
  0
LINE
  8
Layer1
  6
CONTINUOUS
 62
7
 10
574.185
 20
436.895
 11
575.185
 21
437.895
  0
LINE
  8
Layer1
  6
CENTER1
 62
7
 10
525.681
 20
430.395
 11
593.176
 21
430.395
  0
CIRCLE
  8
Layer1
  6
CONTINUOUS
 62
7
 10
541.151
 20
430.395
 40
4.5
  0
CIRCLE
  8
Layer1
  6
CONTINUOUS
 62
7
 10
566.151
 20
430.395
 40
4.5
  0
CIRCLE
  8
Layer1
  6
CONTINUOUS
 62
7
 10
566.151
 20
315.395
 40
4.5
  0
CIRCLE
  8
Layer1
  6
CONTINUOUS
 62
7
 10
541.151
 20
315.395
 40
4.5
  0
CIRCLE
  8
Layer1
  6
DASHED1
 62
7
 10
541.151
 20
430.395
 40
7
  0
CIRCLE
  8
Layer1
  6
DASHED1
 62
7
 10
566.151
 20
430.395
 40
7
  0
CIRCLE
  8
Layer1
  6
DASHED1
 62
7
 10
566.151
 20
315.395
 40
7
  0
CIRCLE
  8
Layer1
  6
DASHED1
 62
7
 10
541.151
 20
315.395
 40
7
  0
LINE
  8
Layer1
  6
CENTER2
 62
7
 10
553.685
 20
417.193
 11
553.685
 21
327.264
  0
LINE
  8
Layer1
  6
CENTER1
 62
7
 10
566.151
 20
441.216
 11
566.151
 21
419.337
  0
LINE
  8
Layer1
  6
CENTER1
 62
7
 10
541.151
 20
441.216
 11
541.151
 21
420.445
  0
LINE
  8
Layer1
  6
CENTER1
 62
7
 10
529.553
 20
315.395
 11
550.566
 21
315.395
  0
LINE
  8
Layer1
  6
CENTER1
 62
7
 10
531.951
 20
430.395
 11
551.771
 21
430.395
  0
LINE
  8
Layer1
  6
CENTER1
 62
7
 10
566.151
 20
324.406
 11
566.151
 21
305.02
  0
LINE
  8
Layer1
  6
CENTER1
 62
7
 10
541.151
 20
322.288
 11
541.151
 21
300.408
  0
LINE
  8
Layer1
  6
CENTER1
 62
7
 10
557.732
 20
315.395
 11
580.027
 21
315.395
  0
LINE
  8
Layer1
  6
CENTER1
 62
7
 10
555.376
 20
430.395
 11
576.925
 21
430.395
  0
LINE
  8
Layer1
  6
CONTINUOUS
 62
7
 10
585.151
 20
437.895
 11
586.151
 21
436.895
  0
LINE
  8
Layer1
  6
CONTINUOUS
 62
7
 10
574.185
 20
456.895
 11
573.185
 21
457.895
  0
LINE
  8
Layer1
  6
CENTER1
 62
7
 10
474.151
 20
457.895
 11
474.151
 21
437.895
  0
LINE
  8
Layer1
  6
CENTER1
 62
7
 10
519.151
 20
457.895
 11
519.151
 21
437.895
  0
LINE
  8
Layer1
  6
CENTER1
 62
7
 10
564.151
 20
457.895
 11
564.151
 21
437.895
  0
LINE
  8
Layer1
  6
CENTER1
 62
7
 10
461.657
 20
447.895
 11
486.662
 21
447.895
  0
LINE
  8
Layer1
  6
CENTER1
 62
7
 10
453.925
 20
297.895
 11
483.359
 21
297.895
  0
LINE
  8
Layer1
  6
CENTER1
 62
7
 10
474.151
 20
307.895
 11
474.151
 21
280.785
  0
LINE
  8
Layer1
  6
CENTER1
 62
7
 10
519.151
 20
307.895
 11
519.151
 21
279.882
  0
CIRCLE
  8
Layer1
  6
CONTINUOUS
 62
7
 10
519.151
 20
447.895
 40
7
  0
CIRCLE
  8
Layer1
  6
CONTINUOUS
 62
7
 10
519.151
 20
447.895
 40
4.5
  0
LINE
  8
Layer1
  6
CENTER1
 62
7
 10
519.151
 20
439.241
 11
519.151
 21
456.606
  0
LINE
  8
Layer1
  6
CENTER1
 62
7
 10
506.916
 20
447.895
 11
530.051
 21
447.895
  0
CIRCLE
  8
Layer1
  6
CONTINUOUS
 62
7
 10
519.151
 20
297.895
 40
7
  0
CIRCLE
  8
Layer1
  6
CONTINUOUS
 62
7
 10
519.151
 20
297.895
 40
4.5
  0
LINE
  8
Layer1
  6
CENTER1
 62
7
 10
508.11
 20
297.895
 11
530.186
 21
297.895
  0
LINE
  8
Layer1
  6
CONTINUOUS
 62
7
 10
460.651
 20
422.895
 11
464.151
 21
422.895
  0
LINE
  8
Layer1
  6
CONTINUOUS
 62
7
 10
460.651
 20
322.895
 11
464.151
 21
322.895
  0
LINE
  8
Layer1
  6
CONTINUOUS
 62
7
 10
459.651
 20
421.895
 11
460.651
 21
422.895
  0
LINE
  8
Layer1
  6
CONTINUOUS
 62
7
 10
459.651
 20
323.895
 11
460.651
 21
322.895
  0
LINE
  8
Layer1
  6
CENTER1
 62
7
 10
498.151
 20
356.62
 11
498.151
 21
387.392
  0
LINE
  8
Layer1
  6
CONTINUOUS
 62
7
 10
458.651
 20
322.895
 11
437.651
 21
322.895
  0
LINE
  8
Layer1
  6
CONTINUOUS
 62
7
 10
458.651
 20
422.895
 11
437.651
 21
422.895
  0
LINE
  8
Layer1
  6
CONTINUOUS
 62
7
 10
437.651
 20
322.895
 11
436.651
 21
323.895
  0
LINE
  8
Layer1
  6
CONTINUOUS
 62
7
 10
436.651
 20
421.895
 11
437.651
 21
422.895
  0
LINE
  8
Layer1
  6
CONTINUOUS
 62
7
 10
458.651
 20
422.895
 11
459.651
 21
421.895
  0
LINE
  8
Layer1
  6
CONTINUOUS
 62
7
 10
459.651
 20
323.895
 11
458.651
 21
322.895
  0
LINE
  8
Layer1
  6
CENTER1
 62
7
 10
424.028
 20
330.395
 11
491.052
 21
330.395
  0
LINE
  8
Layer1
  6
DASHED1
 62
7
 10
464.151
 20
322.895
 11
504.651
 21
322.895
  0
LINE
  8
Layer1
  6
DASHED1
 62
7
 10
464.151
 20
422.895
 11
504.651
 21
422.895
  0
LINE
  8
Layer1
  6
DASHED1
 62
7
 10
506.651
 20
322.895
 11
506.651
 21
422.895
  0
LINE
  8
Layer1
  6
DASHED1
 62
7
 10
504.651
 20
422.895
 11
504.651
 21
322.895
  0
LINE
  8
Layer1
  6
DASHED1
 62
7
 10
504.651
 20
421.895
 11
507.151
 21
421.895
  0
LINE
  8
Layer1
  6
DASHED1
 62
7
 10
506.651
 20
322.895
 11
574.185
 21
322.895
  0
LINE
  8
Layer1
  6
DASHED1
 62
7
 10
504.651
 20
323.895
 11
506.651
 21
323.895
  0
LINE
  8
Layer1
  6
DASHED1
 62
7
 10
506.651
 20
422.895
 11
574.185
 21
422.895
  0
LINE
  8
Layer1
  6
CENTER1
 62
7
 10
292.664
 20
149.667
 11
306.788
 21
149.667
  0
LINE
  8
Layer1
  6
CENTER1
 62
7
 10
300.021
 20
159.907
 11
300.021
 21
142.459
  0
CIRCLE
  8
Layer1
  6
CONTINUOUS
 62
7
 10
300.021
 20
149.667
 40
5.5
  0
CIRCLE
  8
Layer1
  6
CONTINUOUS
 62
7
 10
300.021
 20
149.667
 40
5
  0
POLYLINE
  8
Layer1
  6
CONTINUOUS
 62
7
 66
1
 10
0
 20
0
 30
0
 70
1
  0
VERTEX
  8
Layer1
 10
300.021
 20
152.527
  0
VERTEX
  8
Layer1
 10
297.544
 20
151.097
  0
VERTEX
  8
Layer1
 10
297.544
 20
148.237
  0
VERTEX
  8
Layer1
 10
300.021
 20
146.807
  0
VERTEX
  8
Layer1
 10
302.498
 20
148.237
  0
VERTEX
  8
Layer1
 10
302.498
 20
151.097
  0
SEQEND
  0
CIRCLE
  8
Layer1
  6
CONTINUOUS
 62
7
 10
300.021
 20
149.667
 40
2.86
  0
LINE
  8
Layer1
  6
CENTER1
 62
7
 10
207.664
 20
149.667
 11
221.788
 21
149.667
  0
LINE
  8
Layer1
  6
CENTER1
 62
7
 10
215.021
 20
159.907
 11
215.021
 21
142.459
  0
CIRCLE
  8
Layer1
  6
CONTINUOUS
 62
7
 10
215.021
 20
149.667
 40
5.5
  0
CIRCLE
  8
Layer1
  6
CONTINUOUS
 62
7
 10
215.021
 20
149.667
 40
5
  0
POLYLINE
  8
Layer1
  6
CONTINUOUS
 62
7
 66
1
 10
0
 20
0
 30
0
 70
1
  0
VERTEX
  8
Layer1
 10
215.021
 20
152.527
  0
VERTEX
  8
Layer1
 10
212.544
 20
151.097
  0
VERTEX
  8
Layer1
 10
212.544
 20
148.237
  0
VERTEX
  8
Layer1
 10
215.021
 20
146.807
  0
VERTEX
  8
Layer1
 10
217.498
 20
148.237
  0
VERTEX
  8
Layer1
 10
217.498
 20
151.097
  0
SEQEND
  0
CIRCLE
  8
Layer1
  6
CONTINUOUS
 62
7
 10
215.021
 20
149.667
 40
2.86
  0
LINE
  8
Layer1
  6
CENTER1
 62
7
 10
207.664
 20
114.667
 11
221.788
 21
114.667
  0
LINE
  8
Layer1
  6
CENTER1
 62
7
 10
215.021
 20
124.907
 11
215.021
 21
107.459
  0
CIRCLE
  8
Layer1
  6
CONTINUOUS
 62
7
 10
215.021
 20
114.667
 40
5.5
  0
CIRCLE
  8
Layer1
  6
CONTINUOUS
 62
7
 10
215.021
 20
114.667
 40
5
  0
POLYLINE
  8
Layer1
  6
CONTINUOUS
 62
7
 66
1
 10
0
 20
0
 30
0
 70
1
  0
VERTEX
  8
Layer1
 10
215.021
 20
117.527
  0
VERTEX
  8
Layer1
 10
212.544
 20
116.097
  0
VERTEX
  8
Layer1
 10
212.544
 20
113.237
  0
VERTEX
  8
Layer1
 10
215.021
 20
111.807
  0
VERTEX
  8
Layer1
 10
217.498
 20
113.237
  0
VERTEX
  8
Layer1
 10
217.498
 20
116.097
  0
SEQEND
  0
CIRCLE
  8
Layer1
  6
CONTINUOUS
 62
7
 10
215.021
 20
114.667
 40
2.86
  0
LINE
  8
Layer1
  6
CENTER1
 62
7
 10
292.664
 20
114.667
 11
306.788
 21
114.667
  0
LINE
  8
Layer1
  6
CENTER1
 62
7
 10
300.021
 20
124.907
 11
300.021
 21
107.459
  0
CIRCLE
  8
Layer1
  6
CONTINUOUS
 62
7
 10
300.021
 20
114.667
 40
5.5
  0
CIRCLE
  8
Layer1
  6
CONTINUOUS
 62
7
 10
300.021
 20
114.667
 40
5
  0
POLYLINE
  8
Layer1
  6
CONTINUOUS
 62
7
 66
1
 10
0
 20
0
 30
0
 70
1
  0
VERTEX
  8
Layer1
 10
300.021
 20
117.527
  0
VERTEX
  8
Layer1
 10
297.544
 20
116.097
  0
VERTEX
  8
Layer1
 10
297.544
 20
113.237
  0
VERTEX
  8
Layer1
 10
300.021
 20
111.807
  0
VERTEX
  8
Layer1
 10
302.498
 20
113.237
  0
VERTEX
  8
Layer1
 10
302.498
 20
116.097
  0
SEQEND
  0
CIRCLE
  8
Layer1
  6
CONTINUOUS
 62
7
 10
300.021
 20
114.667
 40
2.86
  0
LINE
  8
Layer1
  6
CONTINUOUS
 62
7
 10
305.521
 20
193.281
 11
209.521
 21
193.281
  0
TEXT
  8
Layer1
 62
7
 10
336.089
 20
132.067
 72
1
 11
336.089
 21
132.067
 40
6
 41
1
 50
90
  1
 35 
  0
LINE
  8
Layer1
  6
CONTINUOUS
 62
7
 10
306.788
 20
149.567
 11
338.089
 21
149.567
  0
LINE
  8
Layer1
  6
CONTINUOUS
 62
7
 10
306.788
 20
114.567
 11
338.089
 21
114.567
  0
POLYLINE
  8
Layer1
  6
CONTINUOUS
 62
7
 66
1
 10
0
 20
0
 30
0
  0
VERTEX
  8
Layer1
 10
336.089
 20
149.567
  0
VERTEX
  8
Layer1
 10
336.089
 20
114.567
  0
SEQEND
  0
POLYLINE
  8
Layer1
  6
CONTINUOUS
 62
7
 66
1
 10
0
 20
0
 30
0
 70
1
  0
VERTEX
  8
Layer1
 10
335.054
 20
145.703
  0
VERTEX
  8
Layer1
 10
336.089
 20
149.567
  0
VERTEX
  8
Layer1
 10
337.125
 20
145.703
  0
SEQEND
  0
POLYLINE
  8
Layer1
  6
CONTINUOUS
 62
7
 66
1
 10
0
 20
0
 30
0
 70
1
  0
VERTEX
  8
Layer1
 10
337.125
 20
118.431
  0
VERTEX
  8
Layer1
 10
336.089
 20
114.567
  0
VERTEX
  8
Layer1
 10
335.054
 20
118.431
  0
SEQEND
  0
TEXT
  8
Layer1
 62
7
 10
355.187
 20
132.167
 72
1
 11
355.187
 21
132.167
 40
6
 41
1
 50
90
  1
 50 
  0
LINE
  8
Layer1
  6
CONTINUOUS
 62
7
 10
307.521
 20
107.167
 11
357.187
 21
107.167
  0
LINE
  8
Layer1
  6
CONTINUOUS
 62
7
 10
321.521
 20
157.167
 11
357.187
 21
157.167
  0
POLYLINE
  8
Layer1
  6
CONTINUOUS
 62
7
 66
1
 10
0
 20
0
 30
0
  0
VERTEX
  8
Layer1
 10
355.187
 20
107.167
  0
VERTEX
  8
Layer1
 10
355.187
 20
157.167
  0
SEQEND
  0
POLYLINE
  8
Layer1
  6
CONTINUOUS
 62
7
 66
1
 10
0
 20
0
 30
0
 70
1
  0
VERTEX
  8
Layer1
 10
356.222
 20
111.031
  0
VERTEX
  8
Layer1
 10
355.187
 20
107.167
  0
VERTEX
  8
Layer1
 10
354.151
 20
111.031
  0
SEQEND
  0
POLYLINE
  8
Layer1
  6
CONTINUOUS
 62
7
 66
1
 10
0
 20
0
 30
0
 70
1
  0
VERTEX
  8
Layer1
 10
354.151
 20
153.303
  0
VERTEX
  8
Layer1
 10
355.187
 20
157.167
  0
VERTEX
  8
Layer1
 10
356.222
 20
153.303
  0
SEQEND
  0
TEXT
  8
Layer1
 62
7
 10
368.762
 20
109.667
 72
1
 11
368.762
 21
109.667
 40
6
 41
1
 50
90
  1
 45 
  0
LINE
  8
Layer1
  6
CONTINUOUS
 62
7
 10
307.051
 20
132.167
 11
370.762
 21
132.167
  0
LINE
  8
Layer1
  6
CONTINUOUS
 62
7
 10
335.991
 20
87.1671
 11
370.762
 21
87.1671
  0
POLYLINE
  8
Layer1
  6
CONTINUOUS
 62
7
 66
1
 10
0
 20
0
 30
0
  0
VERTEX
  8
Layer1
 10
368.762
 20
132.167
  0
VERTEX
  8
Layer1
 10
368.762
 20
87.1671
  0
SEQEND
  0
POLYLINE
  8
Layer1
  6
CONTINUOUS
 62
7
 66
1
 10
0
 20
0
 30
0
 70
1
  0
VERTEX
  8
Layer1
 10
367.727
 20
128.303
  0
VERTEX
  8
Layer1
 10
368.762
 20
132.167
  0
VERTEX
  8
Layer1
 10
369.797
 20
128.303
  0
SEQEND
  0
POLYLINE
  8
Layer1
  6
CONTINUOUS
 62
7
 66
1
 10
0
 20
0
 30
0
 70
1
  0
VERTEX
  8
Layer1
 10
369.797
 20
91.0311
  0
VERTEX
  8
Layer1
 10
368.762
 20
87.1671
  0
VERTEX
  8
Layer1
 10
367.727
 20
91.0311
  0
SEQEND
  0
TEXT
  8
Layer1
 62
7
 10
386.249
 20
129.667
 72
1
 11
386.249
 21
129.667
 40
6
 41
1
 50
90
  1
 85 
  0
LINE
  8
Layer1
  6
CONTINUOUS
 62
7
 10
321.521
 20
172.167
 11
388.249
 21
172.167
  0
LINE
  8
Layer1
  6
CONTINUOUS
 62
7
 10
368.762
 20
87.1671
 11
388.249
 21
87.1671
  0
POLYLINE
  8
Layer1
  6
CONTINUOUS
 62
7
 66
1
 10
0
 20
0
 30
0
  0
VERTEX
  8
Layer1
 10
386.249
 20
172.167
  0
VERTEX
  8
Layer1
 10
386.249
 20
87.1671
  0
SEQEND
  0
POLYLINE
  8
Layer1
  6
CONTINUOUS
 62
7
 66
1
 10
0
 20
0
 30
0
 70
1
  0
VERTEX
  8
Layer1
 10
385.214
 20
168.303
  0
VERTEX
  8
Layer1
 10
386.249
 20
172.167
  0
VERTEX
  8
Layer1
 10
387.284
 20
168.303
  0
SEQEND
  0
POLYLINE
  8
Layer1
  6
CONTINUOUS
 62
7
 66
1
 10
0
 20
0
 30
0
 70
1
  0
VERTEX
  8
Layer1
 10
387.284
 20
91.0311
  0
VERTEX
  8
Layer1
 10
386.249
 20
87.1671
  0
VERTEX
  8
Layer1
 10
385.214
 20
91.0311
  0
SEQEND
  0
TEXT
  8
Layer1
 62
7
 10
257.521
 20
76.6211
 72
1
 11
257.521
 21
76.6211
 40
6
 41
1
  1
 85 
  0
LINE
  8
Layer1
  6
CONTINUOUS
 62
7
 10
215.021
 20
107.359
 11
215.021
 21
74.6211
  0
LINE
  8
Layer1
  6
CONTINUOUS
 62
7
 10
300.021
 20
107.359
 11
300.021
 21
74.6211
  0
POLYLINE
  8
Layer1
  6
CONTINUOUS
 62
7
 66
1
 10
0
 20
0
 30
0
  0
VERTEX
  8
Layer1
 10
215.021
 20
76.6211
  0
VERTEX
  8
Layer1
 10
300.021
 20
76.6211
  0
SEQEND
  0
POLYLINE
  8
Layer1
  6
CONTINUOUS
 62
7
 66
1
 10
0
 20
0
 30
0
 70
1
  0
VERTEX
  8
Layer1
 10
218.885
 20
75.5861
  0
VERTEX
  8
Layer1
 10
215.021
 20
76.6211
  0
VERTEX
  8
Layer1
 10
218.885
 20
77.6561
  0
SEQEND
  0
POLYLINE
  8
Layer1
  6
CONTINUOUS
 62
7
 66
1
 10
0
 20
0
 30
0
 70
1
  0
VERTEX
  8
Layer1
 10
296.157
 20
77.6561
  0
VERTEX
  8
Layer1
 10
300.021
 20
76.6211
  0
VERTEX
  8
Layer1
 10
296.157
 20
75.5861
  0
SEQEND
  0
TEXT
  8
Layer1
 62
7
 10
257.521
 20
66.4971
 72
1
 11
257.521
 21
66.4971
 40
6
 41
1
  1
 100 
  0
LINE
  8
Layer1
  6
CONTINUOUS
 62
7
 10
207.521
 20
107.167
 11
207.521
 21
64.4971
  0
LINE
  8
Layer1
  6
CONTINUOUS
 62
7
 10
307.521
 20
108.167
 11
307.521
 21
64.4971
  0
POLYLINE
  8
Layer1
  6
CONTINUOUS
 62
7
 66
1
 10
0
 20
0
 30
0
  0
VERTEX
  8
Layer1
 10
207.521
 20
66.4971
  0
VERTEX
  8
Layer1
 10
307.521
 20
66.4971
  0
SEQEND
  0
POLYLINE
  8
Layer1
  6
CONTINUOUS
 62
7
 66
1
 10
0
 20
0
 30
0
 70
1
  0
VERTEX
  8
Layer1
 10
211.385
 20
65.4621
  0
VERTEX
  8
Layer1
 10
207.521
 20
66.4971
  0
VERTEX
  8
Layer1
 10
211.385
 20
67.5321
  0
SEQEND
  0
POLYLINE
  8
Layer1
  6
CONTINUOUS
 62
7
 66
1
 10
0
 20
0
 30
0
 70
1
  0
VERTEX
  8
Layer1
 10
303.657
 20
67.5321
  0
VERTEX
  8
Layer1
 10
307.521
 20
66.4971
  0
VERTEX
  8
Layer1
 10
303.657
 20
65.4621
  0
SEQEND
  0
LINE
  8
Layer1
  6
CENTER1
 62
7
 10
227.521
 20
152.584
 11
227.521
 21
146.832
  0
LINE
  8
Layer1
  6
CENTER1
 62
7
 10
225.25
 20
149.667
 11
230.441
 21
149.667
  0
CIRCLE
  8
Layer1
  6
CONTINUOUS
 62
7
 10
227.521
 20
149.667
 40
1.25
  0
LINE
  8
Layer1
  6
CENTER1
 62
7
 10
287.521
 20
117.584
 11
287.521
 21
111.832
  0
LINE
  8
Layer1
  6
CENTER1
 62
7
 10
285.25
 20
114.667
 11
290.441
 21
114.667
  0
CIRCLE
  8
Layer1
  6
CONTINUOUS
 62
7
 10
287.521
 20
114.667
 40
1.25
  0
TEXT
  8
Layer1
 62
7
 10
237.381
 20
135.754
 72
1
 11
237.381
 21
135.754
 40
6
 41
1
  1
 12.5 
  0
LINE
  8
Layer1
  6
CONTINUOUS
 62
7
 10
215.021
 20
142.359
 11
215.021
 21
133.754
  0
LINE
  8
Layer1
  6
CONTINUOUS
 62
7
 10
227.521
 20
146.732
 11
227.521
 21
133.754
  0
POLYLINE
  8
Layer1
  6
CONTINUOUS
 62
7
 66
1
 10
0
 20
0
 30
0
  0
VERTEX
  8
Layer1
 10
205.021
 20
135.754
  0
VERTEX
  8
Layer1
 10
215.021
 20
135.754
  0
SEQEND
  0
POLYLINE
  8
Layer1
  6
CONTINUOUS
 62
7
 66
1
 10
0
 20
0
 30
0
 70
1
  0
VERTEX
  8
Layer1
 10
211.157
 20
136.789
  0
VERTEX
  8
Layer1
 10
215.021
 20
135.754
  0
VERTEX
  8
Layer1
 10
211.157
 20
134.719
  0
SEQEND
  0
POLYLINE
  8
Layer1
  6
CONTINUOUS
 62
7
 66
1
 10
0
 20
0
 30
0
  0
VERTEX
  8
Layer1
 10
249.381
 20
135.754
  0
VERTEX
  8
Layer1
 10
227.521
 20
135.754
  0
SEQEND
  0
POLYLINE
  8
Layer1
  6
CONTINUOUS
 62
7
 66
1
 10
0
 20
0
 30
0
 70
1
  0
VERTEX
  8
Layer1
 10
231.385
 20
134.719
  0
VERTEX
  8
Layer1
 10
227.521
 20
135.754
  0
VERTEX
  8
Layer1
 10
231.385
 20
136.789
  0
SEQEND
  0
LINE
  8
Layer1
  6
CONTINUOUS
 62
7
 10
215.021
 20
135.754
 11
227.521
 21
135.754
  0
POLYLINE
  8
Layer1
  6
CONTINUOUS
 62
7
 66
1
 10
0
 20
0
 30
0
  0
VERTEX
  8
Layer1
 10
288.405
 20
113.642
  0
VERTEX
  8
Layer1
 10
325.045
 20
68.1081
  0
VERTEX
  8
Layer1
 10
325.045
 20
68.1081
  0
SEQEND
  0
POLYLINE
  8
Layer1
  6
CONTINUOUS
 62
7
 66
1
 10
0
 20
0
 30
0
 70
1
  0
VERTEX
  8
Layer1
 10
290.021
 20
109.983
  0
VERTEX
  8
Layer1
 10
288.405
 20
113.642
  0
VERTEX
  8
Layer1
 10
291.634
 20
111.281
  0
SEQEND
  0
LINE
  8
Layer1
  6
CONTINUOUS
 62
7
 10
325.045
 20
68.1081
 11
346.045
 21
68.1081
  0
TEXT
  8
Layer1
 62
7
 10
346.045
 20
70.1081
 72
2
 11
346.045
 21
70.1081
 40
6
 41
1
  1
2-φ2.5
  0
TEXT
  8
Layer1
 62
7
 10
317.682
 20
66.4971
 73
3
 11
317.682
 21
66.4971
 40
6
 41
1
  1
(センター穴）
  0
LINE
  8
Layer1
  6
DASHED1
 62
7
 10
574.237
 20
110.667
 11
585.702
 21
110.667
  0
LINE
  8
Layer1
  6
CONTINUOUS
 62
7
 10
586.151
 20
104.667
 11
593.651
 21
104.667
  0
LINE
  8
Layer1
  6
CONTINUOUS
 62
7
 10
586.151
 20
117.667
 11
593.651
 21
117.667
  0
LINE
  8
Layer1
  6
CONTINUOUS
 62
7
 10
593.651
 20
104.667
 11
593.651
 21
117.667
  0
LINE
  8
Layer1
  6
CONTINUOUS
 62
7
 10
594.151
 20
105.167
 11
594.151
 21
117.167
  0
LINE
  8
Layer1
  6
CONTINUOUS
 62
7
 10
593.651
 20
104.667
 11
594.151
 21
105.167
  0
LINE
  8
Layer1
  6
CONTINUOUS
 62
7
 10
593.651
 20
117.667
 11
594.151
 21
117.167
  0
LINE
  8
Layer1
  6
CONTINUOUS
 62
7
 10
586.151
 20
117.667
 11
586.151
 21
104.667
  0
LINE
  8
Layer1
  6
CONTINUOUS
 62
7
 10
586.728
 20
116.667
 11
593.074
 21
116.667
  0
LINE
  8
Layer1
  6
CONTINUOUS
 62
7
 10
587.305
 20
115.667
 11
592.497
 21
115.667
  0
LINE
  8
Layer1
  6
CONTINUOUS
 62
7
 10
587.882
 20
114.667
 11
591.92
 21
114.667
  0
LINE
  8
Layer1
  6
CONTINUOUS
 62
7
 10
588.459
 20
113.667
 11
591.343
 21
113.667
  0
LINE
  8
Layer1
  6
CONTINUOUS
 62
7
 10
586.151
 20
142.667
 11
593.651
 21
142.667
  0
LINE
  8
Layer1
  6
CONTINUOUS
 62
7
 10
586.151
 20
155.667
 11
593.651
 21
155.667
  0
LINE
  8
Layer1
  6
CONTINUOUS
 62
7
 10
593.651
 20
142.667
 11
593.651
 21
155.667
  0
LINE
  8
Layer1
  6
CONTINUOUS
 62
7
 10
594.151
 20
143.167
 11
594.151
 21
155.167
  0
LINE
  8
Layer1
  6
CONTINUOUS
 62
7
 10
593.651
 20
142.667
 11
594.151
 21
143.167
  0
LINE
  8
Layer1
  6
CONTINUOUS
 62
7
 10
593.651
 20
155.667
 11
594.151
 21
155.167
  0
LINE
  8
Layer1
  6
CONTINUOUS
 62
7
 10
586.151
 20
155.667
 11
586.151
 21
142.667
  0
LINE
  8
Layer1
  6
CONTINUOUS
 62
7
 10
586.728
 20
154.667
 11
593.074
 21
154.667
  0
LINE
  8
Layer1
  6
CONTINUOUS
 62
7
 10
587.305
 20
153.667
 11
592.497
 21
153.667
  0
LINE
  8
Layer1
  6
CONTINUOUS
 62
7
 10
587.882
 20
152.667
 11
591.92
 21
152.667
  0
LINE
  8
Layer1
  6
CONTINUOUS
 62
7
 10
588.459
 20
151.667
 11
591.343
 21
151.667
  0
LINE
  8
Layer1
  6
CONTINUOUS
 62
7
 10
586.151
 20
123.667
 11
593.651
 21
123.667
  0
LINE
  8
Layer1
  6
CONTINUOUS
 62
7
 10
586.151
 20
136.667
 11
593.651
 21
136.667
  0
LINE
  8
Layer1
  6
CONTINUOUS
 62
7
 10
593.651
 20
123.667
 11
593.651
 21
136.667
  0
LINE
  8
Layer1
  6
CONTINUOUS
 62
7
 10
594.151
 20
124.167
 11
594.151
 21
136.167
  0
LINE
  8
Layer1
  6
CONTINUOUS
 62
7
 10
593.651
 20
123.667
 11
594.151
 21
124.167
  0
LINE
  8
Layer1
  6
CONTINUOUS
 62
7
 10
593.651
 20
136.667
 11
594.151
 21
136.167
  0
LINE
  8
Layer1
  6
CONTINUOUS
 62
7
 10
586.151
 20
136.667
 11
586.151
 21
123.667
  0
LINE
  8
Layer1
  6
CONTINUOUS
 62
7
 10
586.728
 20
135.667
 11
593.074
 21
135.667
  0
LINE
  8
Layer1
  6
CONTINUOUS
 62
7
 10
587.305
 20
134.667
 11
592.497
 21
134.667
  0
LINE
  8
Layer1
  6
CONTINUOUS
 62
7
 10
587.882
 20
133.667
 11
591.92
 21
133.667
  0
LINE
  8
Layer1
  6
CONTINUOUS
 62
7
 10
588.459
 20
132.667
 11
591.343
 21
132.667
  0
LINE
  8
Layer1
  6
DASHED1
 62
7
 10
574.237
 20
111.167
 11
585.702
 21
111.167
  0
LINE
  8
Layer1
  6
DASHED1
 62
7
 10
574.194
 20
119.167
 11
586.194
 21
119.167
  0
LINE
  8
Layer1
  6
DASHED1
 62
7
 10
574.194
 20
119.667
 11
586.194
 21
119.667
  0
LINE
  8
Layer1
  6
CENTER1
 62
7
 10
600.608
 20
115.167
 11
564.159
 21
115.167
  0
LINE
  8
Layer1
  6
CONTINUOUS
 62
7
 10
573.151
 20
87.1671
 11
622.7
 21
87.1671
  0
TEXT
  8
Layer1
 62
7
 10
651.072
 20
132.814
 72
1
 11
651.072
 21
132.814
 40
6
 41
1
 50
90
  1
 110.4 
  0
LINE
  8
Layer1
  6
CONTINUOUS
 62
7
 10
574.151
 20
197.567
 11
653.072
 21
197.567
  0
LINE
  8
Layer1
  6
CONTINUOUS
 62
7
 10
620.7
 20
87.1671
 11
653.072
 21
87.1671
  0
POLYLINE
  8
Layer1
  6
CONTINUOUS
 62
7
 66
1
 10
0
 20
0
 30
0
  0
VERTEX
  8
Layer1
 10
651.072
 20
197.567
  0
VERTEX
  8
Layer1
 10
651.072
 20
87.1671
  0
SEQEND
  0
POLYLINE
  8
Layer1
  6
CONTINUOUS
 62
7
 66
1
 10
0
 20
0
 30
0
 70
1
  0
VERTEX
  8
Layer1
 10
650.037
 20
193.703
  0
VERTEX
  8
Layer1
 10
651.072
 20
197.567
  0
VERTEX
  8
Layer1
 10
652.107
 20
193.703
  0
SEQEND
  0
POLYLINE
  8
Layer1
  6
CONTINUOUS
 62
7
 66
1
 10
0
 20
0
 30
0
 70
1
  0
VERTEX
  8
Layer1
 10
652.107
 20
91.0311
  0
VERTEX
  8
Layer1
 10
651.072
 20
87.1671
  0
VERTEX
  8
Layer1
 10
650.037
 20
91.0311
  0
SEQEND
  0
TEXT
  8
Layer1
 62
7
 10
665.337
 20
159.667
 72
1
 11
665.337
 21
159.667
 40
6
 41
1
 50
90
  1
 145 
  0
LINE
  8
Layer1
  6
CONTINUOUS
 62
7
 10
571.551
 20
232.167
 11
667.337
 21
232.167
  0
LINE
  8
Layer1
  6
CONTINUOUS
 62
7
 10
651.072
 20
87.1671
 11
667.337
 21
87.1671
  0
POLYLINE
  8
Layer1
  6
CONTINUOUS
 62
7
 66
1
 10
0
 20
0
 30
0
  0
VERTEX
  8
Layer1
 10
665.337
 20
232.167
  0
VERTEX
  8
Layer1
 10
665.337
 20
87.1671
  0
SEQEND
  0
POLYLINE
  8
Layer1
  6
CONTINUOUS
 62
7
 66
1
 10
0
 20
0
 30
0
 70
1
  0
VERTEX
  8
Layer1
 10
664.302
 20
228.303
  0
VERTEX
  8
Layer1
 10
665.337
 20
232.167
  0
VERTEX
  8
Layer1
 10
666.373
 20
228.303
  0
SEQEND
  0
POLYLINE
  8
Layer1
  6
CONTINUOUS
 62
7
 66
1
 10
0
 20
0
 30
0
 70
1
  0
VERTEX
  8
Layer1
 10
666.373
 20
91.0311
  0
VERTEX
  8
Layer1
 10
665.337
 20
87.1671
  0
VERTEX
  8
Layer1
 10
664.302
 20
91.0311
  0
SEQEND
  0
TEXT
  8
Layer1
 62
7
 10
650.414
 20
167.804
 72
1
 11
650.414
 21
167.804
 40
6
 41
1
 50
90
  1
(シャットハイト） 
  0
TEXT
  8
Layer1
 62
7
 10
663.768
 20
191.127
 72
1
 11
663.768
 21
191.127
 40
6
 41
1
 50
90
  1
(オープンハイト）
  0
TEXT
  8
Layer1
 62
7
 10
553.651
 20
254.711
 72
1
 11
553.651
 21
254.711
 40
6
 41
1
  1
 41 
  0
LINE
  8
Layer1
  6
CONTINUOUS
 62
7
 10
533.151
 20
312.435
 11
533.151
 21
252.711
  0
LINE
  8
Layer1
  6
CONTINUOUS
 62
7
 10
574.151
 20
329.294
 11
574.151
 21
252.711
  0
POLYLINE
  8
Layer1
  6
CONTINUOUS
 62
7
 66
1
 10
0
 20
0
 30
0
  0
VERTEX
  8
Layer1
 10
533.151
 20
254.711
  0
VERTEX
  8
Layer1
 10
574.151
 20
254.711
  0
SEQEND
  0
POLYLINE
  8
Layer1
  6
CONTINUOUS
 62
7
 66
1
 10
0
 20
0
 30
0
 70
1
  0
VERTEX
  8
Layer1
 10
537.015
 20
253.675
  0
VERTEX
  8
Layer1
 10
533.151
 20
254.711
  0
VERTEX
  8
Layer1
 10
537.015
 20
255.746
  0
SEQEND
  0
POLYLINE
  8
Layer1
  6
CONTINUOUS
 62
7
 66
1
 10
0
 20
0
 30
0
 70
1
  0
VERTEX
  8
Layer1
 10
570.287
 20
255.746
  0
VERTEX
  8
Layer1
 10
574.151
 20
254.711
  0
VERTEX
  8
Layer1
 10
570.287
 20
253.675
  0
SEQEND
  0
TEXT
  8
Layer1
 62
7
 10
537.151
 20
269.801
 72
1
 11
537.151
 21
269.801
 40
6
 41
1
  1
 8 
  0
LINE
  8
Layer1
  6
CONTINUOUS
 62
7
 10
541.151
 20
303.764
 11
541.151
 21
267.801
  0
LINE
  8
Layer1
  6
CONTINUOUS
 62
7
 10
533.151
 20
292.204
 11
533.151
 21
267.801
  0
POLYLINE
  8
Layer1
  6
CONTINUOUS
 62
7
 66
1
 10
0
 20
0
 30
0
  0
VERTEX
  8
Layer1
 10
551.151
 20
269.801
  0
VERTEX
  8
Layer1
 10
541.151
 20
269.801
  0
SEQEND
  0
POLYLINE
  8
Layer1
  6
CONTINUOUS
 62
7
 66
1
 10
0
 20
0
 30
0
 70
1
  0
VERTEX
  8
Layer1
 10
545.015
 20
268.766
  0
VERTEX
  8
Layer1
 10
541.151
 20
269.801
  0
VERTEX
  8
Layer1
 10
545.015
 20
270.836
  0
SEQEND
  0
POLYLINE
  8
Layer1
  6
CONTINUOUS
 62
7
 66
1
 10
0
 20
0
 30
0
  0
VERTEX
  8
Layer1
 10
523.151
 20
269.801
  0
VERTEX
  8
Layer1
 10
533.151
 20
269.801
  0
SEQEND
  0
POLYLINE
  8
Layer1
  6
CONTINUOUS
 62
7
 66
1
 10
0
 20
0
 30
0
 70
1
  0
VERTEX
  8
Layer1
 10
529.287
 20
270.836
  0
VERTEX
  8
Layer1
 10
533.151
 20
269.801
  0
VERTEX
  8
Layer1
 10
529.287
 20
268.766
  0
SEQEND
  0
LINE
  8
Layer1
  6
CONTINUOUS
 62
7
 10
541.151
 20
269.801
 11
533.151
 21
269.801
  0
TEXT
  8
Layer1
 62
7
 10
553.651
 20
269.801
 72
1
 11
553.651
 21
269.801
 40
6
 41
1
  1
 25 
  0
LINE
  8
Layer1
  6
CONTINUOUS
 62
7
 10
541.151
 20
273.157
 11
541.151
 21
267.801
  0
LINE
  8
Layer1
  6
CONTINUOUS
 62
7
 10
566.151
 20
310.251
 11
566.151
 21
267.801
  0
POLYLINE
  8
Layer1
  6
CONTINUOUS
 62
7
 66
1
 10
0
 20
0
 30
0
  0
VERTEX
  8
Layer1
 10
541.151
 20
269.801
  0
VERTEX
  8
Layer1
 10
566.151
 20
269.801
  0
SEQEND
  0
POLYLINE
  8
Layer1
  6
CONTINUOUS
 62
7
 66
1
 10
0
 20
0
 30
0
 70
1
  0
VERTEX
  8
Layer1
 10
545.015
 20
268.766
  0
VERTEX
  8
Layer1
 10
541.151
 20
269.801
  0
VERTEX
  8
Layer1
 10
545.015
 20
270.836
  0
SEQEND
  0
POLYLINE
  8
Layer1
  6
CONTINUOUS
 62
7
 66
1
 10
0
 20
0
 30
0
 70
1
  0
VERTEX
  8
Layer1
 10
562.287
 20
270.836
  0
VERTEX
  8
Layer1
 10
566.151
 20
269.801
  0
VERTEX
  8
Layer1
 10
562.287
 20
268.766
  0
SEQEND
  0
TEXT
  8
Layer1
 62
7
 10
519.151
 20
483.88
 72
1
 11
519.151
 21
483.88
 40
6
 41
1
  1
 110 
  0
LINE
  8
Layer1
  6
CONTINUOUS
 62
7
 10
464.151
 20
457.895
 11
464.151
 21
485.88
  0
LINE
  8
Layer1
  6
CONTINUOUS
 62
7
 10
574.151
 20
451.641
 11
574.151
 21
485.88
  0
POLYLINE
  8
Layer1
  6
CONTINUOUS
 62
7
 66
1
 10
0
 20
0
 30
0
  0
VERTEX
  8
Layer1
 10
464.151
 20
483.88
  0
VERTEX
  8
Layer1
 10
574.151
 20
483.88
  0
SEQEND
  0
POLYLINE
  8
Layer1
  6
CONTINUOUS
 62
7
 66
1
 10
0
 20
0
 30
0
 70
1
  0
VERTEX
  8
Layer1
 10
468.014
 20
482.845
  0
VERTEX
  8
Layer1
 10
464.151
 20
483.88
  0
VERTEX
  8
Layer1
 10
468.014
 20
484.915
  0
SEQEND
  0
POLYLINE
  8
Layer1
  6
CONTINUOUS
 62
7
 66
1
 10
0
 20
0
 30
0
 70
1
  0
VERTEX
  8
Layer1
 10
570.287
 20
484.915
  0
VERTEX
  8
Layer1
 10
574.151
 20
483.88
  0
VERTEX
  8
Layer1
 10
570.287
 20
482.845
  0
SEQEND
  0
POLYLINE
  8
Layer1
  6
CONTINUOUS
 62
7
 66
1
 10
0
 20
0
 30
0
  0
VERTEX
  8
Layer1
 10
564.185
 20
483.88
  0
VERTEX
  8
Layer1
 10
574.185
 20
483.88
  0
SEQEND
  0
POLYLINE
  8
Layer1
  6
CONTINUOUS
 62
7
 66
1
 10
0
 20
0
 30
0
 70
1
  0
VERTEX
  8
Layer1
 10
570.321
 20
484.915
  0
VERTEX
  8
Layer1
 10
574.185
 20
483.88
  0
VERTEX
  8
Layer1
 10
570.321
 20
482.845
  0
SEQEND
  0
TEXT
  8
Layer1
 62
7
 10
469.151
 20
467.774
 72
1
 11
469.151
 21
467.774
 40
6
 41
1
  1
 10 
  0
LINE
  8
Layer1
  6
CONTINUOUS
 62
7
 10
474.151
 20
457.895
 11
474.151
 21
469.774
  0
POLYLINE
  8
Layer1
  6
CONTINUOUS
 62
7
 66
1
 10
0
 20
0
 30
0
  0
VERTEX
  8
Layer1
 10
484.151
 20
467.774
  0
VERTEX
  8
Layer1
 10
474.151
 20
467.774
  0
SEQEND
  0
POLYLINE
  8
Layer1
  6
CONTINUOUS
 62
7
 66
1
 10
0
 20
0
 30
0
 70
1
  0
VERTEX
  8
Layer1
 10
478.014
 20
466.739
  0
VERTEX
  8
Layer1
 10
474.151
 20
467.774
  0
VERTEX
  8
Layer1
 10
478.014
 20
468.809
  0
SEQEND
  0
POLYLINE
  8
Layer1
  6
CONTINUOUS
 62
7
 66
1
 10
0
 20
0
 30
0
  0
VERTEX
  8
Layer1
 10
454.151
 20
467.774
  0
VERTEX
  8
Layer1
 10
464.151
 20
467.774
  0
SEQEND
  0
POLYLINE
  8
Layer1
  6
CONTINUOUS
 62
7
 66
1
 10
0
 20
0
 30
0
 70
1
  0
VERTEX
  8
Layer1
 10
460.287
 20
468.809
  0
VERTEX
  8
Layer1
 10
464.151
 20
467.774
  0
VERTEX
  8
Layer1
 10
460.287
 20
466.739
  0
SEQEND
  0
LINE
  8
Layer1
  6
CONTINUOUS
 62
7
 10
474.151
 20
467.774
 11
464.151
 21
467.774
  0
TEXT
  8
Layer1
 62
7
 10
496.651
 20
467.774
 72
1
 11
496.651
 21
467.774
 40
6
 41
1
  1
 45 
  0
LINE
  8
Layer1
  6
CONTINUOUS
 62
7
 10
519.151
 20
457.895
 11
519.151
 21
469.774
  0
POLYLINE
  8
Layer1
  6
CONTINUOUS
 62
7
 66
1
 10
0
 20
0
 30
0
  0
VERTEX
  8
Layer1
 10
474.151
 20
467.774
  0
VERTEX
  8
Layer1
 10
519.151
 20
467.774
  0
SEQEND
  0
POLYLINE
  8
Layer1
  6
CONTINUOUS
 62
7
 66
1
 10
0
 20
0
 30
0
 70
1
  0
VERTEX
  8
Layer1
 10
478.014
 20
466.739
  0
VERTEX
  8
Layer1
 10
474.151
 20
467.774
  0
VERTEX
  8
Layer1
 10
478.014
 20
468.809
  0
SEQEND
  0
POLYLINE
  8
Layer1
  6
CONTINUOUS
 62
7
 66
1
 10
0
 20
0
 30
0
 70
1
  0
VERTEX
  8
Layer1
 10
515.287
 20
468.809
  0
VERTEX
  8
Layer1
 10
519.151
 20
467.774
  0
VERTEX
  8
Layer1
 10
515.287
 20
466.739
  0
SEQEND
  0
TEXT
  8
Layer1
 62
7
 10
541.651
 20
467.774
 72
1
 11
541.651
 21
467.774
 40
6
 41
1
  1
 45 
  0
LINE
  8
Layer1
  6
CONTINUOUS
 62
7
 10
564.151
 20
457.895
 11
564.151
 21
469.774
  0
POLYLINE
  8
Layer1
  6
CONTINUOUS
 62
7
 66
1
 10
0
 20
0
 30
0
  0
VERTEX
  8
Layer1
 10
519.151
 20
467.774
  0
VERTEX
  8
Layer1
 10
564.151
 20
467.774
  0
SEQEND
  0
POLYLINE
  8
Layer1
  6
CONTINUOUS
 62
7
 66
1
 10
0
 20
0
 30
0
 70
1
  0
VERTEX
  8
Layer1
 10
523.014
 20
466.739
  0
VERTEX
  8
Layer1
 10
519.151
 20
467.774
  0
VERTEX
  8
Layer1
 10
523.014
 20
468.809
  0
SEQEND
  0
POLYLINE
  8
Layer1
  6
CONTINUOUS
 62
7
 66
1
 10
0
 20
0
 30
0
 70
1
  0
VERTEX
  8
Layer1
 10
560.287
 20
468.809
  0
VERTEX
  8
Layer1
 10
564.151
 20
467.774
  0
VERTEX
  8
Layer1
 10
560.287
 20
466.739
  0
SEQEND
  0
TEXT
  8
Layer1
 62
7
 10
606.434
 20
372.895
 72
1
 11
606.434
 21
372.895
 40
6
 41
1
 50
90
  1
 115 
  0
LINE
  8
Layer1
  6
CONTINUOUS
 62
7
 10
594.151
 20
430.395
 11
608.434
 21
430.395
  0
LINE
  8
Layer1
  6
CONTINUOUS
 62
7
 10
580.027
 20
315.395
 11
608.434
 21
315.395
  0
POLYLINE
  8
Layer1
  6
CONTINUOUS
 62
7
 66
1
 10
0
 20
0
 30
0
  0
VERTEX
  8
Layer1
 10
606.434
 20
430.395
  0
VERTEX
  8
Layer1
 10
606.434
 20
315.395
  0
SEQEND
  0
POLYLINE
  8
Layer1
  6
CONTINUOUS
 62
7
 66
1
 10
0
 20
0
 30
0
 70
1
  0
VERTEX
  8
Layer1
 10
605.399
 20
426.532
  0
VERTEX
  8
Layer1
 10
606.434
 20
430.395
  0
VERTEX
  8
Layer1
 10
607.47
 20
426.532
  0
SEQEND
  0
POLYLINE
  8
Layer1
  6
CONTINUOUS
 62
7
 66
1
 10
0
 20
0
 30
0
 70
1
  0
VERTEX
  8
Layer1
 10
607.47
 20
319.259
  0
VERTEX
  8
Layer1
 10
606.434
 20
315.395
  0
VERTEX
  8
Layer1
 10
605.399
 20
319.259
  0
SEQEND
  0
TEXT
  8
Layer1
 62
7
 10
628.983
 20
372.895
 72
1
 11
628.983
 21
372.895
 40
6
 41
1
 50
90
  1
 132 
  0
TEXT
  8
Layer1
 62
7
 10
639.567
 20
372.895
 72
1
 11
639.567
 21
372.895
 40
6
 41
1
 50
90
  1
 150 
  0
LINE
  8
Layer1
  6
CONTINUOUS
 62
7
 10
575.017
 20
447.895
 11
641.567
 21
447.895
  0
LINE
  8
Layer1
  6
CONTINUOUS
 62
7
 10
572.715
 20
297.895
 11
641.567
 21
297.895
  0
POLYLINE
  8
Layer1
  6
CONTINUOUS
 62
7
 66
1
 10
0
 20
0
 30
0
  0
VERTEX
  8
Layer1
 10
639.567
 20
447.895
  0
VERTEX
  8
Layer1
 10
639.567
 20
297.895
  0
SEQEND
  0
POLYLINE
  8
Layer1
  6
CONTINUOUS
 62
7
 66
1
 10
0
 20
0
 30
0
 70
1
  0
VERTEX
  8
Layer1
 10
638.532
 20
444.032
  0
VERTEX
  8
Layer1
 10
639.567
 20
447.895
  0
VERTEX
  8
Layer1
 10
640.603
 20
444.032
  0
SEQEND
  0
POLYLINE
  8
Layer1
  6
CONTINUOUS
 62
7
 66
1
 10
0
 20
0
 30
0
 70
1
  0
VERTEX
  8
Layer1
 10
640.603
 20
301.759
  0
VERTEX
  8
Layer1
 10
639.567
 20
297.895
  0
VERTEX
  8
Layer1
 10
638.532
 20
301.759
  0
SEQEND
  0
TEXT
  8
Layer1
 62
7
 10
651.072
 20
372.895
 72
1
 11
651.072
 21
372.895
 40
6
 41
1
 50
90
  1
 170 
  0
LINE
  8
Layer1
  6
CONTINUOUS
 62
7
 10
573.151
 20
457.895
 11
653.072
 21
457.895
  0
LINE
  8
Layer1
  6
CONTINUOUS
 62
7
 10
574.151
 20
287.895
 11
653.072
 21
287.895
  0
POLYLINE
  8
Layer1
  6
CONTINUOUS
 62
7
 66
1
 10
0
 20
0
 30
0
  0
VERTEX
  8
Layer1
 10
651.072
 20
457.895
  0
VERTEX
  8
Layer1
 10
651.072
 20
287.895
  0
SEQEND
  0
POLYLINE
  8
Layer1
  6
CONTINUOUS
 62
7
 66
1
 10
0
 20
0
 30
0
 70
1
  0
VERTEX
  8
Layer1
 10
650.037
 20
454.032
  0
VERTEX
  8
Layer1
 10
651.072
 20
457.895
  0
VERTEX
  8
Layer1
 10
652.107
 20
454.032
  0
SEQEND
  0
POLYLINE
  8
Layer1
  6
CONTINUOUS
 62
7
 66
1
 10
0
 20
0
 30
0
 70
1
  0
VERTEX
  8
Layer1
 10
652.107
 20
291.759
  0
VERTEX
  8
Layer1
 10
651.072
 20
287.895
  0
VERTEX
  8
Layer1
 10
650.037
 20
291.759
  0
SEQEND
  0
POLYLINE
  8
Layer1
  6
CONTINUOUS
 62
7
 66
1
 10
0
 20
0
 30
0
  0
VERTEX
  8
Layer1
 10
569.333
 20
433.577
  0
VERTEX
  8
Layer1
 10
602.107
 20
472.596
  0
VERTEX
  8
Layer1
 10
602.107
 20
472.596
  0
SEQEND
  0
POLYLINE
  8
Layer1
  6
CONTINUOUS
 62
7
 66
1
 10
0
 20
0
 30
0
 70
1
  0
VERTEX
  8
Layer1
 10
572.611
 20
435.87
  0
VERTEX
  8
Layer1
 10
569.333
 20
433.577
  0
VERTEX
  8
Layer1
 10
571.025
 20
437.202
  0
SEQEND
  0
LINE
  8
Layer1
  6
CONTINUOUS
 62
7
 10
602.107
 20
472.596
 11
614.607
 21
472.596
  0
TEXT
  8
Layer1
 62
7
 10
614.607
 20
473.596
 72
2
 11
614.607
 21
473.596
 40
6
 41
1
  1
4-φ9
  0
TEXT
  8
Layer1
 62
7
 10
599.593
 20
469.317
 73
3
 11
599.593
 21
469.317
 40
6
 41
1
  1
(アッパー取付穴）
  0
POLYLINE
  8
Layer1
  6
CONTINUOUS
 62
7
 66
1
 10
0
 20
0
 30
0
  0
VERTEX
  8
Layer1
 10
469.201
 20
452.845
  0
VERTEX
  8
Layer1
 10
449.087
 20
469.845
  0
VERTEX
  8
Layer1
 10
449.087
 20
469.845
  0
SEQEND
  0
POLYLINE
  8
Layer1
  6
CONTINUOUS
 62
7
 66
1
 10
0
 20
0
 30
0
 70
1
  0
VERTEX
  8
Layer1
 10
466.918
 20
456.13
  0
VERTEX
  8
Layer1
 10
469.201
 20
452.845
  0
VERTEX
  8
Layer1
 10
465.582
 20
454.548
  0
SEQEND
  0
LINE
  8
Layer1
  6
CONTINUOUS
 62
7
 10
449.087
 20
469.845
 11
436.587
 21
469.845
  0
TEXT
  8
Layer1
 62
7
 10
436.587
 20
470.845
 40
6
 41
1
  1
4-φ9
  0
TEXT
  8
Layer1
 62
7
 10
414.348
 20
466.101
 73
3
 11
414.348
 21
466.101
 40
5
 41
1
  1
(ベース取付穴）
  0
LINE
  8
Layer1
  6
PHANTOM1
 62
7
 10
534.001
 20
157.167
 11
554.151
 21
122.267
  0
LINE
  8
Layer1
  6
CONTINUOUS
 62
7
 10
574.151
 20
158.099
 11
574.151
 21
154.099
  0
LINE
  8
Layer1
  6
CONTINUOUS
 62
7
 10
567.177
 20
107.167
 11
564.172
 21
107.167
  0
LINE
  8
Layer1
  6
CONTINUOUS
 62
7
 10
531.151
 20
157.167
 11
493.652
 21
157.167
  0
POLYLINE
  8
Layer1
  6
CONTINUOUS
 62
7
 66
1
 10
0
 20
0
 30
0
  0
VERTEX
  8
Layer1
 10
488.51
 20
170.367
  0
VERTEX
  8
Layer1
 10
488.608
 20
170.156
  0
VERTEX
  8
Layer1
 10
488.704
 20
169.945
  0
VERTEX
  8
Layer1
 10
488.796
 20
169.736
  0
VERTEX
  8
Layer1
 10
488.883
 20
169.529
  0
VERTEX
  8
Layer1
 10
488.961
 20
169.325
  0
VERTEX
  8
Layer1
 10
489.03
 20
169.125
  0
VERTEX
  8
Layer1
 10
489.088
 20
168.929
  0
VERTEX
  8
Layer1
 10
489.131
 20
168.738
  0
VERTEX
  8
Layer1
 10
489.16
 20
168.553
  0
VERTEX
  8
Layer1
 10
489.171
 20
168.374
  0
VERTEX
  8
Layer1
 10
489.162
 20
168.203
  0
VERTEX
  8
Layer1
 10
489.132
 20
168.039
  0
VERTEX
  8
Layer1
 10
489.079
 20
167.885
  0
VERTEX
  8
Layer1
 10
489.001
 20
167.739
  0
VERTEX
  8
Layer1
 10
488.895
 20
167.604
  0
VERTEX
  8
Layer1
 10
488.764
 20
167.479
  0
VERTEX
  8
Layer1
 10
488.614
 20
167.361
  0
VERTEX
  8
Layer1
 10
488.451
 20
167.248
  0
VERTEX
  8
Layer1
 10
488.282
 20
167.139
  0
VERTEX
  8
Layer1
 10
488.115
 20
167.031
  0
VERTEX
  8
Layer1
 10
487.956
 20
166.922
  0
VERTEX
  8
Layer1
 10
487.812
 20
166.809
  0
VERTEX
  8
Layer1
 10
487.691
 20
166.69
  0
VERTEX
  8
Layer1
 10
487.597
 20
166.564
  0
VERTEX
  8
Layer1
 10
487.532
 20
166.429
  0
VERTEX
  8
Layer1
 10
487.495
 20
166.287
  0
VERTEX
  8
Layer1
 10
487.481
 20
166.137
  0
VERTEX
  8
Layer1
 10
487.49
 20
165.981
  0
VERTEX
  8
Layer1
 10
487.519
 20
165.818
  0
VERTEX
  8
Layer1
 10
487.565
 20
165.65
  0
VERTEX
  8
Layer1
 10
487.627
 20
165.476
  0
VERTEX
  8
Layer1
 10
487.703
 20
165.297
  0
VERTEX
  8
Layer1
 10
487.79
 20
165.113
  0
VERTEX
  8
Layer1
 10
487.886
 20
164.925
  0
VERTEX
  8
Layer1
 10
487.989
 20
164.734
  0
VERTEX
  8
Layer1
 10
488.096
 20
164.539
  0
VERTEX
  8
Layer1
 10
488.206
 20
164.341
  0
VERTEX
  8
Layer1
 10
488.316
 20
164.141
  0
VERTEX
  8
Layer1
 10
488.424
 20
163.94
  0
VERTEX
  8
Layer1
 10
488.527
 20
163.736
  0
VERTEX
  8
Layer1
 10
488.625
 20
163.532
  0
VERTEX
  8
Layer1
 10
488.713
 20
163.327
  0
VERTEX
  8
Layer1
 10
488.791
 20
163.122
  0
VERTEX
  8
Layer1
 10
488.857
 20
162.917
  0
VERTEX
  8
Layer1
 10
488.91
 20
162.713
  0
VERTEX
  8
Layer1
 10
488.952
 20
162.509
  0
VERTEX
  8
Layer1
 10
488.982
 20
162.306
  0
VERTEX
  8
Layer1
 10
489.001
 20
162.105
  0
VERTEX
  8
Layer1
 10
489.01
 20
161.904
  0
VERTEX
  8
Layer1
 10
489.008
 20
161.705
  0
VERTEX
  8
Layer1
 10
488.996
 20
161.507
  0
VERTEX
  8
Layer1
 10
488.974
 20
161.311
  0
VERTEX
  8
Layer1
 10
488.943
 20
161.117
  0
VERTEX
  8
Layer1
 10
488.903
 20
160.926
  0
VERTEX
  8
Layer1
 10
488.855
 20
160.736
  0
VERTEX
  8
Layer1
 10
488.798
 20
160.549
  0
VERTEX
  8
Layer1
 10
488.733
 20
160.365
  0
VERTEX
  8
Layer1
 10
488.66
 20
160.184
  0
VERTEX
  8
Layer1
 10
488.58
 20
160.006
  0
VERTEX
  8
Layer1
 10
488.494
 20
159.832
  0
VERTEX
  8
Layer1
 10
488.401
 20
159.66
  0
VERTEX
  8
Layer1
 10
488.301
 20
159.493
  0
VERTEX
  8
Layer1
 10
488.196
 20
159.329
  0
VERTEX
  8
Layer1
 10
488.085
 20
159.17
  0
VERTEX
  8
Layer1
 10
487.969
 20
159.014
  0
VERTEX
  8
Layer1
 10
487.848
 20
158.864
  0
VERTEX
  8
Layer1
 10
487.723
 20
158.718
  0
VERTEX
  8
Layer1
 10
487.594
 20
158.576
  0
VERTEX
  8
Layer1
 10
487.461
 20
158.44
  0
VERTEX
  8
Layer1
 10
487.324
 20
158.309
  0
VERTEX
  8
Layer1
 10
487.184
 20
158.182
  0
VERTEX
  8
Layer1
 10
487.042
 20
158.059
  0
VERTEX
  8
Layer1
 10
486.897
 20
157.939
  0
VERTEX
  8
Layer1
 10
486.75
 20
157.823
  0
VERTEX
  8
Layer1
 10
486.601
 20
157.71
  0
VERTEX
  8
Layer1
 10
486.45
 20
157.599
  0
VERTEX
  8
Layer1
 10
486.298
 20
157.489
  0
VERTEX
  8
Layer1
 10
486.145
 20
157.381
  0
VERTEX
  8
Layer1
 10
485.992
 20
157.274
  0
VERTEX
  8
Layer1
 10
485.838
 20
157.167
  0
SEQEND
  0
POLYLINE
  8
Layer1
  6
CONTINUOUS
 62
7
 66
1
 10
0
 20
0
 30
0
  0
VERTEX
  8
Layer1
 10
514.143
 20
170.367
  0
VERTEX
  8
Layer1
 10
513.987
 20
170.214
  0
VERTEX
  8
Layer1
 10
513.831
 20
170.062
  0
VERTEX
  8
Layer1
 10
513.676
 20
169.909
  0
VERTEX
  8
Layer1
 10
513.524
 20
169.756
  0
VERTEX
  8
Layer1
 10
513.374
 20
169.603
  0
VERTEX
  8
Layer1
 10
513.227
 20
169.449
  0
VERTEX
  8
Layer1
 10
513.084
 20
169.295
  0
VERTEX
  8
Layer1
 10
512.946
 20
169.14
  0
VERTEX
  8
Layer1
 10
512.813
 20
168.984
  0
VERTEX
  8
Layer1
 10
512.686
 20
168.828
  0
VERTEX
  8
Layer1
 10
512.565
 20
168.67
  0
VERTEX
  8
Layer1
 10
512.452
 20
168.512
  0
VERTEX
  8
Layer1
 10
512.346
 20
168.353
  0
VERTEX
  8
Layer1
 10
512.249
 20
168.192
  0
VERTEX
  8
Layer1
 10
512.161
 20
168.03
  0
VERTEX
  8
Layer1
 10
512.083
 20
167.867
  0
VERTEX
  8
Layer1
 10
512.015
 20
167.703
  0
VERTEX
  8
Layer1
 10
511.958
 20
167.537
  0
VERTEX
  8
Layer1
 10
511.913
 20
167.369
  0
VERTEX
  8
Layer1
 10
511.881
 20
167.2
  0
VERTEX
  8
Layer1
 10
511.861
 20
167.029
  0
VERTEX
  8
Layer1
 10
511.855
 20
166.856
  0
VERTEX
  8
Layer1
 10
511.864
 20
166.682
  0
VERTEX
  8
Layer1
 10
511.886
 20
166.505
  0
VERTEX
  8
Layer1
 10
511.922
 20
166.327
  0
VERTEX
  8
Layer1
 10
511.971
 20
166.149
  0
VERTEX
  8
Layer1
 10
512.031
 20
165.97
  0
VERTEX
  8
Layer1
 10
512.103
 20
165.791
  0
VERTEX
  8
Layer1
 10
512.185
 20
165.612
  0
VERTEX
  8
Layer1
 10
512.277
 20
165.434
  0
VERTEX
  8
Layer1
 10
512.378
 20
165.258
  0
VERTEX
  8
Layer1
 10
512.487
 20
165.083
  0
VERTEX
  8
Layer1
 10
512.604
 20
164.91
  0
VERTEX
  8
Layer1
 10
512.727
 20
164.74
  0
VERTEX
  8
Layer1
 10
512.856
 20
164.571
  0
VERTEX
  8
Layer1
 10
512.988
 20
164.404
  0
VERTEX
  8
Layer1
 10
513.122
 20
164.239
  0
VERTEX
  8
Layer1
 10
513.257
 20
164.075
  0
VERTEX
  8
Layer1
 10
513.392
 20
163.911
  0
VERTEX
  8
Layer1
 10
513.524
 20
163.749
  0
VERTEX
  8
Layer1
 10
513.652
 20
163.587
  0
VERTEX
  8
Layer1
 10
513.775
 20
163.426
  0
VERTEX
  8
Layer1
 10
513.891
 20
163.265
  0
VERTEX
  8
Layer1
 10
513.999
 20
163.103
  0
VERTEX
  8
Layer1
 10
514.098
 20
162.941
  0
VERTEX
  8
Layer1
 10
514.185
 20
162.778
  0
VERTEX
  8
Layer1
 10
514.26
 20
162.615
  0
VERTEX
  8
Layer1
 10
514.32
 20
162.45
  0
VERTEX
  8
Layer1
 10
514.366
 20
162.284
  0
VERTEX
  8
Layer1
 10
514.393
 20
162.116
  0
VERTEX
  8
Layer1
 10
514.403
 20
161.946
  0
VERTEX
  8
Layer1
 10
514.392
 20
161.774
  0
VERTEX
  8
Layer1
 10
514.361
 20
161.6
  0
VERTEX
  8
Layer1
 10
514.31
 20
161.424
  0
VERTEX
  8
Layer1
 10
514.243
 20
161.246
  0
VERTEX
  8
Layer1
 10
514.164
 20
161.067
  0
VERTEX
  8
Layer1
 10
514.075
 20
160.887
  0
VERTEX
  8
Layer1
 10
513.981
 20
160.706
  0
VERTEX
  8
Layer1
 10
513.884
 20
160.526
  0
VERTEX
  8
Layer1
 10
513.787
 20
160.345
  0
VERTEX
  8
Layer1
 10
513.695
 20
160.166
  0
VERTEX
  8
Layer1
 10
513.609
 20
159.987
  0
VERTEX
  8
Layer1
 10
513.534
 20
159.81
  0
VERTEX
  8
Layer1
 10
513.473
 20
159.636
  0
VERTEX
  8
Layer1
 10
513.43
 20
159.463
  0
VERTEX
  8
Layer1
 10
513.406
 20
159.293
  0
VERTEX
  8
Layer1
 10
513.406
 20
159.127
  0
VERTEX
  8
Layer1
 10
513.431
 20
158.963
  0
VERTEX
  8
Layer1
 10
513.478
 20
158.803
  0
VERTEX
  8
Layer1
 10
513.546
 20
158.646
  0
VERTEX
  8
Layer1
 10
513.633
 20
158.491
  0
VERTEX
  8
Layer1
 10
513.737
 20
158.338
  0
VERTEX
  8
Layer1
 10
513.855
 20
158.187
  0
VERTEX
  8
Layer1
 10
513.987
 20
158.038
  0
VERTEX
  8
Layer1
 10
514.13
 20
157.891
  0
VERTEX
  8
Layer1
 10
514.283
 20
157.744
  0
VERTEX
  8
Layer1
 10
514.443
 20
157.599
  0
VERTEX
  8
Layer1
 10
514.609
 20
157.455
  0
VERTEX
  8
Layer1
 10
514.779
 20
157.311
  0
VERTEX
  8
Layer1
 10
514.95
 20
157.167
  0
SEQEND
  0
LINE
  8
Layer1
  6
CONTINUOUS
 62
7
 10
489.916
 20
163.167
 11
494.131
 21
167.382
  0
LINE
  8
Layer1
  6
CONTINUOUS
 62
7
 10
487.818
 20
165.068
 11
493.116
 21
170.367
  0
LINE
  8
Layer1
  6
CONTINUOUS
 62
7
 10
488.662
 20
169.913
 11
489.116
 21
170.367
  0
LINE
  8
Layer1
  6
CONTINUOUS
 62
7
 10
501.16
 20
169.367
 11
502.103
 21
170.367
  0
LINE
  8
Layer1
  6
CONTINUOUS
 62
7
 10
501.16
 20
165.423
 11
506.103
 21
170.367
  0
LINE
  8
Layer1
  6
CONTINUOUS
 62
7
 10
502.903
 20
163.167
 11
510.103
 21
170.367
  0
LINE
  8
Layer1
  6
CONTINUOUS
 62
7
 10
506.903
 20
163.167
 11
514.103
 21
170.367
  0
LINE
  8
Layer1
  6
CONTINUOUS
 62
7
 10
510.292
 20
162.555
 11
512.626
 21
164.89
  0
LINE
  8
Layer1
  6
CONTINUOUS
 62
7
 10
510.66
 20
158.923
 11
514.28
 21
162.543
  0
LINE
  8
Layer1
  6
CONTINUOUS
 62
7
 10
512.903
 20
157.167
 11
513.926
 21
158.189
  0
LINE
  8
Layer1
  6
PHANTOM1
 62
7
 10
416.651
 20
108.167
 11
416.651
 21
156.167
  0
LINE
  8
Layer1
  6
PHANTOM1
 62
7
 10
438.651
 20
107.167
 11
417.651
 21
107.167
  0
LINE
  8
Layer1
  6
PHANTOM1
 62
7
 10
438.651
 20
157.167
 11
417.651
 21
157.167
  0
LINE
  8
Layer1
  6
PHANTOM1
 62
7
 10
416.651
 20
156.167
 11
417.651
 21
157.167
  0
LINE
  8
Layer1
  6
PHANTOM1
 62
7
 10
416.651
 20
108.167
 11
417.651
 21
107.167
  0
TEXT
  8
Layer1
 62
7
 10
428.157
 20
79.2877
 72
1
 11
428.157
 21
79.2877
 40
6
 41
1
  1
20ストローク
  0
LINE
  8
Layer1
  6
CONTINUOUS
 62
7
 10
416.651
 20
108.167
 11
416.651
 21
85.1671
  0
LINE
  8
Layer1
  6
CONTINUOUS
 62
7
 10
436.651
 20
108.167
 11
436.651
 21
85.1671
  0
POLYLINE
  8
Layer1
  6
CONTINUOUS
 62
7
 66
1
 10
0
 20
0
 30
0
  0
VERTEX
  8
Layer1
 10
416.651
 20
87.5001
  0
VERTEX
  8
Layer1
 10
436.651
 20
87.5001
  0
SEQEND
  0
POLYLINE
  8
Layer1
  6
CONTINUOUS
 62
7
 66
1
 10
0
 20
0
 30
0
 70
1
  0
VERTEX
  8
Layer1
 10
420.515
 20
86.4651
  0
VERTEX
  8
Layer1
 10
416.651
 20
87.5001
  0
VERTEX
  8
Layer1
 10
420.515
 20
88.5361
  0
SEQEND
  0
POLYLINE
  8
Layer1
  6
CONTINUOUS
 62
7
 66
1
 10
0
 20
0
 30
0
 70
1
  0
VERTEX
  8
Layer1
 10
432.787
 20
88.5361
  0
VERTEX
  8
Layer1
 10
436.651
 20
87.5001
  0
VERTEX
  8
Layer1
 10
432.787
 20
86.4651
  0
SEQEND
  0
LINE
  8
Layer1
  6
CONTINUOUS
 62
7
 10
464.134
 20
108.167
 11
463.133
 21
107.167
  0
LINE
  8
Layer1
  6
CONTINUOUS
 62
7
 10
464.172
 20
156.167
 11
463.173
 21
157.167
  0
TEXT
  8
Layer1
 62
7
 10
472.036
 20
181.427
 72
1
 11
472.036
 21
181.427
 40
6
 41
1
  1
4.5
  0
LINE
  8
Layer1
  6
CONTINUOUS
 62
7
 10
459.651
 20
154.417
 11
459.651
 21
183.427
  0
LINE
  8
Layer1
  6
CONTINUOUS
 62
7
 10
464.151
 20
167.04
 11
464.151
 21
183.427
  0
POLYLINE
  8
Layer1
  6
CONTINUOUS
 62
7
 66
1
 10
0
 20
0
 30
0
  0
VERTEX
  8
Layer1
 10
449.651
 20
181.427
  0
VERTEX
  8
Layer1
 10
459.651
 20
181.427
  0
SEQEND
  0
POLYLINE
  8
Layer1
  6
CONTINUOUS
 62
7
 66
1
 10
0
 20
0
 30
0
 70
1
  0
VERTEX
  8
Layer1
 10
455.787
 20
182.463
  0
VERTEX
  8
Layer1
 10
459.651
 20
181.427
  0
VERTEX
  8
Layer1
 10
455.787
 20
180.392
  0
SEQEND
  0
POLYLINE
  8
Layer1
  6
CONTINUOUS
 62
7
 66
1
 10
0
 20
0
 30
0
  0
VERTEX
  8
Layer1
 10
478.036
 20
181.427
  0
VERTEX
  8
Layer1
 10
464.151
 20
181.427
  0
SEQEND
  0
POLYLINE
  8
Layer1
  6
CONTINUOUS
 62
7
 66
1
 10
0
 20
0
 30
0
 70
1
  0
VERTEX
  8
Layer1
 10
468.015
 20
180.392
  0
VERTEX
  8
Layer1
 10
464.151
 20
181.427
  0
VERTEX
  8
Layer1
 10
468.015
 20
182.463
  0
SEQEND
  0
LINE
  8
Layer1
  6
CONTINUOUS
 62
7
 10
459.651
 20
181.427
 11
464.151
 21
181.427
  0
TEXT
  8
Layer1
 62
7
 10
448.151
 20
181.427
 72
1
 11
448.151
 21
181.427
 40
6
 41
1
  1
 23 
  0
LINE
  8
Layer1
  6
CONTINUOUS
 62
7
 10
436.651
 20
156.167
 11
436.651
 21
183.427
  0
LINE
  8
Layer1
  6
CONTINUOUS
 62
7
 10
459.651
 20
156.167
 11
459.651
 21
183.427
  0
POLYLINE
  8
Layer1
  6
CONTINUOUS
 62
7
 66
1
 10
0
 20
0
 30
0
  0
VERTEX
  8
Layer1
 10
436.651
 20
181.427
  0
VERTEX
  8
Layer1
 10
459.651
 20
181.427
  0
SEQEND
  0
POLYLINE
  8
Layer1
  6
CONTINUOUS
 62
7
 66
1
 10
0
 20
0
 30
0
 70
1
  0
VERTEX
  8
Layer1
 10
440.515
 20
180.392
  0
VERTEX
  8
Layer1
 10
436.651
 20
181.427
  0
VERTEX
  8
Layer1
 10
440.515
 20
182.463
  0
SEQEND
  0
POLYLINE
  8
Layer1
  6
CONTINUOUS
 62
7
 66
1
 10
0
 20
0
 30
0
 70
1
  0
VERTEX
  8
Layer1
 10
455.787
 20
182.463
  0
VERTEX
  8
Layer1
 10
459.651
 20
181.427
  0
VERTEX
  8
Layer1
 10
455.787
 20
180.392
  0
SEQEND
  0
LINE
  8
Layer1
  6
CONTINUOUS
 62
7
 10
464.151
 20
169.367
 11
464.151
 21
88.1671
  0
LINE
  8
Layer1
  6
CONTINUOUS
 62
7
 10
532.151
 20
436.895
 11
532.151
 21
308.895
  0
LINE
  8
Layer1
  6
CONTINUOUS
 62
7
 10
532.151
 20
436.895
 11
531.151
 21
437.895
  0
LINE
  8
Layer1
  6
CONTINUOUS
 62
7
 10
465.151
 20
437.895
 11
464.151
 21
436.895
  0
LINE
  8
Layer1
  6
CONTINUOUS
 62
7
 10
464.151
 20
308.895
 11
465.151
 21
307.895
  0
LINE
  8
Layer1
  6
CONTINUOUS
 62
7
 10
464.151
 20
456.895
 11
465.151
 21
457.895
  0
LINE
  8
Layer1
  6
CONTINUOUS
 62
7
 10
464.151
 20
288.895
 11
465.151
 21
287.895
  0
LINE
  8
Layer1
  6
CONTINUOUS
 62
7
 10
532.151
 20
158.167
 11
532.151
 21
169.367
  0
LINE
  8
Layer1
  6
CONTINUOUS
 62
7
 10
532.151
 20
169.367
 11
531.151
 21
170.367
  0
LINE
  8
Layer1
  6
CONTINUOUS
 62
7
 10
532.151
 20
158.167
 11
531.151
 21
157.167
  0
LINE
  8
Layer1
  6
CENTER1
 62
7
 10
491.59
 20
97.6671
 11
462.261
 21
97.6671
  0
TEXT
  8
Layer1
 62
7
 10
561.19
 20
171.539
 72
1
 11
561.19
 21
171.539
 40
6
 41
1
 50
15
  1
 30°
  0
ARC
  8
Layer1
  6
CONTINUOUS
 62
7
 10
574.151
 20
123.167
 40
50.0783
 50
90
 51
120
  0
TEXT
  8
Layer1
 62
7
 10
223.121
 20
380.578
 73
3
 11
223.121
 21
380.578
 40
10
 41
1
  1
EMC-50-100-20
  0
LINE
  8
Layer1
  6
CONTINUOUS
 62
7
 10
217.761
 20
384.47
 11
217.761
 21
367.03
  0
LINE
  8
Layer1
  6
CONTINUOUS
 62
7
 10
217.761
 20
367.03
 11
290.739
 21
367.03
  0
LINE
  8
Layer1
  6
CONTINUOUS
 62
7
 10
290.739
 20
384.47
 11
290.739
 21
367.03
  0
LINE
  8
Layer1
  6
CONTINUOUS
 62
7
 10
217.761
 20
384.47
 11
290.739
 21
384.47
  0
ENDSEC
  0
EOF
